  0
SECTION
  2
HEADER
  9
$ACADVER
  1
AC1015
  9
$ACADMAINTVER
 70
    13
  9
$DWGCODEPAGE
  3
ANSI_1252
  9
$INSBASE
 10
0.0
 20
0.0
 30
0.0
  9
$EXTMIN
 10
28.05513655173973
 20
51.77163464759104
 30
0.0
  9
$EXTMAX
 10
338.5274906294424
 20
255.7427125018104
 30
0.0
  9
$LIMMIN
 10
0.0
 20
0.0
  9
$LIMMAX
 10
420.0
 20
297.0
  9
$ORTHOMODE
 70
     1
  9
$REGENMODE
 70
     1
  9
$FILLMODE
 70
     1
  9
$QTEXTMODE
 70
     0
  9
$MIRRTEXT
 70
     1
  9
$LTSCALE
 40
1.0
  9
$ATTMODE
 70
     1
  9
$TEXTSIZE
 40
2.5
  9
$TRACEWID
 40
1.0
  9
$TEXTSTYLE
  7
STANDARD
  9
$CLAYER
  8
AM_0
  9
$CELTYPE
  6
ByLayer
  9
$CECOLOR
 62
   256
  9
$CELTSCALE
 40
1.0
  9
$DISPSILH
 70
     0
  9
$DIMSCALE
 40
1.0
  9
$DIMASZ
 40
2.5
  9
$DIMEXO
 40
0.625
  9
$DIMDLI
 40
3.75
  9
$DIMRND
 40
0.0
  9
$DIMDLE
 40
0.0
  9
$DIMEXE
 40
1.25
  9
$DIMTP
 40
0.0
  9
$DIMTM
 40
0.0
  9
$DIMTXT
 40
2.5
  9
$DIMCEN
 40
2.5
  9
$DIMTSZ
 40
0.0
  9
$DIMTOL
 70
     0
  9
$DIMLIM
 70
     0
  9
$DIMTIH
 70
     0
  9
$DIMTOH
 70
     0
  9
$DIMSE1
 70
     0
  9
$DIMSE2
 70
     0
  9
$DIMTAD
 70
     1
  9
$DIMZIN
 70
     8
  9
$DIMBLK
  1

  9
$DIMASO
 70
     1
  9
$DIMSHO
 70
     1
  9
$DIMPOST
  1

  9
$DIMAPOST
  1

  9
$DIMALT
 70
     0
  9
$DIMALTD
 70
     3
  9
$DIMALTF
 40
0.03937007874016
  9
$DIMLFAC
 40
1.0
  9
$DIMTOFL
 70
     1
  9
$DIMTVP
 40
0.0
  9
$DIMTIX
 70
     0
  9
$DIMSOXD
 70
     0
  9
$DIMSAH
 70
     0
  9
$DIMBLK1
  1

  9
$DIMBLK2
  1

  9
$DIMSTYLE
  2
ISO-25
  9
$DIMCLRD
 70
     0
  9
$DIMCLRE
 70
     0
  9
$DIMCLRT
 70
     0
  9
$DIMTFAC
 40
1.0
  9
$DIMGAP
 40
0.625
  9
$DIMJUST
 70
     0
  9
$DIMSD1
 70
     0
  9
$DIMSD2
 70
     0
  9
$DIMTOLJ
 70
     1
  9
$DIMTZIN
 70
     0
  9
$DIMALTZ
 70
     0
  9
$DIMALTTZ
 70
     0
  9
$DIMUPT
 70
     0
  9
$DIMDEC
 70
     4
  9
$DIMTDEC
 70
     4
  9
$DIMALTU
 70
     2
  9
$DIMALTTD
 70
     2
  9
$DIMTXSTY
  7
STANDARD
  9
$DIMAUNIT
 70
     0
  9
$DIMADEC
 70
     0
  9
$DIMALTRND
 40
0.0
  9
$DIMAZIN
 70
     0
  9
$DIMDSEP
 70
    46
  9
$DIMATFIT
 70
     3
  9
$DIMFRAC
 70
     0
  9
$DIMLDRBLK
  1

  9
$DIMLUNIT
 70
     2
  9
$DIMLWD
 70
    -2
  9
$DIMLWE
 70
    -2
  9
$DIMTMOVE
 70
     0
  9
$LUNITS
 70
     2
  9
$LUPREC
 70
     2
  9
$SKETCHINC
 40
1.0
  9
$FILLETRAD
 40
2.5
  9
$AUNITS
 70
     0
  9
$AUPREC
 70
     0
  9
$MENU
  1
.
  9
$ELEVATION
 40
0.0
  9
$PELEVATION
 40
0.0
  9
$THICKNESS
 40
0.0
  9
$LIMCHECK
 70
     0
  9
$CHAMFERA
 40
2.5
  9
$CHAMFERB
 40
2.5
  9
$CHAMFERC
 40
0.0
  9
$CHAMFERD
 40
0.0
  9
$SKPOLY
 70
     0
  9
$TDCREATE
 40
2452802.036557789
  9
$TDUCREATE
 40
2452802.203224456
  9
$TDUPDATE
 40
2453866.531139502
  9
$TDUUPDATE
 40
2453866.697806168
  9
$TDINDWG
 40
0.1168992361
  9
$TDUSRTIMER
 40
0.1168988657
  9
$USRTIMER
 70
     1
  9
$ANGBASE
 50
0.0
  9
$ANGDIR
 70
     0
  9
$PDMODE
 70
     0
  9
$PDSIZE
 40
0.0
  9
$PLINEWID
 40
0.0
  9
$SPLFRAME
 70
     0
  9
$SPLINETYPE
 70
     6
  9
$SPLINESEGS
 70
     8
  9
$HANDSEED
  5
271A
  9
$SURFTAB1
 70
     6
  9
$SURFTAB2
 70
     6
  9
$SURFTYPE
 70
     6
  9
$SURFU
 70
     6
  9
$SURFV
 70
     6
  9
$UCSBASE
  2

  9
$UCSNAME
  2

  9
$UCSORG
 10
0.0
 20
0.0
 30
0.0
  9
$UCSXDIR
 10
1.0
 20
0.0
 30
0.0
  9
$UCSYDIR
 10
0.0
 20
1.0
 30
0.0
  9
$UCSORTHOREF
  2

  9
$UCSORTHOVIEW
 70
     0
  9
$UCSORGTOP
 10
0.0
 20
0.0
 30
0.0
  9
$UCSORGBOTTOM
 10
0.0
 20
0.0
 30
0.0
  9
$UCSORGLEFT
 10
0.0
 20
0.0
 30
0.0
  9
$UCSORGRIGHT
 10
0.0
 20
0.0
 30
0.0
  9
$UCSORGFRONT
 10
0.0
 20
0.0
 30
0.0
  9
$UCSORGBACK
 10
0.0
 20
0.0
 30
0.0
  9
$PUCSBASE
  2

  9
$PUCSNAME
  2

  9
$PUCSORG
 10
0.0
 20
0.0
 30
0.0
  9
$PUCSXDIR
 10
1.0
 20
0.0
 30
0.0
  9
$PUCSYDIR
 10
0.0
 20
1.0
 30
0.0
  9
$PUCSORTHOREF
  2

  9
$PUCSORTHOVIEW
 70
     0
  9
$PUCSORGTOP
 10
0.0
 20
0.0
 30
0.0
  9
$PUCSORGBOTTOM
 10
0.0
 20
0.0
 30
0.0
  9
$PUCSORGLEFT
 10
0.0
 20
0.0
 30
0.0
  9
$PUCSORGRIGHT
 10
0.0
 20
0.0
 30
0.0
  9
$PUCSORGFRONT
 10
0.0
 20
0.0
 30
0.0
  9
$PUCSORGBACK
 10
0.0
 20
0.0
 30
0.0
  9
$USERI1
 70
     0
  9
$USERI2
 70
     0
  9
$USERI3
 70
     0
  9
$USERI4
 70
     0
  9
$USERI5
 70
     0
  9
$USERR1
 40
0.0
  9
$USERR2
 40
0.0
  9
$USERR3
 40
0.0
  9
$USERR4
 40
0.0
  9
$USERR5
 40
0.0
  9
$WORLDVIEW
 70
     1
  9
$SHADEDGE
 70
     3
  9
$SHADEDIF
 70
    70
  9
$TILEMODE
 70
     1
  9
$MAXACTVP
 70
    64
  9
$PINSBASE
 10
0.0
 20
0.0
 30
0.0
  9
$PLIMCHECK
 70
     0
  9
$PEXTMIN
 10
1.000000000000000E+20
 20
1.000000000000000E+20
 30
1.000000000000000E+20
  9
$PEXTMAX
 10
-1.000000000000000E+20
 20
-1.000000000000000E+20
 30
-1.000000000000000E+20
  9
$PLIMMIN
 10
0.0
 20
0.0
  9
$PLIMMAX
 10
420.0
 20
297.0
  9
$UNITMODE
 70
     0
  9
$VISRETAIN
 70
     1
  9
$PLINEGEN
 70
     0
  9
$PSLTSCALE
 70
     1
  9
$TREEDEPTH
 70
  3020
  9
$CMLSTYLE
  2
Standard
  9
$CMLJUST
 70
     0
  9
$CMLSCALE
 40
1.0
  9
$PROXYGRAPHICS
 70
     1
  9
$MEASUREMENT
 70
     0
  9
$CELWEIGHT
370
    -1
  9
$ENDCAPS
280
     0
  9
$JOINSTYLE
280
     0
  9
$LWDISPLAY
290
     0
  9
$INSUNITS
 70
     0
  9
$HYPERLINKBASE
  1

  9
$STYLESHEET
  1

  9
$XEDIT
290
     1
  9
$CEPSNTYPE
380
     0
  9
$PSTYLEMODE
290
     1
  9
$FINGERPRINTGUID
  2
{132CDFC5-A9BB-420C-91A2-43095C24E044}
  9
$VERSIONGUID
  2
{0C0EA8DF-0C2E-4DC0-970F-5925731F9360}
  9
$EXTNAMES
290
     1
  9
$PSVPSCALE
 40
0.0
  9
$OLESTARTUP
290
     0
  0
ENDSEC
  0
SECTION
  2
CLASSES
  0
CLASS
  1
ACDBDICTIONARYWDFLT
  2
AcDbDictionaryWithDefault
  3
AutoCAD 2000
 90
        0
280
     0
281
     0
  0
CLASS
  1
ACDBPLACEHOLDER
  2
AcDbPlaceHolder
  3
AutoCAD 2000
 90
        0
280
     0
281
     0
  0
CLASS
  1
LAYOUT
  2
AcDbLayout
  3
AutoCAD 2000
 90
        0
280
     0
281
     0
  0
CLASS
  1
DICTIONARYVAR
  2
AcDbDictionaryVar
  3
AutoCAD 2000
 90
        0
280
     0
281
     0
  0
ENDSEC
  0
SECTION
  2
TABLES
  0
TABLE
  2
VPORT
  5
23F3
330
0
100
AcDbSymbolTable
 70
     3
  0
VPORT
  5
2719
330
23F3
100
AcDbSymbolTableRecord
100
AcDbViewportTableRecord
  2
*Active
 70
     0
 10
0.0
 20
0.0
 11
1.0
 21
1.0
 12
174.5546560399074
 22
150.8598403658776
 13
0.0
 23
0.0
 14
2.5
 24
2.5
 15
10.0
 25
10.0
 16
0.0
 26
0.0
 36
1.0
 17
0.0
 27
0.0
 37
0.0
 40
298.3952755079553
 41
1.182835820895522
 42
50.0
 43
0.0
 44
0.0
 50
0.0
 51
0.0
 71
     0
 72
   100
 73
     1
 74
     3
 75
     0
 76
     0
 77
     0
 78
     0
281
     0
 65
     1
110
0.0
120
0.0
130
0.0
111
1.0
121
0.0
131
0.0
112
0.0
122
1.0
132
0.0
 79
     0
146
0.0
  0
ENDTAB
  0
TABLE
  2
LTYPE
  5
23F0
330
0
100
AcDbSymbolTable
 70
     5
  0
LTYPE
  5
23FE
330
23F0
100
AcDbSymbolTableRecord
100
AcDbLinetypeTableRecord
  2
ByBlock
 70
     0
  3

 72
    65
 73
     0
 40
0.0
  0
LTYPE
  5
23FF
330
23F0
100
AcDbSymbolTableRecord
100
AcDbLinetypeTableRecord
  2
ByLayer
 70
     0
  3

 72
    65
 73
     0
 40
0.0
  0
LTYPE
  5
2400
330
23F0
100
AcDbSymbolTableRecord
100
AcDbLinetypeTableRecord
  2
CONTINUOUS
 70
     0
  3
Solid line
 72
    65
 73
     0
 40
0.0
  0
LTYPE
  5
240F
330
23F0
100
AcDbSymbolTableRecord
100
AcDbLinetypeTableRecord
  2
CENTER
 70
     0
  3
Center ____ _ ____ _ ____ _ ____ _ ____ _ ____
 72
    65
 73
     4
 40
50.8
 49
31.75
 74
     0
 49
-6.349999999999997
 74
     0
 49
6.349999999999997
 74
     0
 49
-6.349999999999997
 74
     0
  0
LTYPE
  5
2410
330
23F0
100
AcDbSymbolTableRecord
100
AcDbLinetypeTableRecord
  2
DASHDOT
 70
     0
  3
__ . __ . __ .
 72
    65
 73
     4
 40
7.328947368421047
 49
3.664473684210522
 74
     0
 49
-1.832236842105259
 74
     0
 49
0.0
 74
     0
 49
-1.832236842105259
 74
     0
  0
LTYPE
  5
2411
330
23F0
100
AcDbSymbolTableRecord
100
AcDbLinetypeTableRecord
  2
DIVIDE
 70
     0
  3
__ . . __ . . 
 72
    65
 73
     6
 40
9.161184210526313
 49
3.664473684210522
 74
     0
 49
-1.832236842105259
 74
     0
 49
0.0
 74
     0
 49
-1.832236842105259
 74
     0
 49
0.0
 74
     0
 49
-1.832236842105259
 74
     0
  0
LTYPE
  5
2412
330
23F0
100
AcDbSymbolTableRecord
100
AcDbLinetypeTableRecord
  2
PHANTOM
 70
     0
  3
_____ _ _ _____ _ _ 
 72
    65
 73
     6
 40
18.32236842105261
 49
9.161184210526313
 74
     0
 49
-1.832236842105259
 74
     0
 49
1.832236842105259
 74
     0
 49
-1.832236842105259
 74
     0
 49
1.832236842105259
 74
     0
 49
-1.832236842105259
 74
     0
  0
ENDTAB
  0
TABLE
  2
LAYER
  5
23ED
330
0
100
AcDbSymbolTable
 70
     5
  0
LAYER
  5
23FB
330
23ED
100
AcDbSymbolTableRecord
100
AcDbLayerTableRecord
  2
0
 70
     0
 62
     7
  6
CONTINUOUS
370
    -3
390
23FA
  0
LAYER
  5
240D
330
23ED
100
AcDbSymbolTableRecord
100
AcDbLayerTableRecord
  2
AM_0
 70
     0
 62
     7
  6
CONTINUOUS
370
    -3
390
23FA
  0
LAYER
  5
2413
330
23ED
100
AcDbSymbolTableRecord
100
AcDbLayerTableRecord
  2
1
 70
     0
 62
     7
  6
CONTINUOUS
370
    -3
390
23FA
  0
LAYER
  5
2414
330
23ED
100
AcDbSymbolTableRecord
100
AcDbLayerTableRecord
  2
2
 70
     0
 62
     7
  6
CONTINUOUS
370
    -3
390
23FA
  0
LAYER
  5
26D3
330
23ED
100
AcDbSymbolTableRecord
100
AcDbLayerTableRecord
  2
LAYER_1
 70
     0
 62
     5
  6
CONTINUOUS
370
    -3
390
23FA
  0
ENDTAB
  0
TABLE
  2
STYLE
  5
23EE
330
0
100
AcDbSymbolTable
 70
     1
  0
STYLE
  5
23FC
330
23EE
100
AcDbSymbolTableRecord
100
AcDbTextStyleTableRecord
  2
STANDARD
 70
     0
 40
0.0
 41
1.0
 50
0.0
 71
     0
 42
2.5
  3
ISOCP.SHX
  4

  0
ENDTAB
  0
TABLE
  2
VIEW
  5
23F1
330
0
100
AcDbSymbolTable
 70
     0
  0
ENDTAB
  0
TABLE
  2
UCS
  5
23F2
330
0
100
AcDbSymbolTable
 70
     0
  0
ENDTAB
  0
TABLE
  2
APPID
  5
23F4
330
0
100
AcDbSymbolTable
 70
    13
  0
APPID
  5
23FD
330
23F4
100
AcDbSymbolTableRecord
100
AcDbRegAppTableRecord
  2
ACAD
 70
     0
  0
APPID
  5
2415
330
23F4
100
AcDbSymbolTableRecord
100
AcDbRegAppTableRecord
  2
GENIUS_GENDIM_13
 70
     0
  0
APPID
  5
2416
330
23F4
100
AcDbSymbolTableRecord
100
AcDbRegAppTableRecord
  2
GENIUS_GENDTOL_13
 70
     0
  0
APPID
  5
2417
330
23F4
100
AcDbSymbolTableRecord
100
AcDbRegAppTableRecord
  2
GENIUS_GE3DTOL_13
 70
     0
  0
APPID
  5
2418
330
23F4
100
AcDbSymbolTableRecord
100
AcDbRegAppTableRecord
  2
MCAD_NO_VIS
 70
     0
  0
APPID
  5
2419
330
23F4
100
AcDbSymbolTableRecord
100
AcDbRegAppTableRecord
  2
ACAD_TEMP_GRAPHIC
 70
     0
  0
APPID
  5
241A
330
23F4
100
AcDbSymbolTableRecord
100
AcDbRegAppTableRecord
  2
AD_DRAW
 70
     0
  0
APPID
  5
241B
330
23F4
100
AcDbSymbolTableRecord
100
AcDbRegAppTableRecord
  2
ACATTRIBSERVICES
 70
     0
  0
APPID
  5
241C
330
23F4
100
AcDbSymbolTableRecord
100
AcDbRegAppTableRecord
  2
ASURF_PCURVE_APPNAME
 70
     0
  0
APPID
  5
241D
330
23F4
100
AcDbSymbolTableRecord
100
AcDbRegAppTableRecord
  2
DESIGNERASSEMBLIES
 70
     0
  0
APPID
  5
241E
330
23F4
100
AcDbSymbolTableRecord
100
AcDbRegAppTableRecord
  2
ACADM_DIM_EDIT
 70
     0
  0
APPID
  5
241F
330
23F4
100
AcDbSymbolTableRecord
100
AcDbRegAppTableRecord
  2
G3V_ENTHND
 70
     0
  0
APPID
  5
2420
330
23F4
100
AcDbSymbolTableRecord
100
AcDbRegAppTableRecord
  2
GENIUS_GENDIMSH_14
 70
     0
  0
ENDTAB
  0
TABLE
  2
DIMSTYLE
  5
23F5
330
0
100
AcDbSymbolTable
 70
     2
100
AcDbDimStyleTable
 71
     0
  0
DIMSTYLE
105
2421
330
23F5
100
AcDbSymbolTableRecord
100
AcDbDimStyleTableRecord
  2
ISO-25
 70
     0
 41
2.5
 42
0.625
 43
3.75
 44
1.25
 73
     0
 74
     0
 77
     1
 78
     8
140
2.5
141
2.5
143
0.03937007874016
147
0.625
171
     3
172
     1
271
     2
272
     2
274
     3
279
     2
284
     8
285
     8
286
     8
340
23FC
  0
DIMSTYLE
105
26D4
330
23F5
100
AcDbSymbolTableRecord
100
AcDbDimStyleTableRecord
  2
Standard
 70
     0
340
23FC
  0
ENDTAB
  0
TABLE
  2
BLOCK_RECORD
  5
23EC
330
0
100
AcDbSymbolTable
 70
    21
  0
BLOCK_RECORD
  5
2409
330
23EC
100
AcDbSymbolTableRecord
100
AcDbBlockTableRecord
  2
*Model_Space
340
240C
  0
BLOCK_RECORD
  5
2405
330
23EC
100
AcDbSymbolTableRecord
100
AcDbBlockTableRecord
  2
*Paper_Space
340
2408
  0
BLOCK_RECORD
  5
2423
330
23EC
100
AcDbSymbolTableRecord
100
AcDbBlockTableRecord
  2
$MODEL_SPACE
340
0
  0
BLOCK_RECORD
  5
2426
330
23EC
100
AcDbSymbolTableRecord
100
AcDbBlockTableRecord
  2
$PAPER_SPACE
340
0
  0
BLOCK_RECORD
  5
2667
330
23EC
100
AcDbSymbolTableRecord
100
AcDbBlockTableRecord
  2
AI9-BLK14
340
0
310
2800000020000000200000000100080000000000000400000000000000000000000000000000000000000000000080000080000000808000800000008000800080800000C0C0C000C0DCC000F0CAA6000020400000206000002080000020A0000020C0000020E00000400000004020000040400000406000004080000040A0
310
000040C0000040E00000600000006020000060400000606000006080000060A0000060C0000060E00000800000008020000080400000806000008080000080A0000080C0000080E00000A0000000A0200000A0400000A0600000A0800000A0A00000A0C00000A0E00000C0000000C0200000C0400000C0600000C0800000C0
310
A00000C0C00000C0E00000E0000000E0200000E0400000E0600000E0800000E0A00000E0C00000E0E00040000000400020004000400040006000400080004000A0004000C0004000E00040200000402020004020400040206000402080004020A0004020C0004020E000404000004040200040404000404060004040800040
310
40A0004040C0004040E00040600000406020004060400040606000406080004060A0004060C0004060E00040800000408020004080400040806000408080004080A0004080C0004080E00040A0000040A0200040A0400040A0600040A0800040A0A00040A0C00040A0E00040C0000040C0200040C0400040C0600040C08000
310
40C0A00040C0C00040C0E00040E0000040E0200040E0400040E0600040E0800040E0A00040E0C00040E0E00080000000800020008000400080006000800080008000A0008000C0008000E00080200000802020008020400080206000802080008020A0008020C0008020E00080400000804020008040400080406000804080
310
008040A0008040C0008040E00080600000806020008060400080606000806080008060A0008060C0008060E00080800000808020008080400080806000808080008080A0008080C0008080E00080A0000080A0200080A0400080A0600080A0800080A0A00080A0C00080A0E00080C0000080C0200080C0400080C0600080C0
310
800080C0A00080C0C00080C0E00080E0000080E0200080E0400080E0600080E0800080E0A00080E0C00080E0E000C0000000C0002000C0004000C0006000C0008000C000A000C000C000C000E000C0200000C0202000C0204000C0206000C0208000C020A000C020C000C020E000C0400000C0402000C0404000C0406000C0
310
408000C040A000C040C000C040E000C0600000C0602000C0604000C0606000C0608000C060A000C060C000C060E000C0800000C0802000C0804000C0806000C0808000C080A000C080C000C080E000C0A00000C0A02000C0A04000C0A06000C0A08000C0A0A000C0A0C000C0A0E000C0C00000C0C02000C0C04000C0C06000
310
C0C08000C0C0A000F0FBFF00A4A0A000808080000000FF0000FF000000FFFF00FF000000FF00FF00FFFF0000FFFFFF00FF00FFFFFFFF00FFFFFFFFFFFFFFFFFFFFFFFFFFFFFFFFFFFFFFFFFFFFFFFFFFFF00FFFFFFFF00FFFFFFFFFFFFFFFFFFFFFFFFFFFFFFFFFFFFFFFFFFFFFFFFFFFF00FFFFFFFF00FFFFFFFFFFFFFFFF
310
FFFFFFFFFFFFFFFFFFFFFFFFFFFFFFFFFFFF00FFFFFFFF00FFFFFFFFFFFFFFFFFFFFFFFFFFFFFFFFFFFFFFFFFFFFFFFFFFFF00FFFFFFFF00FFFFFFFFFFFFFFFFFFFFFFFFFFFFFFFFFFFFFFFFFFFFFFFFFFFF00FFFFFFFF00FFFFFFFFFFFFFFFFFFFFFFFFFFFFFFFFFFFFFFFFFFFFFFFFFFFF00FFFFFFFF00FFFFFFFFFFFFFF
310
FFFFFFFFFFFFFFFFFFFFFFFFFFFFFFFFFFFFFF00FFFFFFFF00FFFFFFFFFFFFFFFFFFFFFFFFFFFFFFFFFFFFFFFFFFFFFFFFFFFF00FFFFFFFF00FFFFFFFFFFFFFFFFFFFFFFFFFFFFFFFFFFFFFFFFFFFFFFFFFFFF00FFFFFFFF00FFFFFFFFFFFFFFFFFFFFFFFFFFFFFFFFFFFFFFFFFFFFFFFFFFFF00FFFFFFFF00FFFFFFFFFFFF
310
FFFFFFFFFFFFFFFFFFFFFFFFFFFFFFFFFFFFFFFF00FFFFFFFF00FFFFFFFFFFFFFFFFFFFFFFFFFFFFFFFFFFFFFFFFFFFFFFFFFFFF00FFFFFFFF00FFFFFFFFFFFFFFFFFFFFFFFFFFFFFFFFFFFFFFFFFFFFFFFFFFFF00FFFFFFFF0000000000000000000000000000000000000000000000000000FF00FFFFFFFFFFFFFFFFFFFF
310
FFFFFFFFFFFFFFFFFFFFFFFFFFFFFFFFFFFFFFFFFF00FFFFFFFFFFFFFFFFFFFFFFFFFFFFFFFFFFFFFFFFFFFFFFFFFFFFFFFFFFFFFF00FFFFFFFFFFFFFFFFFFFFFFFFFFFFFFFFFFFFFFFFFFFFFFFFFFFFFFFFFFFFFF00FFFFFFFFFFFFFFFFFFFFFFFFFFFFFFFFFFFFFFFFFFFFFFFFFFFFFFFFFF00FF00000000000000000000
310
0000000000000000000000000000000000000000FFFFFFFFFFFFFFFFFFFFFFFFFFFFFFFFFFFFFFFFFFFFFFFFFFFFFFFFFFFFFFFFFFFFFFFFFFFFFFFFFFFFFFFFFFFFFFFFFFFFFFFFFFFFFFFFFFFFFFFFFFFFFFFFFFFFFFFFFFFFFFFFFFFFFFFFFFFFFFFFFFFFFFFFFFFFFFFFFFFFFFFFFFFFFFFFFFFFFFFFFFFFFFFFFFFFFF
310
FFFFFFFFFFFFFFFFFFFFFFFFFFFFFFFFFFFFFFFFFFFFFFFFFFFFFFFFFFFFFFFFFFFFFFFFFFFFFFFFFFFFFFFFFFFFFFFFFFFFFFFFFFFFFFFFFFFFFFFFFFFFFFFFFFFFFFFFFFFFFFFFFFFFFFFFFFFFFFFFFFFFFFFFFFFFFFFFFFFFFFFFFFFFFFFFFFFFFFFFFFFFFFFFFFFFFFFFFFFFFFFFFFFFFFFFFFFFFFFFFFFFFFFFFFFFFF
310
FFFFFFFFFFFFFFFFFFFFFFFFFFFFFFFFFFFFFFFFFFFFFFFFFFFFFFFFFFFFFFFFFFFFFFFFFFFFFFFFFFFFFFFFFFFFFFFFFFFFFFFFFFFFFFFFFFFFFFFFFFFFFFFFFFFFFFFFFFFFFFFFFFFFFFFFFFFFFFFFFFFFFFFFFFFFFFFFFFFFFFFFFFFFFFFFFFFFFFFFFFFFFFFFFFFFFFFFFFFFFFFFFFFFFFFFFFFFFFFFFFFFFFFFFFFFFF
310
FFFFFFFFFFFFFFFFFFFFFFFFFFFFFFFFFFFFFFFFFFFFFFFFFFFFFFFFFFFFFFFFFFFFFFFFFFFFFFFFFFFFFFFFFFFFFFFFFFFFFFFFFFFFFFFF
102
{BLKREFS
331
26A8
102
}
  0
BLOCK_RECORD
  5
266C
330
23EC
100
AcDbSymbolTableRecord
100
AcDbBlockTableRecord
  2
AI9-BLK13
340
0
310
2800000020000000200000000100080000000000000400000000000000000000000000000000000000000000000080000080000000808000800000008000800080800000C0C0C000C0DCC000F0CAA6000020400000206000002080000020A0000020C0000020E00000400000004020000040400000406000004080000040A0
310
000040C0000040E00000600000006020000060400000606000006080000060A0000060C0000060E00000800000008020000080400000806000008080000080A0000080C0000080E00000A0000000A0200000A0400000A0600000A0800000A0A00000A0C00000A0E00000C0000000C0200000C0400000C0600000C0800000C0
310
A00000C0C00000C0E00000E0000000E0200000E0400000E0600000E0800000E0A00000E0C00000E0E00040000000400020004000400040006000400080004000A0004000C0004000E00040200000402020004020400040206000402080004020A0004020C0004020E000404000004040200040404000404060004040800040
310
40A0004040C0004040E00040600000406020004060400040606000406080004060A0004060C0004060E00040800000408020004080400040806000408080004080A0004080C0004080E00040A0000040A0200040A0400040A0600040A0800040A0A00040A0C00040A0E00040C0000040C0200040C0400040C0600040C08000
310
40C0A00040C0C00040C0E00040E0000040E0200040E0400040E0600040E0800040E0A00040E0C00040E0E00080000000800020008000400080006000800080008000A0008000C0008000E00080200000802020008020400080206000802080008020A0008020C0008020E00080400000804020008040400080406000804080
310
008040A0008040C0008040E00080600000806020008060400080606000806080008060A0008060C0008060E00080800000808020008080400080806000808080008080A0008080C0008080E00080A0000080A0200080A0400080A0600080A0800080A0A00080A0C00080A0E00080C0000080C0200080C0400080C0600080C0
310
800080C0A00080C0C00080C0E00080E0000080E0200080E0400080E0600080E0800080E0A00080E0C00080E0E000C0000000C0002000C0004000C0006000C0008000C000A000C000C000C000E000C0200000C0202000C0204000C0206000C0208000C020A000C020C000C020E000C0400000C0402000C0404000C0406000C0
310
408000C040A000C040C000C040E000C0600000C0602000C0604000C0606000C0608000C060A000C060C000C060E000C0800000C0802000C0804000C0806000C0808000C080A000C080C000C080E000C0A00000C0A02000C0A04000C0A06000C0A08000C0A0A000C0A0C000C0A0E000C0C00000C0C02000C0C04000C0C06000
310
C0C08000C0C0A000F0FBFF00A4A0A000808080000000FF0000FF000000FFFF00FF000000FF00FF00FFFF0000FFFFFF00FFFFFFFFFFFFFFFFFFFFFFFFFFFFFFFFFFFFFFFFFFFFFFFFFFFFFFFFFFFFFFFFFFFFFFFFFFFFFFFFFFFFFF0000FFFFFFFFFFFF0000FFFFFFFFFFFFFFFFFFFFFFFFFFFFFFFFFFFFFFFFFFFF0000FFFF
310
FFFFFFFF0000FFFFFFFFFFFFFFFFFFFFFFFFFFFFFFFFFFFFFFFFFFFF0000FFFFFFFFFFFF0000FFFFFFFFFFFFFFFFFFFFFFFFFFFFFFFFFFFFFFFFFFFF0000FFFFFFFFFFFF0000FFFFFFFFFFFFFFFFFFFFFFFFFFFFFFFFFFFFFFFFFFFF0000FFFFFFFFFFFF0000FFFFFFFFFFFFFFFFFFFFFFFFFFFFFFFFFFFFFFFFFFFF0000FF
310
FFFFFFFFFF0000FFFFFFFFFFFFFFFFFFFFFFFFFFFFFFFFFFFFFFFFFFFF0000FFFFFFFFFFFF0000FFFFFFFFFFFFFFFFFFFFFFFFFFFFFFFFFFFFFFFFFFFF0000FFFFFFFFFFFF0000FFFFFFFFFFFFFFFFFFFFFFFFFFFFFFFFFFFFFFFFFFFF0000FFFFFFFFFFFF0000FFFFFFFFFFFFFFFFFFFFFFFFFFFFFFFFFFFFFFFFFFFF0000
310
FFFFFFFFFFFF0000FFFFFFFFFFFFFFFFFFFFFFFFFFFFFFFFFFFFFFFFFFFF0000FFFFFFFFFFFF0000FFFFFFFFFFFFFFFFFFFFFFFFFFFFFFFFFFFFFFFFFFFF0000FFFFFFFFFFFF0000FFFFFFFFFFFFFFFFFFFFFFFFFFFFFFFFFFFFFFFFFFFF0000FFFFFFFFFFFF0000FFFFFFFFFFFFFFFFFFFFFFFFFFFFFFFFFFFFFFFFFFFF00
310
00FFFFFFFFFFFF0000FFFFFFFFFFFFFFFFFFFFFFFFFFFFFFFFFFFFFFFFFFFF00000000000000000000FFFFFFFFFFFFFFFFFFFFFFFFFFFFFFFFFFFFFFFFFFFF00FFFFFFFFFFFFFFFF00FFFFFFFFFFFFFFFFFFFFFFFFFFFFFFFFFFFFFFFFFFFF00FFFFFFFFFFFFFFFF00FFFFFFFFFFFFFFFFFFFFFFFFFFFFFFFFFFFFFFFFFFFF
310
00000000000000000000FFFFFFFFFFFFFFFFFFFFFFFFFFFFFFFFFFFFFFFFFFFF0000FFFFFFFFFFFF0000FFFFFFFFFFFFFFFFFFFFFFFFFFFFFFFFFFFFFFFFFFFF0000FFFFFFFFFFFF0000FFFFFFFFFFFFFFFFFFFFFFFFFFFFFFFFFFFFFFFFFFFF0000FFFFFFFFFFFF0000FFFFFFFFFFFFFFFFFFFFFFFFFFFFFFFFFFFFFFFFFF
310
FF0000FFFFFFFFFFFF0000FFFFFFFFFFFFFFFFFFFFFFFFFFFFFFFFFFFFFFFFFFFF0000FFFFFFFFFFFF0000FFFFFFFFFFFFFFFFFFFFFFFFFFFFFFFFFFFFFFFFFFFF0000FFFFFFFFFFFF0000FFFFFFFFFFFFFFFFFFFFFFFFFFFFFFFFFFFFFFFFFFFF0000FFFFFFFFFFFF0000FFFFFFFFFFFFFFFFFFFFFFFFFFFFFFFFFFFFFFFF
310
FFFF0000FFFFFFFFFFFF0000FFFFFFFFFFFFFFFFFFFFFFFFFFFFFFFFFFFFFFFFFFFF0000FFFFFFFFFFFF0000FFFFFFFFFFFFFFFFFFFFFFFFFFFFFFFFFFFFFFFFFFFF0000FFFFFFFFFFFF0000FFFFFFFFFFFFFFFFFFFFFFFFFFFFFFFFFFFFFFFFFFFF0000FFFFFFFFFFFF0000FFFFFFFFFFFFFFFFFFFFFFFFFFFFFFFFFFFFFF
310
FFFFFF0000FFFFFFFFFFFF0000FFFFFFFFFFFFFFFFFFFFFFFFFFFFFFFFFFFFFFFFFFFFFFFFFFFFFFFFFFFFFFFFFFFFFFFFFFFFFFFFFFFFFF
102
{BLKREFS
331
26A9
102
}
  0
BLOCK_RECORD
  5
2671
330
23EC
100
AcDbSymbolTableRecord
100
AcDbBlockTableRecord
  2
AI9-BLK11
340
0
310
2800000020000000200000000100080000000000000400000000000000000000000000000000000000000000000080000080000000808000800000008000800080800000C0C0C000C0DCC000F0CAA6000020400000206000002080000020A0000020C0000020E00000400000004020000040400000406000004080000040A0
310
000040C0000040E00000600000006020000060400000606000006080000060A0000060C0000060E00000800000008020000080400000806000008080000080A0000080C0000080E00000A0000000A0200000A0400000A0600000A0800000A0A00000A0C00000A0E00000C0000000C0200000C0400000C0600000C0800000C0
310
A00000C0C00000C0E00000E0000000E0200000E0400000E0600000E0800000E0A00000E0C00000E0E00040000000400020004000400040006000400080004000A0004000C0004000E00040200000402020004020400040206000402080004020A0004020C0004020E000404000004040200040404000404060004040800040
310
40A0004040C0004040E00040600000406020004060400040606000406080004060A0004060C0004060E00040800000408020004080400040806000408080004080A0004080C0004080E00040A0000040A0200040A0400040A0600040A0800040A0A00040A0C00040A0E00040C0000040C0200040C0400040C0600040C08000
310
40C0A00040C0C00040C0E00040E0000040E0200040E0400040E0600040E0800040E0A00040E0C00040E0E00080000000800020008000400080006000800080008000A0008000C0008000E00080200000802020008020400080206000802080008020A0008020C0008020E00080400000804020008040400080406000804080
310
008040A0008040C0008040E00080600000806020008060400080606000806080008060A0008060C0008060E00080800000808020008080400080806000808080008080A0008080C0008080E00080A0000080A0200080A0400080A0600080A0800080A0A00080A0C00080A0E00080C0000080C0200080C0400080C0600080C0
310
800080C0A00080C0C00080C0E00080E0000080E0200080E0400080E0600080E0800080E0A00080E0C00080E0E000C0000000C0002000C0004000C0006000C0008000C000A000C000C000C000E000C0200000C0202000C0204000C0206000C0208000C020A000C020C000C020E000C0400000C0402000C0404000C0406000C0
310
408000C040A000C040C000C040E000C0600000C0602000C0604000C0606000C0608000C060A000C060C000C060E000C0800000C0802000C0804000C0806000C0808000C080A000C080C000C080E000C0A00000C0A02000C0A04000C0A06000C0A08000C0A0A000C0A0C000C0A0E000C0C00000C0C02000C0C04000C0C06000
310
C0C08000C0C0A000F0FBFF00A4A0A000808080000000FF0000FF000000FFFF00FF000000FF00FF00FFFF0000FFFFFF00FFFFFFFFFFFFFFFFFFFFFFFFFFFFFFFFFFFFFFFFFFFFFFFFFFFFFFFFFFFFFFFFFFFFFFFFFFFFFFFFFFFFFFFFFFFF00000000FFFFFFFFFFFFFFFFFFFFFF000000FFFFFFFFFFFFFFFFFFFFFFFFFFFF00
310
FFFF00FFFFFFFFFFFFFFFFFFFFFF00FFFFFFFFFFFFFFFFFFFFFFFFFFFFFFFF00FFFF00FFFFFFFFFFFFFFFFFFFFFF00FFFFFFFFFFFFFFFFFFFFFFFFFFFFFFFF00FFFF00FFFFFFFFFFFFFFFFFFFFFF00FFFFFFFFFFFFFFFFFFFFFFFFFFFFFFFF00FFFF00FFFFFFFFFFFFFFFFFFFFFF00FFFFFFFFFFFFFFFFFFFFFFFFFFFFFFFF
310
00FFFF00FFFFFFFFFFFFFFFFFFFFFF00FFFFFFFFFFFFFFFFFFFFFFFFFFFFFFFF00FFFF00FFFFFFFFFFFFFFFFFFFFFF00FFFFFFFFFFFFFFFFFFFFFFFFFFFFFFFF00FFFF00FFFFFFFFFFFFFFFFFFFFFF00FFFFFFFFFFFFFFFFFFFFFFFFFFFFFFFF00FFFF00FFFFFFFFFFFFFFFFFFFFFF00FFFFFFFFFFFFFFFFFFFFFFFFFFFFFF
310
FF00FFFF00FFFFFFFFFFFFFFFFFFFFFF00FFFFFFFFFFFFFFFFFFFFFFFFFFFFFFFF00FFFF00FFFFFFFFFFFFFFFFFFFFFF00FFFFFFFFFFFFFFFFFFFFFFFFFFFFFFFF00FFFF00FFFFFFFFFFFFFFFFFFFFFF00FFFFFFFFFFFFFFFFFFFFFFFFFFFFFFFF00FFFF00FFFFFFFFFFFFFFFFFFFFFF00FFFFFFFFFFFFFFFFFFFFFFFFFFFF
310
FFFF00FFFF00FFFFFFFFFFFFFFFFFFFFFF00FFFFFFFFFFFFFFFFFFFFFFFFFFFFFFFF00FFFF00FFFFFFFFFFFFFFFFFFFFFF00FFFFFFFFFFFFFFFFFFFFFFFFFFFFFFFF00FFFF00FFFFFFFFFFFFFFFFFFFFFF00FFFFFFFFFFFFFFFFFFFFFFFFFFFFFFFF00FFFF00FFFFFFFFFFFFFFFFFFFF00FFFFFFFFFFFFFFFFFFFFFFFFFFFF
310
FFFFFF00FFFF00FFFFFFFFFFFFFFFFFFFF00FFFFFFFFFFFFFFFFFFFFFFFFFFFFFFFFFF00FFFF00FFFFFFFFFFFFFFFFFFFF00FFFFFFFFFFFFFFFFFFFFFFFFFFFFFFFFFF00FFFF00FFFFFFFFFFFFFFFFFFFF00FFFFFFFFFFFFFFFFFFFFFFFFFFFFFFFFFF00FFFF00FFFFFFFFFFFFFFFFFFFF00FFFFFFFFFFFFFFFFFFFFFFFFFF
310
FFFFFFFF00FFFF00FFFFFFFFFFFFFFFFFF0000FFFF00FFFFFFFFFFFFFFFFFFFFFFFFFFFF00FFFF00FFFFFFFFFFFFFFFF0000FFFFFF00FFFFFFFFFFFFFFFFFFFFFFFFFFFF00FFFF00000000000000000000FFFFFFFF00FFFFFFFFFFFFFFFFFFFFFFFFFFFF00FFFFFFFFFFFFFFFFFFFFFFFFFFFFFF00FFFFFFFFFFFFFFFFFFFF
310
FFFFFFFFFF00FFFFFFFFFFFFFFFFFFFFFFFFFFFF00FFFFFFFFFFFFFFFFFFFFFFFFFFFFFFFF00FFFFFFFFFFFFFFFFFFFFFFFFFFFF00FFFFFFFFFFFFFFFFFFFFFFFFFFFFFFFF00FFFFFFFFFFFFFFFFFFFFFFFFFFFFFF00FFFFFFFFFFFFFFFFFFFFFFFFFFFFFF00FFFFFFFFFFFFFFFFFFFFFFFFFFFFFF00FFFFFFFFFFFFFFFFFF
310
FFFFFFFFFFFF00FFFF00000000000000000000FFFFFFFF00FFFFFFFFFFFFFFFFFFFFFFFFFFFF00FFFF00FFFFFFFFFFFFFFFFFF0000FFFF00
102
{BLKREFS
331
26AA
102
}
  0
BLOCK_RECORD
  5
2676
330
23EC
100
AcDbSymbolTableRecord
100
AcDbBlockTableRecord
  2
AI9-BLK10
340
0
310
2800000020000000200000000100080000000000000400000000000000000000000000000000000000000000000080000080000000808000800000008000800080800000C0C0C000C0DCC000F0CAA6000020400000206000002080000020A0000020C0000020E00000400000004020000040400000406000004080000040A0
310
000040C0000040E00000600000006020000060400000606000006080000060A0000060C0000060E00000800000008020000080400000806000008080000080A0000080C0000080E00000A0000000A0200000A0400000A0600000A0800000A0A00000A0C00000A0E00000C0000000C0200000C0400000C0600000C0800000C0
310
A00000C0C00000C0E00000E0000000E0200000E0400000E0600000E0800000E0A00000E0C00000E0E00040000000400020004000400040006000400080004000A0004000C0004000E00040200000402020004020400040206000402080004020A0004020C0004020E000404000004040200040404000404060004040800040
310
40A0004040C0004040E00040600000406020004060400040606000406080004060A0004060C0004060E00040800000408020004080400040806000408080004080A0004080C0004080E00040A0000040A0200040A0400040A0600040A0800040A0A00040A0C00040A0E00040C0000040C0200040C0400040C0600040C08000
310
40C0A00040C0C00040C0E00040E0000040E0200040E0400040E0600040E0800040E0A00040E0C00040E0E00080000000800020008000400080006000800080008000A0008000C0008000E00080200000802020008020400080206000802080008020A0008020C0008020E00080400000804020008040400080406000804080
310
008040A0008040C0008040E00080600000806020008060400080606000806080008060A0008060C0008060E00080800000808020008080400080806000808080008080A0008080C0008080E00080A0000080A0200080A0400080A0600080A0800080A0A00080A0C00080A0E00080C0000080C0200080C0400080C0600080C0
310
800080C0A00080C0C00080C0E00080E0000080E0200080E0400080E0600080E0800080E0A00080E0C00080E0E000C0000000C0002000C0004000C0006000C0008000C000A000C000C000C000E000C0200000C0202000C0204000C0206000C0208000C020A000C020C000C020E000C0400000C0402000C0404000C0406000C0
310
408000C040A000C040C000C040E000C0600000C0602000C0604000C0606000C0608000C060A000C060C000C060E000C0800000C0802000C0804000C0806000C0808000C080A000C080C000C080E000C0A00000C0A02000C0A04000C0A06000C0A08000C0A0A000C0A0C000C0A0E000C0C00000C0C02000C0C04000C0C06000
310
C0C08000C0C0A000F0FBFF00A4A0A000808080000000FF0000FF000000FFFF00FF000000FF00FF00FFFF0000FFFFFF00FFFFFFFFFFFFFFFFFFFFFFFFFFFFFFFF00FFFFFFFFFFFFFFFFFFFFFFFF00FFFFFFFFFFFFFFFFFFFFFFFFFFFFFFFFFFFF00FFFFFFFFFFFFFFFFFFFFFF00FFFFFFFFFFFFFFFFFFFFFFFFFFFFFFFFFFFF
310
FF00FFFFFFFFFFFFFFFFFFFFFF00FFFFFFFFFFFFFFFFFFFFFFFFFFFFFFFFFFFFFF00FFFFFFFFFFFFFFFFFFFFFF00FFFFFFFFFFFFFFFFFFFFFFFFFFFFFFFFFFFFFF00FFFFFFFFFFFFFFFFFFFFFF00FFFFFFFFFFFFFFFFFFFFFFFFFFFFFFFFFFFFFF00FFFFFFFFFFFFFFFFFFFFFF00FFFFFFFFFFFFFFFFFFFFFFFFFFFFFFFFFF
310
FFFF00FFFFFFFFFFFFFFFFFFFFFF00FFFFFFFFFFFFFFFFFFFFFFFFFFFFFFFFFFFFFF00FFFFFFFFFFFFFFFFFFFF00FFFFFFFFFFFFFFFFFFFFFFFFFFFFFFFFFFFFFFFF00FFFFFFFFFFFFFFFFFFFF00FFFFFFFFFFFFFFFFFFFFFFFFFFFFFFFFFFFFFFFF00FFFFFFFFFFFFFFFFFFFF00FFFFFFFFFFFFFFFFFFFFFFFFFFFFFFFFFF
310
FFFFFF00FFFFFFFFFFFFFFFFFFFF00FFFFFFFFFFFFFFFFFFFFFFFFFFFFFFFFFFFFFFFF00FFFFFFFFFFFFFFFFFFFF00FFFFFFFFFFFFFFFFFFFFFFFFFFFFFFFFFFFFFFFF00FFFFFFFFFFFFFFFFFFFF00FFFFFFFFFFFFFFFFFFFFFFFFFFFFFFFFFFFFFFFF00FFFFFFFFFFFFFFFFFF00FFFFFFFFFFFFFFFFFFFFFFFFFFFFFFFFFF
310
FFFFFFFF00FFFFFFFFFFFFFFFFFF00FFFFFFFFFFFFFFFFFFFFFFFFFFFFFFFFFFFFFFFFFF00FFFFFFFFFFFFFFFFFF00FFFFFFFFFFFFFFFFFFFFFFFFFFFFFFFFFFFFFFFFFF0000000000000000000000FFFFFFFFFFFFFFFFFFFFFFFFFFFFFFFFFFFFFFFFFFFFFFFFFFFFFFFFFFFFFFFFFFFFFFFFFFFFFFFFFFFFFFFFFFFFFFFF
310
FFFFFFFFFFFFFFFFFFFFFFFFFFFFFFFFFFFFFFFFFFFFFFFFFFFFFFFFFFFFFFFFFFFFFFFFFFFFFFFFFFFFFFFFFFFFFFFFFFFFFFFFFFFFFFFFFFFFFFFFFFFFFFFFFFFFFFFFFFFFFFFFFFFFFFFFFFFFFFFFFFFFFFFFFFFFFFFFFFFFFFFFFFFFFFFFFFFFFFFFFFFFFFFFFFFFFFFFFFFFFFFFFFFFFFFFFFFFFFFFFFFFFFFFFFFFFF
310
FFFFFFFFFFFFFFFFFFFFFFFFFFFFFFFFFFFFFFFFFFFFFFFFFFFFFFFFFFFFFFFFFFFFFFFFFFFFFFFFFFFFFFFFFFFFFFFFFFFFFFFFFFFFFFFFFFFFFFFFFFFFFFFFFFFFFFFFFFFFFFFFFFFFFFFFFFFFFFFFFFFFFFFFFFFFFFFFFFFFFFFFFFFFFFFFFFFFFFFFFFFFFFFFFFFFFFFFFFFFFFFFFFFFFFFFFFFFFFFFFFFFFFFFFFFFFF
310
FFFFFFFFFFFFFFFFFFFFFFFFFFFFFFFFFFFFFFFFFFFFFFFFFFFFFFFFFFFFFFFFFFFFFFFFFFFFFFFFFFFFFFFFFFFFFFFFFFFFFFFFFFFFFFFFFFFFFFFFFFFFFFFFFFFFFFFFFFFFFFFFFFFFFFFFFFFFFFFFFFFFFFFFFFFFFFFFFFFFFFFFFFFFFFFFFFFFFFFFFFFFFFFFFFFFFFFFFFFFFFFFFFFFFFFFFFFFFFFFFFFFFFFFFFFFFF
310
FFFFFFFFFFFFFFFFFFFFFFFFFFFFFFFFFFFFFFFFFFFFFFFFFFFFFFFFFFFFFFFFFFFFFFFFFFFFFFFFFFFFFFFFFFFFFFFFFFFFFFFFFFFFFFFF
102
{BLKREFS
331
26AB
102
}
  0
BLOCK_RECORD
  5
267A
330
23EC
100
AcDbSymbolTableRecord
100
AcDbBlockTableRecord
  2
AI9-BLK9
340
0
310
2800000020000000200000000100080000000000000400000000000000000000000000000000000000000000000080000080000000808000800000008000800080800000C0C0C000C0DCC000F0CAA6000020400000206000002080000020A0000020C0000020E00000400000004020000040400000406000004080000040A0
310
000040C0000040E00000600000006020000060400000606000006080000060A0000060C0000060E00000800000008020000080400000806000008080000080A0000080C0000080E00000A0000000A0200000A0400000A0600000A0800000A0A00000A0C00000A0E00000C0000000C0200000C0400000C0600000C0800000C0
310
A00000C0C00000C0E00000E0000000E0200000E0400000E0600000E0800000E0A00000E0C00000E0E00040000000400020004000400040006000400080004000A0004000C0004000E00040200000402020004020400040206000402080004020A0004020C0004020E000404000004040200040404000404060004040800040
310
40A0004040C0004040E00040600000406020004060400040606000406080004060A0004060C0004060E00040800000408020004080400040806000408080004080A0004080C0004080E00040A0000040A0200040A0400040A0600040A0800040A0A00040A0C00040A0E00040C0000040C0200040C0400040C0600040C08000
310
40C0A00040C0C00040C0E00040E0000040E0200040E0400040E0600040E0800040E0A00040E0C00040E0E00080000000800020008000400080006000800080008000A0008000C0008000E00080200000802020008020400080206000802080008020A0008020C0008020E00080400000804020008040400080406000804080
310
008040A0008040C0008040E00080600000806020008060400080606000806080008060A0008060C0008060E00080800000808020008080400080806000808080008080A0008080C0008080E00080A0000080A0200080A0400080A0600080A0800080A0A00080A0C00080A0E00080C0000080C0200080C0400080C0600080C0
310
800080C0A00080C0C00080C0E00080E0000080E0200080E0400080E0600080E0800080E0A00080E0C00080E0E000C0000000C0002000C0004000C0006000C0008000C000A000C000C000C000E000C0200000C0202000C0204000C0206000C0208000C020A000C020C000C020E000C0400000C0402000C0404000C0406000C0
310
408000C040A000C040C000C040E000C0600000C0602000C0604000C0606000C0608000C060A000C060C000C060E000C0800000C0802000C0804000C0806000C0808000C080A000C080C000C080E000C0A00000C0A02000C0A04000C0A06000C0A08000C0A0A000C0A0C000C0A0E000C0C00000C0C02000C0C04000C0C06000
310
C0C08000C0C0A000F0FBFF00A4A0A000808080000000FF0000FF000000FFFF00FF000000FF00FF00FFFF0000FFFFFF00FFFFFFFFFFFFFFFFFFFFFFFFFFFFFFFFFFFFFFFFFFFFFFFFFFFFFFFFFFFFFFFFFFFFFFFFFFFFFFFFFFFFFFFFFFFFFF0000FFFFFFFFFFFFFFFFFFFFFFFFFFFFFFFFFFFFFFFFFFFFFFFFFFFFFFFF0000
310
FF0000FFFFFFFFFFFFFFFFFFFFFFFFFFFFFFFFFFFFFFFFFFFFFFFFFFFFFF00FFFFFF0000FFFFFFFFFFFFFFFFFFFFFFFFFFFFFFFFFFFFFFFFFFFFFFFFFFFF00FFFFFFFF0000FFFFFFFFFFFFFFFFFFFFFFFFFFFFFFFFFFFFFFFFFFFFFFFF00FF00000000FF00FFFFFFFFFFFFFFFFFFFFFFFFFFFFFFFFFFFFFFFFFFFFFFFF0000
310
00FFFF00FF00FFFFFFFFFFFFFFFFFFFFFFFFFFFFFFFFFFFFFFFFFFFFFFFF0000FFFFFFFF0000FFFFFFFFFFFFFFFFFFFFFFFFFFFFFFFFFFFFFFFFFFFFFFFF0000FFFFFFFF0000FFFFFFFFFFFFFFFFFFFFFFFFFFFFFFFFFFFFFFFFFFFFFF00FF00FFFFFFFF00FF00FFFFFFFFFFFFFFFFFFFFFFFFFFFFFFFFFFFFFFFFFFFF0000
310
FFFFFFFFFF00FF00FFFFFFFFFFFFFFFFFFFFFFFFFFFFFFFFFFFFFFFFFFFF0000FFFFFFFFFFFF0000FFFFFFFFFFFFFFFFFFFFFFFFFFFFFFFFFFFFFFFFFFFF0000FFFFFFFFFFFF0000FFFFFFFFFFFFFFFFFFFFFFFFFFFFFFFFFFFFFFFFFFFF0000FFFFFFFFFFFF0000FFFFFFFFFFFFFFFFFFFFFFFFFFFFFFFFFFFFFFFFFFFF00
310
00FFFFFFFFFFFF0000FFFFFFFFFFFFFFFFFFFFFFFFFFFFFFFFFFFFFFFFFFFF0000FFFFFFFFFFFF0000FFFFFFFFFFFFFFFFFFFFFFFFFFFFFFFFFFFFFFFFFFFF0000FFFFFFFFFFFF0000FFFFFFFFFFFFFFFFFFFFFFFFFFFFFFFFFFFFFFFFFFFF0000FFFFFFFFFFFF0000FFFFFFFFFFFFFFFFFFFFFFFFFFFFFFFFFFFFFFFFFFFF
310
0000FFFFFFFFFFFF0000FFFFFFFFFFFFFFFFFFFFFFFFFFFFFFFFFFFFFFFFFFFF0000FFFFFFFFFFFF0000FFFFFFFFFFFFFFFFFFFFFFFFFFFFFFFFFFFFFFFFFFFF0000FFFFFFFFFFFF0000FFFFFFFFFFFFFFFFFFFFFFFFFFFFFFFFFFFFFFFFFFFF00FF00FFFFFFFF00FF00FFFFFFFFFFFFFFFFFFFFFFFFFFFFFFFFFFFFFFFFFF
310
FF00FF00FFFFFFFF00FF00FFFFFFFFFFFFFFFFFFFFFFFFFFFFFFFFFFFFFFFFFFFF00FF00FFFFFFFF00FF00FFFFFFFFFFFFFFFFFFFFFFFFFFFFFFFFFFFFFFFFFFFFFF0000FFFFFFFF0000FFFFFFFFFFFFFFFFFFFFFFFFFFFFFFFFFFFFFFFFFFFFFFFF00FF00FFFF00FF00FFFFFFFFFFFFFFFFFFFFFFFFFFFFFFFFFFFFFFFFFF
310
FFFFFF00FF00000000FF00FFFFFFFFFFFFFFFFFFFFFFFFFFFFFFFFFFFFFFFFFFFFFFFFFF00FFFFFFFF0000FFFFFFFFFFFFFFFFFFFFFFFFFFFFFFFFFFFFFFFFFFFFFFFFFF00FFFFFFFF00FFFFFFFFFFFFFFFFFFFFFFFFFFFFFFFFFFFFFFFFFFFFFFFFFFFFFF00000000FFFFFFFFFFFFFFFFFFFFFFFFFFFFFFFFFFFFFFFFFFFF
310
FFFFFFFFFFFFFF0000FFFFFFFFFFFFFFFFFFFFFFFFFFFFFFFFFFFFFFFFFFFFFFFFFFFFFFFFFFFFFFFFFFFFFFFFFFFFFFFFFFFFFFFFFFFFFF
102
{BLKREFS
331
26AC
102
}
  0
BLOCK_RECORD
  5
267F
330
23EC
100
AcDbSymbolTableRecord
100
AcDbBlockTableRecord
  2
AI9-BLK8
340
0
310
2800000020000000200000000100080000000000000400000000000000000000000000000000000000000000000080000080000000808000800000008000800080800000C0C0C000C0DCC000F0CAA6000020400000206000002080000020A0000020C0000020E00000400000004020000040400000406000004080000040A0
310
000040C0000040E00000600000006020000060400000606000006080000060A0000060C0000060E00000800000008020000080400000806000008080000080A0000080C0000080E00000A0000000A0200000A0400000A0600000A0800000A0A00000A0C00000A0E00000C0000000C0200000C0400000C0600000C0800000C0
310
A00000C0C00000C0E00000E0000000E0200000E0400000E0600000E0800000E0A00000E0C00000E0E00040000000400020004000400040006000400080004000A0004000C0004000E00040200000402020004020400040206000402080004020A0004020C0004020E000404000004040200040404000404060004040800040
310
40A0004040C0004040E00040600000406020004060400040606000406080004060A0004060C0004060E00040800000408020004080400040806000408080004080A0004080C0004080E00040A0000040A0200040A0400040A0600040A0800040A0A00040A0C00040A0E00040C0000040C0200040C0400040C0600040C08000
310
40C0A00040C0C00040C0E00040E0000040E0200040E0400040E0600040E0800040E0A00040E0C00040E0E00080000000800020008000400080006000800080008000A0008000C0008000E00080200000802020008020400080206000802080008020A0008020C0008020E00080400000804020008040400080406000804080
310
008040A0008040C0008040E00080600000806020008060400080606000806080008060A0008060C0008060E00080800000808020008080400080806000808080008080A0008080C0008080E00080A0000080A0200080A0400080A0600080A0800080A0A00080A0C00080A0E00080C0000080C0200080C0400080C0600080C0
310
800080C0A00080C0C00080C0E00080E0000080E0200080E0400080E0600080E0800080E0A00080E0C00080E0E000C0000000C0002000C0004000C0006000C0008000C000A000C000C000C000E000C0200000C0202000C0204000C0206000C0208000C020A000C020C000C020E000C0400000C0402000C0404000C0406000C0
310
408000C040A000C040C000C040E000C0600000C0602000C0604000C0606000C0608000C060A000C060C000C060E000C0800000C0802000C0804000C0806000C0808000C080A000C080C000C080E000C0A00000C0A02000C0A04000C0A06000C0A08000C0A0A000C0A0C000C0A0E000C0C00000C0C02000C0C04000C0C06000
310
C0C08000C0C0A000F0FBFF00A4A0A000808080000000FF0000FF000000FFFF00FF000000FF00FF00FFFF0000FFFFFF00FFFFFFFFFFFFFFFFFFFFFFFFFFFFFFFFFFFFFFFFFFFFFFFFFFFFFFFFFFFFFFFFFFFFFFFFFFFFFFFFFFFFFF0000FFFFFFFFFFFF0000FFFFFFFFFFFFFFFFFFFFFFFFFFFFFFFFFFFFFFFFFFFF0000FFFF
310
FFFFFFFF0000FFFFFFFFFFFFFFFFFFFFFFFFFFFFFFFFFFFFFFFFFFFF0000FFFFFFFFFF00FF00FFFFFFFFFFFFFFFFFFFFFFFFFFFFFFFFFFFFFFFFFFFF0000FFFFFFFFFF00FF00FFFFFFFFFFFFFFFFFFFFFFFFFFFFFFFFFFFFFFFFFFFF0000FFFFFFFFFF00FF00FFFFFFFFFFFFFFFFFFFFFFFFFFFFFFFFFFFFFFFFFFFF0000FF
310
FFFFFF00FFFF00FFFFFFFFFFFFFFFFFFFFFFFFFFFFFFFFFFFFFFFFFFFF0000FFFFFFFF00FF0000FFFFFFFFFFFFFFFFFFFFFFFFFFFFFFFFFFFFFFFFFFFF0000FFFFFFFF00FF0000FFFFFFFFFFFFFFFFFFFFFFFFFFFFFFFFFFFFFFFFFFFF0000FFFFFFFF00000000FFFFFFFFFFFFFFFFFFFFFFFFFFFFFFFFFFFFFFFFFFFF0000
310
FFFFFF00FF000000FFFFFFFFFFFFFFFFFFFFFFFFFFFFFFFFFFFFFFFFFFFF0000FFFFFF00FF000000FFFFFFFFFFFFFFFFFFFFFFFFFFFFFFFFFFFFFFFFFFFF0000FFFFFF00FF000000FFFFFFFFFFFFFFFFFFFFFFFFFFFFFFFFFFFFFFFFFFFF0000FFFF00FF00FF0000FFFFFFFFFFFFFFFFFFFFFFFFFFFFFFFFFFFFFFFFFFFF00
310
00FFFF00FF00FF0000FFFFFFFFFFFFFFFFFFFFFFFFFFFFFFFFFFFFFFFFFFFF0000FFFF00FF00FF0000FFFFFFFFFFFFFFFFFFFFFFFFFFFFFFFFFFFFFFFFFFFF0000FF00FFFF00FF0000FFFFFFFFFFFFFFFFFFFFFFFFFFFFFFFFFFFFFFFFFFFF0000FF00FF00FFFF0000FFFFFFFFFFFFFFFFFFFFFFFFFFFFFFFFFFFFFFFFFFFF
310
0000FF00FF00FFFF0000FFFFFFFFFFFFFFFFFFFFFFFFFFFFFFFFFFFFFFFFFFFF0000FF00FF00FFFF0000FFFFFFFFFFFFFFFFFFFFFFFFFFFFFFFFFFFFFFFFFFFF000000FFFF00FFFF0000FFFFFFFFFFFFFFFFFFFFFFFFFFFFFFFFFFFFFFFFFFFF000000FF00FFFFFF0000FFFFFFFFFFFFFFFFFFFFFFFFFFFFFFFFFFFFFFFFFF
310
FF000000FF00FFFFFF0000FFFFFFFFFFFFFFFFFFFFFFFFFFFFFFFFFFFFFFFFFFFF0000FFFF00FFFFFF0000FFFFFFFFFFFFFFFFFFFFFFFFFFFFFFFFFFFFFFFFFFFF0000FFFF00FFFFFF0000FFFFFFFFFFFFFFFFFFFFFFFFFFFFFFFFFFFFFFFFFFFF00FFFF00FFFFFFFF0000FFFFFFFFFFFFFFFFFFFFFFFFFFFFFFFFFFFFFFFF
310
FFFF00FFFF00FFFFFFFF0000FFFFFFFFFFFFFFFFFFFFFFFFFFFFFFFFFFFFFFFFFFFF00FFFF00FFFFFFFF0000FFFFFFFFFFFFFFFFFFFFFFFFFFFFFFFFFFFFFFFFFFFF00FFFF00FFFFFFFF0000FFFFFFFFFFFFFFFFFFFFFFFFFFFFFFFFFFFFFFFFFFFF00FF00FFFFFFFFFF0000FFFFFFFFFFFFFFFFFFFFFFFFFFFFFFFFFFFFFF
310
FFFFFF000000FFFFFFFFFF0000FFFFFFFFFFFFFFFFFFFFFFFFFFFFFFFFFFFFFFFFFFFFFFFFFFFFFFFFFFFFFFFFFFFFFFFFFFFFFFFFFFFFFF
102
{BLKREFS
331
26AD
102
}
  0
BLOCK_RECORD
  5
2684
330
23EC
100
AcDbSymbolTableRecord
100
AcDbBlockTableRecord
  2
AI9-BLK7
340
0
310
2800000020000000200000000100080000000000000400000000000000000000000000000000000000000000000080000080000000808000800000008000800080800000C0C0C000C0DCC000F0CAA6000020400000206000002080000020A0000020C0000020E00000400000004020000040400000406000004080000040A0
310
000040C0000040E00000600000006020000060400000606000006080000060A0000060C0000060E00000800000008020000080400000806000008080000080A0000080C0000080E00000A0000000A0200000A0400000A0600000A0800000A0A00000A0C00000A0E00000C0000000C0200000C0400000C0600000C0800000C0
310
A00000C0C00000C0E00000E0000000E0200000E0400000E0600000E0800000E0A00000E0C00000E0E00040000000400020004000400040006000400080004000A0004000C0004000E00040200000402020004020400040206000402080004020A0004020C0004020E000404000004040200040404000404060004040800040
310
40A0004040C0004040E00040600000406020004060400040606000406080004060A0004060C0004060E00040800000408020004080400040806000408080004080A0004080C0004080E00040A0000040A0200040A0400040A0600040A0800040A0A00040A0C00040A0E00040C0000040C0200040C0400040C0600040C08000
310
40C0A00040C0C00040C0E00040E0000040E0200040E0400040E0600040E0800040E0A00040E0C00040E0E00080000000800020008000400080006000800080008000A0008000C0008000E00080200000802020008020400080206000802080008020A0008020C0008020E00080400000804020008040400080406000804080
310
008040A0008040C0008040E00080600000806020008060400080606000806080008060A0008060C0008060E00080800000808020008080400080806000808080008080A0008080C0008080E00080A0000080A0200080A0400080A0600080A0800080A0A00080A0C00080A0E00080C0000080C0200080C0400080C0600080C0
310
800080C0A00080C0C00080C0E00080E0000080E0200080E0400080E0600080E0800080E0A00080E0C00080E0E000C0000000C0002000C0004000C0006000C0008000C000A000C000C000C000E000C0200000C0202000C0204000C0206000C0208000C020A000C020C000C020E000C0400000C0402000C0404000C0406000C0
310
408000C040A000C040C000C040E000C0600000C0602000C0604000C0606000C0608000C060A000C060C000C060E000C0800000C0802000C0804000C0806000C0808000C080A000C080C000C080E000C0A00000C0A02000C0A04000C0A06000C0A08000C0A0A000C0A0C000C0A0E000C0C00000C0C02000C0C04000C0C06000
310
C0C08000C0C0A000F0FBFF00A4A0A000808080000000FF0000FF000000FFFF00FF000000FF00FF00FFFF0000FFFFFF00FFFFFFFFFFFFFFFFFFFFFFFFFFFFFFFFFFFFFFFFFFFFFFFFFFFFFFFFFFFFFFFFFFFFFFFFFFFFFFFFFFFFFFFFFFFFFF0000FFFFFFFFFFFFFFFFFFFFFFFFFFFFFFFFFFFFFFFFFFFFFFFFFFFFFFFFFFFF
310
0000FFFFFFFFFFFFFFFFFFFFFFFFFFFFFFFFFFFFFFFFFFFFFFFFFFFFFFFFFFFF0000FFFFFFFFFFFFFFFFFFFFFFFFFFFFFFFFFFFFFFFFFFFFFFFFFFFFFFFFFFFF0000FFFFFFFFFFFFFFFFFFFFFFFFFFFFFFFFFFFFFFFFFFFFFFFFFFFFFFFFFFFF0000FFFFFFFFFFFFFFFFFFFFFFFFFFFFFFFFFFFFFFFFFFFFFFFFFFFFFFFFFF
310
FF0000FFFFFFFFFFFFFFFFFFFFFFFFFFFFFFFFFFFFFFFFFFFFFFFFFFFFFFFFFFFF0000FFFFFFFFFFFFFFFFFFFFFFFFFFFFFFFFFFFFFFFFFFFFFFFFFFFFFFFFFFFF0000FFFFFFFFFFFFFFFFFFFFFFFFFFFFFFFFFFFFFFFFFFFFFFFFFFFFFFFFFFFF0000FFFFFFFFFFFFFFFFFFFFFFFFFFFFFFFFFFFFFFFFFFFFFFFFFFFFFFFF
310
FFFF0000FFFFFFFFFFFFFFFFFFFFFFFFFFFFFFFFFFFFFFFFFFFFFFFFFFFFFFFFFFFF0000FFFFFFFFFFFFFFFFFFFFFFFFFFFFFFFFFFFFFFFFFFFFFFFFFFFFFFFFFFFF0000FFFFFFFFFFFFFFFFFFFFFFFFFFFFFFFFFFFFFFFFFFFFFFFFFFFFFFFFFFFF0000FFFFFFFFFFFFFFFFFFFFFFFFFFFFFFFFFFFFFFFFFFFFFFFFFFFFFF
310
FFFFFF0000FFFFFFFFFFFFFFFFFFFFFFFFFFFFFFFFFFFFFFFFFFFFFFFFFFFFFFFFFFFF0000FFFFFFFFFFFFFFFFFFFFFFFFFFFFFFFFFFFFFFFFFFFFFFFFFFFFFFFFFFFF0000FFFFFFFFFFFFFFFFFFFFFFFFFFFFFFFFFFFFFFFFFFFFFFFFFFFFFFFFFFFF0000FFFFFFFFFFFFFFFFFFFFFFFFFFFFFFFFFFFFFFFFFFFFFFFFFFFF
310
FFFFFFFF0000FFFFFFFFFFFFFFFFFFFFFFFFFFFFFFFFFFFFFFFFFFFFFFFFFFFFFFFFFFFF0000FFFFFFFFFFFFFFFFFFFFFFFFFFFFFFFFFFFFFFFFFFFFFFFFFFFFFFFFFFFF0000FFFFFFFFFFFFFFFFFFFFFFFFFFFFFFFFFFFFFFFFFFFFFFFFFFFFFFFFFFFF0000FFFFFFFFFFFFFFFFFFFFFFFFFFFFFFFFFFFFFFFFFFFFFFFFFF
310
FFFFFFFFFF0000FFFFFFFFFFFFFFFFFFFFFFFFFFFFFFFFFFFFFFFFFFFFFFFFFFFFFFFFFFFF0000FFFFFFFFFFFFFFFFFFFFFFFFFFFFFFFFFFFFFFFFFFFFFFFFFFFFFFFFFFFF0000FFFFFFFFFFFFFFFFFFFFFFFFFFFFFFFFFFFFFFFFFFFFFFFFFFFFFFFFFFFF0000FFFFFFFFFFFFFFFFFFFFFFFFFFFFFFFFFFFFFFFFFFFFFFFF
310
FFFFFFFFFFFF0000FFFFFFFFFFFFFFFFFFFFFFFFFFFFFFFFFFFFFFFFFFFFFFFFFFFFFFFFFFFF0000FFFFFFFFFFFFFFFFFFFFFFFFFFFFFFFFFFFFFFFFFFFFFFFFFFFFFFFFFFFF0000FFFFFFFFFFFFFFFFFFFFFFFFFFFFFFFFFFFFFFFFFFFFFFFFFFFFFFFFFFFF0000FFFFFFFFFFFFFFFFFFFFFFFFFFFFFFFFFFFFFFFFFFFFFF
310
FFFFFFFFFFFFFF0000FFFFFFFFFFFFFFFFFFFFFFFFFFFFFFFFFFFFFFFFFFFFFFFFFFFFFFFFFFFFFFFFFFFFFFFFFFFFFFFFFFFFFFFFFFFFFF
102
{BLKREFS
331
26AE
102
}
  0
BLOCK_RECORD
  5
2689
330
23EC
100
AcDbSymbolTableRecord
100
AcDbBlockTableRecord
  2
AI9-BLK6
340
0
310
2800000020000000200000000100080000000000000400000000000000000000000000000000000000000000000080000080000000808000800000008000800080800000C0C0C000C0DCC000F0CAA6000020400000206000002080000020A0000020C0000020E00000400000004020000040400000406000004080000040A0
310
000040C0000040E00000600000006020000060400000606000006080000060A0000060C0000060E00000800000008020000080400000806000008080000080A0000080C0000080E00000A0000000A0200000A0400000A0600000A0800000A0A00000A0C00000A0E00000C0000000C0200000C0400000C0600000C0800000C0
310
A00000C0C00000C0E00000E0000000E0200000E0400000E0600000E0800000E0A00000E0C00000E0E00040000000400020004000400040006000400080004000A0004000C0004000E00040200000402020004020400040206000402080004020A0004020C0004020E000404000004040200040404000404060004040800040
310
40A0004040C0004040E00040600000406020004060400040606000406080004060A0004060C0004060E00040800000408020004080400040806000408080004080A0004080C0004080E00040A0000040A0200040A0400040A0600040A0800040A0A00040A0C00040A0E00040C0000040C0200040C0400040C0600040C08000
310
40C0A00040C0C00040C0E00040E0000040E0200040E0400040E0600040E0800040E0A00040E0C00040E0E00080000000800020008000400080006000800080008000A0008000C0008000E00080200000802020008020400080206000802080008020A0008020C0008020E00080400000804020008040400080406000804080
310
008040A0008040C0008040E00080600000806020008060400080606000806080008060A0008060C0008060E00080800000808020008080400080806000808080008080A0008080C0008080E00080A0000080A0200080A0400080A0600080A0800080A0A00080A0C00080A0E00080C0000080C0200080C0400080C0600080C0
310
800080C0A00080C0C00080C0E00080E0000080E0200080E0400080E0600080E0800080E0A00080E0C00080E0E000C0000000C0002000C0004000C0006000C0008000C000A000C000C000C000E000C0200000C0202000C0204000C0206000C0208000C020A000C020C000C020E000C0400000C0402000C0404000C0406000C0
310
408000C040A000C040C000C040E000C0600000C0602000C0604000C0606000C0608000C060A000C060C000C060E000C0800000C0802000C0804000C0806000C0808000C080A000C080C000C080E000C0A00000C0A02000C0A04000C0A06000C0A08000C0A0A000C0A0C000C0A0E000C0C00000C0C02000C0C04000C0C06000
310
C0C08000C0C0A000F0FBFF00A4A0A000808080000000FF0000FF000000FFFF00FF000000FF00FF00FFFF0000FFFFFF00FFFFFFFFFFFFFFFFFFFFFFFF00FFFFFFFFFFFFFF00FFFFFFFFFFFFFFFFFFFFFFFFFFFFFFFFFFFFFFFFFFFFFF00FFFFFFFFFFFFFF00FFFFFFFFFFFFFFFFFFFFFFFFFFFFFFFFFFFFFFFFFFFFFF00FFFF
310
FFFFFFFFFF00FFFFFFFFFFFFFFFFFFFFFFFFFFFFFFFFFFFFFFFFFFFF00FFFFFFFFFFFFFFFF00FFFFFFFFFFFFFFFFFFFFFFFFFFFFFFFFFFFFFFFFFFFF00FFFFFFFFFFFFFF00FFFFFFFFFFFFFFFFFFFFFFFFFFFFFFFFFFFFFFFFFFFFFF00FFFFFFFFFFFFFF00FFFFFFFFFFFFFFFFFFFFFFFFFFFFFFFFFFFFFFFFFFFF00FFFFFF
310
FFFFFFFFFF00FFFFFFFFFFFFFFFFFFFFFFFFFFFFFFFFFFFFFFFFFFFF00FFFFFFFFFFFFFF00FFFFFFFFFFFFFFFFFFFFFFFFFFFFFFFFFFFFFFFFFFFF00FFFFFFFFFFFFFFFF00FFFFFFFFFFFFFFFFFFFFFFFFFFFFFFFFFFFFFFFFFF00FFFFFFFFFFFFFFFFFF00FFFFFFFFFFFFFFFFFFFFFFFFFFFFFFFFFFFFFFFF00FFFFFFFFFF
310
FFFFFFFFFF00FFFFFFFFFFFFFFFFFFFFFFFFFFFFFFFFFFFFFF00FFFFFFFFFFFFFFFFFFFF00FFFFFFFFFFFFFFFFFFFFFFFFFFFFFFFFFFFF0000FFFFFFFFFFFFFFFFFFFFFF00FFFFFFFFFFFFFFFFFFFFFFFFFFFF00000000FFFFFFFFFFFFFFFFFFFFFFFFFF00FFFFFFFFFFFFFFFFFFFFFFFFFFFFFFFFFFFFFFFFFFFFFFFFFFFF
310
FFFFFFFF00FFFFFFFFFFFFFFFFFFFFFFFFFFFFFFFFFFFFFFFFFFFFFFFFFFFFFFFFFFFFFF00FFFFFFFFFFFFFFFFFFFFFFFFFFFFFFFFFFFFFFFFFFFFFFFFFFFFFFFFFFFFFF00FFFFFFFFFFFFFFFFFFFFFFFFFFFFFFFFFFFFFFFFFFFFFFFFFFFFFFFFFFFF00FFFFFFFFFFFFFFFFFFFFFFFFFFFFFFFFFFFFFFFFFFFFFFFFFFFFFF
310
FFFFFFFF00FFFFFFFFFFFFFFFFFFFFFFFFFFFFFFFFFFFFFFFFFFFFFFFFFFFFFFFFFFFF00FFFFFFFFFFFFFFFFFFFFFFFFFFFFFFFFFFFFFFFFFFFFFFFFFFFFFFFFFFFF00FFFFFFFFFFFFFFFFFFFFFFFFFFFFFFFFFFFFFFFFFFFFFFFFFFFFFFFFFFFF00FFFFFFFFFFFFFFFFFFFFFFFFFFFFFFFFFFFFFFFFFFFFFFFFFFFFFFFFFF
310
FF00FFFFFFFFFFFFFFFFFFFFFFFFFFFFFFFFFFFFFFFFFFFFFFFFFFFFFFFFFFFFFF00FFFFFFFFFFFFFFFFFFFFFFFFFFFFFFFFFFFFFFFFFFFFFFFFFFFFFFFFFFFF00FFFFFFFFFFFFFFFFFFFFFFFFFFFFFFFFFFFFFFFFFFFFFFFFFFFFFFFFFF0000FFFFFFFFFFFFFFFFFFFFFFFFFFFFFFFFFFFFFFFFFFFFFFFFFFFFFFFF0000FF
310
FFFFFFFFFFFFFFFFFFFFFFFFFFFFFFFFFFFFFFFFFFFFFFFFFF00000000FFFFFFFFFFFFFFFFFFFFFFFFFFFFFFFFFFFFFFFFFFFFFFFFFFFF0000FFFFFFFFFFFFFFFFFFFFFFFFFFFFFFFFFFFFFFFFFFFFFFFFFFFFFFFFFFFFFFFFFFFFFFFFFFFFFFFFFFFFFFFFFFFFFFFFFFFFFFFFFFFFFFFFFFFFFFFFFFFFFFFFFFFFFFFFFFFF
310
FFFFFFFFFFFFFFFFFFFFFFFFFFFFFFFFFFFFFFFFFFFFFFFFFFFFFFFFFFFFFFFFFFFFFFFFFFFFFFFFFFFFFFFFFFFFFFFFFFFFFFFFFFFFFFFF
102
{BLKREFS
331
26AF
102
}
  0
BLOCK_RECORD
  5
268D
330
23EC
100
AcDbSymbolTableRecord
100
AcDbBlockTableRecord
  2
AI9-BLK5
340
0
310
2800000020000000200000000100080000000000000400000000000000000000000000000000000000000000000080000080000000808000800000008000800080800000C0C0C000C0DCC000F0CAA6000020400000206000002080000020A0000020C0000020E00000400000004020000040400000406000004080000040A0
310
000040C0000040E00000600000006020000060400000606000006080000060A0000060C0000060E00000800000008020000080400000806000008080000080A0000080C0000080E00000A0000000A0200000A0400000A0600000A0800000A0A00000A0C00000A0E00000C0000000C0200000C0400000C0600000C0800000C0
310
A00000C0C00000C0E00000E0000000E0200000E0400000E0600000E0800000E0A00000E0C00000E0E00040000000400020004000400040006000400080004000A0004000C0004000E00040200000402020004020400040206000402080004020A0004020C0004020E000404000004040200040404000404060004040800040
310
40A0004040C0004040E00040600000406020004060400040606000406080004060A0004060C0004060E00040800000408020004080400040806000408080004080A0004080C0004080E00040A0000040A0200040A0400040A0600040A0800040A0A00040A0C00040A0E00040C0000040C0200040C0400040C0600040C08000
310
40C0A00040C0C00040C0E00040E0000040E0200040E0400040E0600040E0800040E0A00040E0C00040E0E00080000000800020008000400080006000800080008000A0008000C0008000E00080200000802020008020400080206000802080008020A0008020C0008020E00080400000804020008040400080406000804080
310
008040A0008040C0008040E00080600000806020008060400080606000806080008060A0008060C0008060E00080800000808020008080400080806000808080008080A0008080C0008080E00080A0000080A0200080A0400080A0600080A0800080A0A00080A0C00080A0E00080C0000080C0200080C0400080C0600080C0
310
800080C0A00080C0C00080C0E00080E0000080E0200080E0400080E0600080E0800080E0A00080E0C00080E0E000C0000000C0002000C0004000C0006000C0008000C000A000C000C000C000E000C0200000C0202000C0204000C0206000C0208000C020A000C020C000C020E000C0400000C0402000C0404000C0406000C0
310
408000C040A000C040C000C040E000C0600000C0602000C0604000C0606000C0608000C060A000C060C000C060E000C0800000C0802000C0804000C0806000C0808000C080A000C080C000C080E000C0A00000C0A02000C0A04000C0A06000C0A08000C0A0A000C0A0C000C0A0E000C0C00000C0C02000C0C04000C0C06000
310
C0C08000C0C0A000F0FBFF00A4A0A000808080000000FF0000FF000000FFFF00FF000000FF00FF00FFFF0000FFFFFF00FFFFFFFFFFFFFFFFFFFFFFFFFFFFFFFFFFFFFFFFFFFFFFFFFFFFFFFFFFFFFFFFFFFFFFFFFFFFFFFF000000000000000000000000000000000000000000000000FFFFFFFFFFFFFFFF00FFFFFFFFFFFF
310
FFFFFFFFFFFFFFFFFFFFFFFFFFFFFFFFFFFFFFFFFFFFFFFFFF00FFFFFFFFFFFFFFFFFFFFFFFFFFFFFFFFFFFFFFFFFFFFFFFFFFFFFFFFFFFFFF00FFFFFFFFFFFFFFFFFFFFFFFFFFFFFFFFFFFFFFFFFFFFFFFFFFFFFFFFFFFFFF00FFFFFFFFFFFFFFFFFFFFFFFFFFFFFFFFFFFFFFFFFFFFFFFFFFFFFFFFFFFFFF00FFFFFFFFFF
310
FFFFFFFFFFFFFFFFFFFFFFFFFFFFFFFFFFFFFFFFFFFFFFFFFFFF00FFFFFFFFFFFFFFFFFFFFFFFFFFFFFFFFFFFFFFFFFFFFFFFFFFFFFFFFFFFFFF00FFFFFFFFFFFFFFFFFFFFFFFFFFFFFFFFFFFFFFFFFFFFFFFFFFFFFFFFFFFFFF00FFFFFFFFFFFFFFFFFFFFFFFFFFFFFFFFFFFFFFFFFFFFFFFFFFFFFFFFFFFFFF00FFFFFFFF
310
FFFFFFFFFFFFFFFFFFFFFFFFFFFFFFFFFFFFFFFFFFFFFFFFFFFFFF00FFFFFFFFFFFFFFFFFFFFFFFFFFFFFFFFFFFFFFFFFFFFFFFFFFFFFFFFFFFFFF00FFFFFFFFFFFFFFFFFFFFFFFFFFFFFFFFFFFFFFFFFFFFFFFFFFFFFFFFFFFFFF00FFFFFFFFFFFFFFFFFFFFFFFFFFFFFFFFFFFFFFFFFFFFFFFFFFFFFFFFFFFFFF00FFFFFF
310
FFFFFFFFFFFFFFFFFFFFFFFFFFFFFFFFFFFFFFFFFFFFFFFFFFFFFFFF00FFFFFFFFFFFFFFFFFFFFFFFFFFFFFFFFFFFFFFFFFFFFFFFFFFFFFFFFFFFFFF00FFFFFFFFFFFFFFFFFFFFFFFFFFFFFFFFFFFFFFFFFFFFFFFFFFFFFFFFFFFFFF00FFFFFFFFFFFFFFFFFFFFFFFFFFFFFFFFFFFFFFFFFFFFFFFFFFFFFFFFFFFFFF00FFFF
310
FFFFFFFFFFFFFFFFFFFFFFFFFFFFFFFFFFFFFFFFFFFFFFFFFFFFFFFFFF00FFFFFFFFFFFFFFFFFFFFFFFFFFFFFFFFFFFFFFFFFFFFFFFFFFFFFFFFFFFFFF00FFFFFFFFFFFFFFFFFFFFFFFFFFFFFFFFFFFFFFFFFFFFFFFFFFFFFFFFFFFFFF00FFFFFFFFFFFFFFFFFFFFFFFFFFFFFFFFFFFFFFFFFFFFFFFFFFFFFFFFFFFFFF00FF
310
FFFFFFFFFFFFFFFFFFFFFFFFFFFFFFFFFFFFFFFFFFFFFFFFFFFFFFFFFFFF00FFFFFFFFFFFFFFFFFFFFFFFFFFFFFFFFFFFFFFFFFFFFFFFFFFFFFFFFFFFFFF00FFFFFFFFFFFFFFFFFFFFFFFFFFFFFFFFFFFFFFFFFFFFFFFFFFFFFFFFFFFFFF00FFFFFFFFFFFFFFFFFFFFFFFFFFFFFFFFFFFFFFFFFFFFFFFFFFFFFFFFFFFFFF00
310
FFFFFFFFFFFFFFFFFFFFFFFFFFFFFFFFFFFFFFFFFFFFFFFFFFFFFFFFFFFFFF00FFFFFFFFFFFFFFFFFFFFFFFFFFFFFFFFFFFFFFFFFFFFFFFFFFFFFFFFFFFFFF00FFFFFFFFFFFFFFFFFFFFFFFFFFFFFFFFFFFFFFFFFFFFFFFFFFFFFFFFFFFFFF00FFFFFFFFFFFFFFFFFFFFFFFFFFFFFFFFFFFFFFFFFFFFFFFFFFFFFFFFFFFFFF
310
00FFFFFFFFFFFFFFFFFFFFFFFFFFFF000000000000000000FFFFFFFFFFFFFFFF00FFFFFFFFFFFFFFFFFFFFFFFFFFFF00FFFFFFFFFFFFFFFF
102
{BLKREFS
331
26B0
102
}
  0
BLOCK_RECORD
  5
2692
330
23EC
100
AcDbSymbolTableRecord
100
AcDbBlockTableRecord
  2
AI9-BLK4
340
0
310
2800000020000000200000000100080000000000000400000000000000000000000000000000000000000000000080000080000000808000800000008000800080800000C0C0C000C0DCC000F0CAA6000020400000206000002080000020A0000020C0000020E00000400000004020000040400000406000004080000040A0
310
000040C0000040E00000600000006020000060400000606000006080000060A0000060C0000060E00000800000008020000080400000806000008080000080A0000080C0000080E00000A0000000A0200000A0400000A0600000A0800000A0A00000A0C00000A0E00000C0000000C0200000C0400000C0600000C0800000C0
310
A00000C0C00000C0E00000E0000000E0200000E0400000E0600000E0800000E0A00000E0C00000E0E00040000000400020004000400040006000400080004000A0004000C0004000E00040200000402020004020400040206000402080004020A0004020C0004020E000404000004040200040404000404060004040800040
310
40A0004040C0004040E00040600000406020004060400040606000406080004060A0004060C0004060E00040800000408020004080400040806000408080004080A0004080C0004080E00040A0000040A0200040A0400040A0600040A0800040A0A00040A0C00040A0E00040C0000040C0200040C0400040C0600040C08000
310
40C0A00040C0C00040C0E00040E0000040E0200040E0400040E0600040E0800040E0A00040E0C00040E0E00080000000800020008000400080006000800080008000A0008000C0008000E00080200000802020008020400080206000802080008020A0008020C0008020E00080400000804020008040400080406000804080
310
008040A0008040C0008040E00080600000806020008060400080606000806080008060A0008060C0008060E00080800000808020008080400080806000808080008080A0008080C0008080E00080A0000080A0200080A0400080A0600080A0800080A0A00080A0C00080A0E00080C0000080C0200080C0400080C0600080C0
310
800080C0A00080C0C00080C0E00080E0000080E0200080E0400080E0600080E0800080E0A00080E0C00080E0E000C0000000C0002000C0004000C0006000C0008000C000A000C000C000C000E000C0200000C0202000C0204000C0206000C0208000C020A000C020C000C020E000C0400000C0402000C0404000C0406000C0
310
408000C040A000C040C000C040E000C0600000C0602000C0604000C0606000C0608000C060A000C060C000C060E000C0800000C0802000C0804000C0806000C0808000C080A000C080C000C080E000C0A00000C0A02000C0A04000C0A06000C0A08000C0A0A000C0A0C000C0A0E000C0C00000C0C02000C0C04000C0C06000
310
C0C08000C0C0A000F0FBFF00A4A0A000808080000000FF0000FF000000FFFF00FF000000FF00FF00FFFF0000FFFFFF00FFFFFFFFFFFFFFFFFFFFFFFFFFFFFFFFFFFFFFFFFFFFFFFFFFFFFFFFFFFFFFFFFFFFFFFFFFFFFFFFFFFFFFFFFFFF00000000FFFFFFFFFFFFFFFFFFFFFF000000FFFFFFFFFFFFFFFFFFFFFFFFFFFF00
310
FFFF00FFFFFFFFFFFFFFFFFFFFFF00FFFFFFFFFFFFFFFFFFFFFFFFFFFFFFFF00FFFF00FFFFFFFFFFFFFFFFFFFFFF00FFFFFFFFFFFFFFFFFFFFFFFFFFFFFFFF00FFFF00FFFFFFFFFFFFFFFFFFFFFF00FFFFFFFFFFFFFFFFFFFFFFFFFFFFFFFF00FFFF00FFFFFFFFFFFFFFFFFFFFFF00FFFFFFFFFFFFFFFFFFFFFFFFFFFFFFFF
310
00FFFF00FFFFFFFFFFFFFFFFFFFFFF00FFFFFFFFFFFFFFFFFFFFFFFFFFFFFFFF00FFFF00FFFFFFFFFFFFFFFFFFFFFF00FFFFFFFFFFFFFFFFFFFFFFFFFFFFFFFF00FFFF00FFFFFFFFFFFFFFFFFFFFFF00FFFFFFFFFFFFFFFFFFFFFFFFFFFFFFFF00FFFF00FFFFFFFFFFFFFFFFFFFFFF00FFFFFFFFFFFFFFFFFFFFFFFFFFFFFF
310
FF00FFFF00FFFFFFFFFFFFFFFFFFFFFF00FFFFFFFFFFFFFFFFFFFFFFFFFFFFFFFF00FFFF00FFFFFFFFFFFFFFFFFFFFFF00FFFFFFFFFFFFFFFFFFFFFFFFFFFFFFFF00FFFF00FFFFFFFFFFFFFFFFFFFFFF00FFFFFFFFFFFFFFFFFFFFFFFFFFFFFFFF00FFFF00FFFFFFFFFFFFFFFFFFFFFF00FFFFFFFFFFFFFFFFFFFFFFFFFFFF
310
FFFF00FFFF00FFFFFFFFFFFFFFFFFFFFFF00FFFFFFFFFFFFFFFFFFFFFFFFFFFFFFFF00FFFF00FFFFFFFFFFFFFFFFFFFFFF00FFFFFFFFFFFFFFFFFFFFFFFFFFFFFFFF00FFFF00FFFFFFFFFFFFFFFFFFFFFF00FFFFFFFFFFFFFFFFFFFFFFFFFFFFFFFF00FFFF00FFFFFFFFFFFFFFFFFFFF00FFFFFFFFFFFFFFFFFFFFFFFFFFFF
310
FFFFFF00FFFF00FFFFFFFFFFFFFFFFFFFF00FFFFFFFFFFFFFFFFFFFFFFFFFFFFFFFFFF00FFFF00FFFFFFFFFFFFFFFFFFFF00FFFFFFFFFFFFFFFFFFFFFFFFFFFFFFFFFF00FFFF00FFFFFFFFFFFFFFFFFFFF00FFFFFFFFFFFFFFFFFFFFFFFFFFFFFFFFFF00FFFF00FFFFFFFFFFFFFFFFFFFF00FFFFFFFFFFFFFFFFFFFFFFFFFF
310
FFFFFFFF00FFFF00FFFFFFFFFFFFFFFFFF0000FFFF00FFFFFFFFFFFFFFFFFFFFFFFFFFFF00FFFF00FFFFFFFFFFFFFFFF0000FFFFFF00FFFFFFFFFFFFFFFFFFFFFFFFFFFF00FFFF00000000000000000000FFFFFFFF00FFFFFFFFFFFFFFFFFFFFFFFFFFFF00FFFFFFFFFFFFFFFFFFFFFFFFFFFFFF00FFFFFFFFFFFFFFFFFFFF
310
FFFFFFFFFF00FFFFFFFFFFFFFFFFFFFFFFFFFFFF00FFFFFFFFFFFFFFFFFFFFFFFFFFFFFFFF00FFFFFFFFFFFFFFFFFFFFFFFFFFFF00FFFFFFFFFFFFFFFFFFFFFFFFFFFFFFFF00FFFFFFFFFFFFFFFFFFFFFFFFFFFFFF00FFFFFFFFFFFFFFFFFFFFFFFFFFFFFF00FFFFFFFFFFFFFFFFFFFFFFFFFFFFFF00FFFFFFFFFFFFFFFFFF
310
FFFFFFFFFFFF00FFFF00000000000000000000FFFFFFFF00FFFFFFFFFFFFFFFFFFFFFFFFFFFF00FFFF00FFFFFFFFFFFFFFFFFF0000FFFF00
102
{BLKREFS
331
26B1
102
}
  0
BLOCK_RECORD
  5
2697
330
23EC
100
AcDbSymbolTableRecord
100
AcDbBlockTableRecord
  2
AI9-BLK3
340
0
310
2800000020000000200000000100080000000000000400000000000000000000000000000000000000000000000080000080000000808000800000008000800080800000C0C0C000C0DCC000F0CAA6000020400000206000002080000020A0000020C0000020E00000400000004020000040400000406000004080000040A0
310
000040C0000040E00000600000006020000060400000606000006080000060A0000060C0000060E00000800000008020000080400000806000008080000080A0000080C0000080E00000A0000000A0200000A0400000A0600000A0800000A0A00000A0C00000A0E00000C0000000C0200000C0400000C0600000C0800000C0
310
A00000C0C00000C0E00000E0000000E0200000E0400000E0600000E0800000E0A00000E0C00000E0E00040000000400020004000400040006000400080004000A0004000C0004000E00040200000402020004020400040206000402080004020A0004020C0004020E000404000004040200040404000404060004040800040
310
40A0004040C0004040E00040600000406020004060400040606000406080004060A0004060C0004060E00040800000408020004080400040806000408080004080A0004080C0004080E00040A0000040A0200040A0400040A0600040A0800040A0A00040A0C00040A0E00040C0000040C0200040C0400040C0600040C08000
310
40C0A00040C0C00040C0E00040E0000040E0200040E0400040E0600040E0800040E0A00040E0C00040E0E00080000000800020008000400080006000800080008000A0008000C0008000E00080200000802020008020400080206000802080008020A0008020C0008020E00080400000804020008040400080406000804080
310
008040A0008040C0008040E00080600000806020008060400080606000806080008060A0008060C0008060E00080800000808020008080400080806000808080008080A0008080C0008080E00080A0000080A0200080A0400080A0600080A0800080A0A00080A0C00080A0E00080C0000080C0200080C0400080C0600080C0
310
800080C0A00080C0C00080C0E00080E0000080E0200080E0400080E0600080E0800080E0A00080E0C00080E0E000C0000000C0002000C0004000C0006000C0008000C000A000C000C000C000E000C0200000C0202000C0204000C0206000C0208000C020A000C020C000C020E000C0400000C0402000C0404000C0406000C0
310
408000C040A000C040C000C040E000C0600000C0602000C0604000C0606000C0608000C060A000C060C000C060E000C0800000C0802000C0804000C0806000C0808000C080A000C080C000C080E000C0A00000C0A02000C0A04000C0A06000C0A08000C0A0A000C0A0C000C0A0E000C0C00000C0C02000C0C04000C0C06000
310
C0C08000C0C0A000F0FBFF00A4A0A000808080000000FF0000FF000000FFFF00FF000000FF00FF00FFFF0000FFFFFF00FFFFFFFFFFFFFFFFFFFFFFFFFFFFFFFFFFFFFFFFFFFFFFFFFFFFFFFFFFFFFFFFFFFFFFFFFFFFFFFFFFFFFFFFFFFFFF0000FFFFFFFFFFFFFFFFFFFFFFFFFFFFFFFFFFFFFFFFFFFFFFFFFFFFFFFFFFFF
310
0000FFFFFFFFFFFFFFFFFFFFFFFFFFFFFFFFFFFFFFFFFFFFFFFFFFFFFFFFFFFF0000FFFFFFFFFFFFFFFFFFFFFFFFFFFFFFFFFFFFFFFFFFFFFFFFFFFFFFFFFFFF0000FFFFFFFFFFFFFFFFFFFFFFFFFFFFFFFFFFFFFFFFFFFFFFFFFFFFFFFFFFFF0000FFFFFFFFFFFFFFFFFFFFFFFFFFFFFFFFFFFFFFFFFFFFFFFFFFFFFFFFFF
310
FF0000FFFFFFFFFFFFFFFFFFFFFFFFFFFFFFFFFFFFFFFFFFFFFFFFFFFFFFFFFFFF0000FFFFFFFFFFFFFFFFFFFFFFFFFFFFFFFFFFFFFFFFFFFFFFFFFFFFFFFFFFFF0000FFFFFFFFFFFFFFFFFFFFFFFFFFFFFFFFFFFFFFFFFFFFFFFFFFFFFFFFFFFF0000FFFFFFFFFFFFFFFFFFFFFFFFFFFFFFFFFFFFFFFFFFFFFFFFFFFFFFFF
310
FFFF0000FFFFFFFFFFFFFFFFFFFFFFFFFFFFFFFFFFFFFFFFFFFFFFFFFFFFFFFFFFFF0000FFFFFFFFFFFFFFFFFFFFFFFFFFFFFFFFFFFFFFFFFFFFFFFFFFFFFFFFFFFF0000FFFFFFFFFFFFFFFFFFFFFFFFFFFFFFFFFFFFFFFFFFFFFFFFFFFFFFFFFFFF0000FFFFFFFFFFFFFFFFFFFFFFFFFFFFFFFFFFFFFFFFFFFFFFFFFFFFFF
310
FFFFFF0000FFFFFFFFFFFFFFFFFFFFFFFFFFFFFFFFFFFFFFFFFFFFFFFFFFFFFFFFFFFF0000FFFFFFFFFFFFFFFFFFFFFFFFFFFFFFFFFFFFFFFFFFFFFFFFFFFFFFFFFFFF0000FFFFFFFFFFFFFFFFFFFFFFFFFFFFFFFFFFFFFFFFFFFFFFFFFFFFFFFFFFFF0000FFFFFFFFFFFFFFFFFFFFFFFFFFFFFFFFFFFFFFFFFFFFFFFFFFFF
310
FFFFFFFF0000FFFFFFFFFFFFFFFFFFFFFFFFFFFFFFFFFFFFFFFFFFFFFFFFFFFFFFFFFFFF0000FFFFFFFFFFFFFFFFFFFFFFFFFFFFFFFFFFFFFFFFFFFFFFFFFFFFFFFFFFFF0000FFFFFFFFFFFFFFFFFFFFFFFFFFFFFFFFFFFFFFFFFFFFFFFFFFFFFFFFFFFF0000FFFFFFFFFFFFFFFFFFFFFFFFFFFFFFFFFFFFFFFFFFFFFFFFFF
310
FFFFFFFFFF0000FFFFFFFFFFFFFFFFFFFFFFFFFFFFFFFFFFFFFFFFFFFFFFFFFFFFFFFFFFFF0000FFFFFFFFFFFFFFFFFFFFFFFFFFFFFFFFFFFFFFFFFFFFFFFFFFFFFFFFFFFF0000FFFFFFFFFFFFFFFFFFFFFFFFFFFFFFFFFFFFFFFFFFFFFFFFFFFFFFFFFFFF0000FFFFFFFFFFFFFFFFFFFFFFFFFFFFFFFFFFFFFFFFFFFFFFFF
310
FFFFFFFFFFFF0000FFFFFFFFFFFFFFFFFFFFFFFFFFFFFFFFFFFFFFFFFFFFFFFFFFFFFFFFFFFF0000FFFFFFFFFFFFFFFFFFFFFFFFFFFFFFFFFFFFFFFFFFFFFFFFFFFFFFFFFFFF0000FFFFFFFFFFFFFFFFFFFFFFFFFFFFFFFFFFFFFFFFFFFFFFFFFFFFFFFFFFFF0000FFFFFFFFFFFFFFFFFFFFFFFFFFFFFFFFFFFFFFFFFFFFFF
310
FFFFFFFFFFFFFF0000FFFFFFFFFFFFFFFFFFFFFFFFFFFFFFFFFFFFFFFFFFFFFFFFFFFFFFFFFFFFFFFFFFFFFFFFFFFFFFFFFFFFFFFFFFFFFF
102
{BLKREFS
331
26B2
102
}
  0
BLOCK_RECORD
  5
269C
330
23EC
100
AcDbSymbolTableRecord
100
AcDbBlockTableRecord
  2
AI9-BLK2
340
0
310
2800000020000000200000000100080000000000000400000000000000000000000000000000000000000000000080000080000000808000800000008000800080800000C0C0C000C0DCC000F0CAA6000020400000206000002080000020A0000020C0000020E00000400000004020000040400000406000004080000040A0
310
000040C0000040E00000600000006020000060400000606000006080000060A0000060C0000060E00000800000008020000080400000806000008080000080A0000080C0000080E00000A0000000A0200000A0400000A0600000A0800000A0A00000A0C00000A0E00000C0000000C0200000C0400000C0600000C0800000C0
310
A00000C0C00000C0E00000E0000000E0200000E0400000E0600000E0800000E0A00000E0C00000E0E00040000000400020004000400040006000400080004000A0004000C0004000E00040200000402020004020400040206000402080004020A0004020C0004020E000404000004040200040404000404060004040800040
310
40A0004040C0004040E00040600000406020004060400040606000406080004060A0004060C0004060E00040800000408020004080400040806000408080004080A0004080C0004080E00040A0000040A0200040A0400040A0600040A0800040A0A00040A0C00040A0E00040C0000040C0200040C0400040C0600040C08000
310
40C0A00040C0C00040C0E00040E0000040E0200040E0400040E0600040E0800040E0A00040E0C00040E0E00080000000800020008000400080006000800080008000A0008000C0008000E00080200000802020008020400080206000802080008020A0008020C0008020E00080400000804020008040400080406000804080
310
008040A0008040C0008040E00080600000806020008060400080606000806080008060A0008060C0008060E00080800000808020008080400080806000808080008080A0008080C0008080E00080A0000080A0200080A0400080A0600080A0800080A0A00080A0C00080A0E00080C0000080C0200080C0400080C0600080C0
310
800080C0A00080C0C00080C0E00080E0000080E0200080E0400080E0600080E0800080E0A00080E0C00080E0E000C0000000C0002000C0004000C0006000C0008000C000A000C000C000C000E000C0200000C0202000C0204000C0206000C0208000C020A000C020C000C020E000C0400000C0402000C0404000C0406000C0
310
408000C040A000C040C000C040E000C0600000C0602000C0604000C0606000C0608000C060A000C060C000C060E000C0800000C0802000C0804000C0806000C0808000C080A000C080C000C080E000C0A00000C0A02000C0A04000C0A06000C0A08000C0A0A000C0A0C000C0A0E000C0C00000C0C02000C0C04000C0C06000
310
C0C08000C0C0A000F0FBFF00A4A0A000808080000000FF0000FF000000FFFF00FF000000FF00FF00FFFF0000FFFFFF00FFFFFFFFFFFFFFFFFFFFFFFFFFFFFFFFFFFFFFFFFFFFFFFFFFFFFFFFFFFFFFFFFFFFFFFFFFFFFFFFFFFFFFFFFFFFFF0000FFFFFFFFFFFFFFFFFFFFFFFFFFFFFFFFFFFFFFFFFFFFFFFFFFFFFFFFFFFF
310
0000FFFFFFFFFFFFFFFFFFFFFFFFFFFFFFFFFFFFFFFFFFFFFFFFFFFFFFFFFFFF0000FFFFFFFFFFFFFFFFFFFFFFFFFFFFFFFFFFFFFFFFFFFFFFFFFFFFFFFFFF00FFFF00FFFFFFFFFFFFFFFFFFFFFFFFFFFFFFFFFFFFFFFFFFFFFFFFFFFFFFFF00FFFF00FFFFFFFFFFFFFFFFFFFFFFFFFFFFFFFFFFFFFFFFFFFFFFFFFFFFFFFF
310
00FF0000FFFFFFFFFFFFFFFFFFFFFFFFFFFFFFFFFFFFFFFFFFFFFFFFFFFFFFFF00FF0000FFFFFFFFFFFFFFFFFFFFFFFFFFFFFFFFFFFFFFFFFFFFFFFFFFFFFFFF00FF0000FFFFFFFFFFFFFFFFFFFFFFFFFFFFFFFFFFFFFFFFFFFFFFFFFFFFFFFF00000000FFFFFFFFFFFFFFFFFFFFFFFFFFFFFFFFFFFFFFFFFFFFFFFFFFFFFF
310
00FF00FF0000FFFFFFFFFFFFFFFFFFFFFFFFFFFFFFFFFFFFFFFFFFFFFFFFFFFF00FF00FF0000FFFFFFFFFFFFFFFFFFFFFFFFFFFFFFFFFFFFFFFFFFFFFFFFFFFF00FF00FF0000FFFFFFFFFFFFFFFFFFFFFFFFFFFFFFFFFFFFFFFFFFFFFFFFFFFF00FF00FF0000FFFFFFFFFFFFFFFFFFFFFFFFFFFFFFFFFFFFFFFFFFFFFFFFFF
310
FF00FF00FF0000FFFFFFFFFFFFFFFFFFFFFFFFFFFFFFFFFFFFFFFFFFFFFFFFFFFF0000FFFF0000FFFFFFFFFFFFFFFFFFFFFFFFFFFFFFFFFFFFFFFFFFFFFFFFFF00FF00FFFF00FF00FFFFFFFFFFFFFFFFFFFFFFFFFFFFFFFFFFFFFFFFFFFFFFFF00FF00FFFF00FF00FFFFFFFFFFFFFFFFFFFFFFFFFFFFFFFFFFFFFFFFFFFFFF
310
FF00FF00FFFFFF0000FFFFFFFFFFFFFFFFFFFFFFFFFFFFFFFFFFFFFFFFFFFFFFFF00FF00FFFFFF0000FFFFFFFFFFFFFFFFFFFFFFFFFFFFFFFFFFFFFFFFFFFFFFFF00FF00FFFFFF0000FFFFFFFFFFFFFFFFFFFFFFFFFFFFFFFFFFFFFFFFFFFFFFFF0000FFFFFFFF0000FFFFFFFFFFFFFFFFFFFFFFFFFFFFFFFFFFFFFFFFFFFF
310
FF00FF00FFFFFFFF00FF00FFFFFFFFFFFFFFFFFFFFFFFFFFFFFFFFFFFFFFFFFFFF00FF00FFFFFFFF00FF00FFFFFFFFFFFFFFFFFFFFFFFFFFFFFFFFFFFFFFFFFFFF00FF00FFFFFFFF00FF00FFFFFFFFFFFFFFFFFFFFFFFFFFFFFFFFFFFFFFFFFFFF00FF00FFFFFFFF00FF00FFFFFFFFFFFFFFFFFFFFFFFFFFFFFFFFFFFFFFFF
310
FFFF00FF00FFFFFFFFFF0000FFFFFFFFFFFFFFFFFFFFFFFFFFFFFFFFFFFFFFFFFFFF0000FFFFFFFFFFFF0000FFFFFFFFFFFFFFFFFFFFFFFFFFFFFFFFFFFFFFFFFF00FF00FFFFFFFFFFFF00FF00FFFFFFFFFFFFFFFFFFFFFFFFFFFFFFFFFFFFFFFF00FF00FFFFFFFFFFFF00FF00FFFFFFFFFFFFFFFFFFFFFFFFFFFFFFFFFFFF
310
FFFF000000FFFFFFFFFFFF000000FFFFFFFFFFFFFFFFFFFFFFFFFFFFFFFFFFFFFFFFFFFFFFFFFFFFFFFFFFFFFFFFFFFFFFFFFFFFFFFFFFFF
102
{BLKREFS
331
26B3
102
}
  0
BLOCK_RECORD
  5
26A1
330
23EC
100
AcDbSymbolTableRecord
100
AcDbBlockTableRecord
  2
AI9-BLK1
340
0
310
2800000020000000200000000100080000000000000400000000000000000000000000000000000000000000000080000080000000808000800000008000800080800000C0C0C000C0DCC000F0CAA6000020400000206000002080000020A0000020C0000020E00000400000004020000040400000406000004080000040A0
310
000040C0000040E00000600000006020000060400000606000006080000060A0000060C0000060E00000800000008020000080400000806000008080000080A0000080C0000080E00000A0000000A0200000A0400000A0600000A0800000A0A00000A0C00000A0E00000C0000000C0200000C0400000C0600000C0800000C0
310
A00000C0C00000C0E00000E0000000E0200000E0400000E0600000E0800000E0A00000E0C00000E0E00040000000400020004000400040006000400080004000A0004000C0004000E00040200000402020004020400040206000402080004020A0004020C0004020E000404000004040200040404000404060004040800040
310
40A0004040C0004040E00040600000406020004060400040606000406080004060A0004060C0004060E00040800000408020004080400040806000408080004080A0004080C0004080E00040A0000040A0200040A0400040A0600040A0800040A0A00040A0C00040A0E00040C0000040C0200040C0400040C0600040C08000
310
40C0A00040C0C00040C0E00040E0000040E0200040E0400040E0600040E0800040E0A00040E0C00040E0E00080000000800020008000400080006000800080008000A0008000C0008000E00080200000802020008020400080206000802080008020A0008020C0008020E00080400000804020008040400080406000804080
310
008040A0008040C0008040E00080600000806020008060400080606000806080008060A0008060C0008060E00080800000808020008080400080806000808080008080A0008080C0008080E00080A0000080A0200080A0400080A0600080A0800080A0A00080A0C00080A0E00080C0000080C0200080C0400080C0600080C0
310
800080C0A00080C0C00080C0E00080E0000080E0200080E0400080E0600080E0800080E0A00080E0C00080E0E000C0000000C0002000C0004000C0006000C0008000C000A000C000C000C000E000C0200000C0202000C0204000C0206000C0208000C020A000C020C000C020E000C0400000C0402000C0404000C0406000C0
310
408000C040A000C040C000C040E000C0600000C0602000C0604000C0606000C0608000C060A000C060C000C060E000C0800000C0802000C0804000C0806000C0808000C080A000C080C000C080E000C0A00000C0A02000C0A04000C0A06000C0A08000C0A0A000C0A0C000C0A0E000C0C00000C0C02000C0C04000C0C06000
310
C0C08000C0C0A000F0FBFF00A4A0A000808080000000FF0000FF000000FFFF00FF000000FF00FF00FFFF0000FFFFFF00FFFFFFFFFFFFFFFFFFFFFFFFFFFFFFFFFFFFFFFFFFFFFFFFFFFFFFFFFFFFFFFFFFFFFFFFFFFFFFFFFFFFFF00000000000000000000FFFFFFFFFFFFFFFFFFFFFFFFFFFFFFFFFFFFFFFFFFFF00FFFFFF
310
FFFFFFFFFF00FFFFFFFFFFFFFFFFFFFFFFFFFFFFFFFFFFFFFFFFFFFF00FFFFFFFFFFFFFFFF00FFFFFFFFFFFFFFFFFFFFFFFFFFFFFFFFFFFFFFFFFFFF00FFFFFFFFFFFFFFFF00FFFFFFFFFFFFFFFFFFFFFFFFFFFFFFFFFFFFFFFFFFFF00FF0000000000000000FFFFFFFFFFFFFFFFFFFFFFFFFFFFFFFFFFFFFFFFFFFF00FF00
310
FFFFFFFFFFFFFFFFFFFFFFFFFFFFFFFFFFFFFFFFFFFFFFFFFFFFFFFFFF00FF00FFFFFFFFFFFFFFFFFFFFFFFFFFFFFFFFFFFFFFFFFFFFFFFFFFFFFFFFFF00FF00FFFFFFFFFFFFFFFFFFFFFFFFFFFFFFFFFFFFFFFFFFFFFFFFFFFFFFFFFF00FF00FFFFFFFFFFFFFFFFFFFFFFFFFFFFFFFFFFFFFFFFFFFFFFFFFFFFFFFFFF00FF
310
00FFFFFFFFFFFFFFFFFFFFFFFFFFFFFFFFFFFFFFFFFFFFFFFFFFFFFFFFFF00FF00FFFFFFFFFFFFFFFFFFFFFFFFFFFFFFFFFFFFFFFFFFFFFFFFFFFFFFFFFF00FF00FFFFFFFFFFFFFFFFFFFFFFFFFFFFFFFFFFFFFFFFFFFFFFFFFFFFFFFFFF00FF00FFFFFFFFFFFFFFFFFFFFFFFFFFFFFFFFFFFFFFFFFFFFFFFFFFFFFFFFFF00
310
FF00000000000000FFFFFFFFFFFFFFFFFFFFFFFFFFFFFFFFFFFFFFFFFFFFFF00FFFFFFFFFFFFFF00FFFFFFFFFFFFFFFFFFFFFFFFFFFFFFFFFFFFFFFFFFFFFF00FFFFFFFFFFFFFF00FFFFFFFFFFFFFFFFFFFFFFFFFFFFFFFFFFFFFFFFFFFFFF00FFFFFFFFFFFFFF00FFFFFFFFFFFFFFFFFFFFFFFFFFFFFFFFFFFFFFFFFFFFFF
310
00FF00000000000000FFFFFFFFFFFFFFFFFFFFFFFFFFFFFFFFFFFFFFFFFFFFFF00FF00FFFFFFFFFFFFFFFFFFFFFFFFFFFFFFFFFFFFFFFFFFFFFFFFFFFFFFFFFF00FF00FFFFFFFFFFFFFFFFFFFFFFFFFFFFFFFFFFFFFFFFFFFFFFFFFFFFFFFFFF00FF00FFFFFFFFFFFFFFFFFFFFFFFFFFFFFFFFFFFFFFFFFFFFFFFFFFFFFFFF
310
FF00FF00FFFFFFFFFFFFFFFFFFFFFFFFFFFFFFFFFFFFFFFFFFFFFFFFFFFFFFFFFF00FF00FFFFFFFFFFFFFFFFFFFFFFFFFFFFFFFFFFFFFFFFFFFFFFFFFFFFFFFFFF00FF00FFFFFFFFFFFFFFFFFFFFFFFFFFFFFFFFFFFFFFFFFFFFFFFFFFFFFFFFFF00FF00FFFFFFFFFFFFFFFFFFFFFFFFFFFFFFFFFFFFFFFFFFFFFFFFFFFFFF
310
FFFF00FF0000000000000000FFFFFFFFFFFFFFFFFFFFFFFFFFFFFFFFFFFFFFFFFFFF00FFFFFFFFFFFFFFFF00FFFFFFFFFFFFFFFFFFFFFFFFFFFFFFFFFFFFFFFFFFFF00FFFFFFFFFFFFFFFF00FFFFFFFFFFFFFFFFFFFFFFFFFFFFFFFFFFFFFFFFFFFF00FFFFFFFFFFFFFFFF00FFFFFFFFFFFFFFFFFFFFFFFFFFFFFFFFFFFFFF
310
FFFFFF00000000000000000000FFFFFFFFFFFFFFFFFFFFFFFFFFFFFFFFFFFFFFFFFFFFFFFFFFFFFFFFFFFFFFFFFFFFFFFFFFFFFFFFFFFFFF
102
{BLKREFS
331
26B4
102
}
  0
BLOCK_RECORD
  5
26A6
330
23EC
100
AcDbSymbolTableRecord
100
AcDbBlockTableRecord
  2
HD_LLC_logo_OT5
340
0
310
2800000020000000200000000100080000000000000400000000000000000000000000000000000000000000000080000080000000808000800000008000800080800000C0C0C000C0DCC000F0CAA6000020400000206000002080000020A0000020C0000020E00000400000004020000040400000406000004080000040A0
310
000040C0000040E00000600000006020000060400000606000006080000060A0000060C0000060E00000800000008020000080400000806000008080000080A0000080C0000080E00000A0000000A0200000A0400000A0600000A0800000A0A00000A0C00000A0E00000C0000000C0200000C0400000C0600000C0800000C0
310
A00000C0C00000C0E00000E0000000E0200000E0400000E0600000E0800000E0A00000E0C00000E0E00040000000400020004000400040006000400080004000A0004000C0004000E00040200000402020004020400040206000402080004020A0004020C0004020E000404000004040200040404000404060004040800040
310
40A0004040C0004040E00040600000406020004060400040606000406080004060A0004060C0004060E00040800000408020004080400040806000408080004080A0004080C0004080E00040A0000040A0200040A0400040A0600040A0800040A0A00040A0C00040A0E00040C0000040C0200040C0400040C0600040C08000
310
40C0A00040C0C00040C0E00040E0000040E0200040E0400040E0600040E0800040E0A00040E0C00040E0E00080000000800020008000400080006000800080008000A0008000C0008000E00080200000802020008020400080206000802080008020A0008020C0008020E00080400000804020008040400080406000804080
310
008040A0008040C0008040E00080600000806020008060400080606000806080008060A0008060C0008060E00080800000808020008080400080806000808080008080A0008080C0008080E00080A0000080A0200080A0400080A0600080A0800080A0A00080A0C00080A0E00080C0000080C0200080C0400080C0600080C0
310
800080C0A00080C0C00080C0E00080E0000080E0200080E0400080E0600080E0800080E0A00080E0C00080E0E000C0000000C0002000C0004000C0006000C0008000C000A000C000C000C000E000C0200000C0202000C0204000C0206000C0208000C020A000C020C000C020E000C0400000C0402000C0404000C0406000C0
310
408000C040A000C040C000C040E000C0600000C0602000C0604000C0606000C0608000C060A000C060C000C060E000C0800000C0802000C0804000C0806000C0808000C080A000C080C000C080E000C0A00000C0A02000C0A04000C0A06000C0A08000C0A0A000C0A0C000C0A0E000C0C00000C0C02000C0C04000C0C06000
310
C0C08000C0C0A000F0FBFF00A4A0A000808080000000FF0000FF000000FFFF00FF000000FF00FF00FFFF0000FFFFFF00FFFFFFFFFFFFFFFFFFFFFFFFFFFFFFFFFFFFFFFFFFFFFFFFFFFFFFFFFFFFFFFFFFFFFFFFFFFFFFFFFFFFFFFFFFFFFFFFFFFFFFFFFFFFFFFFFFFFFFFFFFFFFFFFFFFFFFFFFFFFFFFFFFFFFFFFFFFFFF
310
FFFFFFFFFFFFFFFFFFFFFFFFFFFFFFFFFFFFFFFFFFFFFFFFFFFFFFFFFFFFFFFFFFFFFFFFFFFFFFFFFFFFFFFFFFFFFFFFFFFFFFFFFFFFFFFFFFFFFFFFFFFFFFFFFFFFFFFFFFFFFFFFFFFFFFFFFFFFFFFFFFFFFFFFFFFFFFFFFFFFFFFFFFFFFFFFFFFFFFFFFFFFFFFFFFFFFFFFFFFFFFFFFFFFFFFFFFFFFFFFFFFFFFFFFFFFFF
310
FFFFFFFFFFFFFFFFFFFFFFFFFFFFFFFFFFFFFFFFFFFFFFFFFFFFFFFFFFFFFFFFFFFFFFFFFFFFFFFFFFFFFFFFFFFFFFFFFFFFFFFFFFFFFFFFFFFFFFFFFFFFFFFFFFFFFFFFFFFFFFFFFFFFFFFFFFFFFFFFFFFFFFFFFFFFFFFFFFFFFFFFFFFFFFFFFFFFFFFFFFFFFFFFFFFFFFFFFFFFFFFFFFFFFFFFFFFFFFFFFFFFFFFFFFFFFF
310
FFFFFFFFFFFFFFFFFFFFFFFFFFFFFFFFFFFFFFFFFFFFFFFFFFFFFFFFFFFFFFFFFFFFFFFFFFFFFFFFFFFFFFFFFFFFFFFFFFFFFFFF0000000000000000000000000000000000000000000000000000000000FFFFFF0000000000000000000000000000000000FFFFFFFFFFFFFFFFFFFF0000FFFFFF0000000000000000000000
310
00000000000000FFFFFFFFFFFFFFFFFFFF0000FFFF000000000000000000000000000000000000FFFFFF00000000FFFFFF0000FFFF00FFFFFFFFFFFF00FFFFFF00FFFFFFFFFF00FFFFFF0000000000FFFF0000FFFF00FFFFFFFFFFFF00FFFFFF00FFFFFFFFFF00FFFFFF00FFFF0000FFFF0000FFFF00FFFFFFFFFFFF00FFFF
310
00FFFFFFFFFFFF00FFFFFF00FFFF0000FFFF0000FFFF0000000000FFFF00000000FFFFFF00000000FFFFFF00000000FFFFFF0000FFFFFFFFFFFF00FFFFFFFFFFFFFFFFFF00FFFFFFFFFFFFFFFFFFFFFFFFFF0000FFFFFFFFFFFF00FFFFFFFFFFFFFFFFFF00FFFFFFFFFFFFFFFFFFFFFFFFFF0000FFFFFFFFFFFF00FFFFFFFF
310
FFFFFFFFFF00FFFFFFFFFFFFFFFFFFFFFFFF0000FFFFFF0000000000FFFF00000000FFFFFF0000000000000000000000000000FFFFFFFF00FFFFFFFFFFFF00FFFF00FFFFFFFFFFFF00FFFFFFFFFFFFFFFFFFFFFFFFFFFF00FFFFFFFFFFFF00FFFFFF00FFFFFFFFFF00FFFFFFFFFFFFFFFFFFFFFFFFFFFF0000000000000000
310
FFFFFF00000000000000FFFFFFFFFFFFFFFFFFFFFFFFFFFFFFFFFFFFFFFFFFFFFFFFFFFFFFFFFFFFFFFFFFFFFFFFFFFFFFFFFFFFFFFFFFFFFFFFFFFFFFFFFFFFFFFFFFFFFFFFFFFFFFFFFFFFFFFFFFFFFFFFFFFFFFFFFFFFFFFFFFFFFFFFFFFFFFFFFFFFFFFFFFFFFFFFFFFFFFFFFFFFFFFFFFFFFFFFFFFFFFFFFFFFFFFFFF
310
FFFFFFFFFFFFFFFFFFFFFFFFFFFFFFFFFFFFFFFFFFFFFFFFFFFFFFFFFFFFFFFFFFFFFFFFFFFFFFFFFFFFFFFFFFFFFFFFFFFFFFFFFFFFFFFF
102
{BLKREFS
331
26CC
102
}
  0
BLOCK_RECORD
  5
26CB
330
23EC
100
AcDbSymbolTableRecord
100
AcDbBlockTableRecord
  2
HD logo-new
340
0
310
2800000020000000200000000100080000000000000400000000000000000000000000000000000000000000000080000080000000808000800000008000800080800000C0C0C000C0DCC000F0CAA6000020400000206000002080000020A0000020C0000020E00000400000004020000040400000406000004080000040A0
310
000040C0000040E00000600000006020000060400000606000006080000060A0000060C0000060E00000800000008020000080400000806000008080000080A0000080C0000080E00000A0000000A0200000A0400000A0600000A0800000A0A00000A0C00000A0E00000C0000000C0200000C0400000C0600000C0800000C0
310
A00000C0C00000C0E00000E0000000E0200000E0400000E0600000E0800000E0A00000E0C00000E0E00040000000400020004000400040006000400080004000A0004000C0004000E00040200000402020004020400040206000402080004020A0004020C0004020E000404000004040200040404000404060004040800040
310
40A0004040C0004040E00040600000406020004060400040606000406080004060A0004060C0004060E00040800000408020004080400040806000408080004080A0004080C0004080E00040A0000040A0200040A0400040A0600040A0800040A0A00040A0C00040A0E00040C0000040C0200040C0400040C0600040C08000
310
40C0A00040C0C00040C0E00040E0000040E0200040E0400040E0600040E0800040E0A00040E0C00040E0E00080000000800020008000400080006000800080008000A0008000C0008000E00080200000802020008020400080206000802080008020A0008020C0008020E00080400000804020008040400080406000804080
310
008040A0008040C0008040E00080600000806020008060400080606000806080008060A0008060C0008060E00080800000808020008080400080806000808080008080A0008080C0008080E00080A0000080A0200080A0400080A0600080A0800080A0A00080A0C00080A0E00080C0000080C0200080C0400080C0600080C0
310
800080C0A00080C0C00080C0E00080E0000080E0200080E0400080E0600080E0800080E0A00080E0C00080E0E000C0000000C0002000C0004000C0006000C0008000C000A000C000C000C000E000C0200000C0202000C0204000C0206000C0208000C020A000C020C000C020E000C0400000C0402000C0404000C0406000C0
310
408000C040A000C040C000C040E000C0600000C0602000C0604000C0606000C0608000C060A000C060C000C060E000C0800000C0802000C0804000C0806000C0808000C080A000C080C000C080E000C0A00000C0A02000C0A04000C0A06000C0A08000C0A0A000C0A0C000C0A0E000C0C00000C0C02000C0C04000C0C06000
310
C0C08000C0C0A000F0FBFF00A4A0A000808080000000FF0000FF000000FFFF00FF000000FF00FF00FFFF0000FFFFFF00FFFFFFFFFFFFFFFFFFFFFFFFFFFFFFFFFFFFFFFFFFFFFFFFFFFFFFFFFFFFFFFFFFFFFFFFFFFFFFFFFFFFFFFFFFFFFFFFFFFFFFFFFFFFFFFFFFFFFFFFFFFFFFFFFFFFFFFFFFFFFFFFFFFFFFFFFFFFFF
310
FFFFFFFFFFFFFFFFFFFFFFFFFFFFFFFFFFFFFFFFFFFFFFFFFFFFFFFFFFFFFFFFFFFFFFFFFFFFFFFFFFFFFFFFFFFFFFFFFFFFFFFFFFFFFFFFFFFFFFFFFFFFFFFFFFFFFFFFFFFFFFFFFFFFFFFFFFFFFFFFFFFFFFFFFFFFFFFFFFFFFFFFFFFFFFFFFFFFFFFFFFFFFFFFFFFFFFFFFFFFFFFFFFFFFFFFFFFFFFFFFFFFFFFFFFFFFF
310
FFFFFFFFFFFFFFFFFFFFFFFFFFFFFFFFFFFFFFFFFFFFFFFFFFFFFFFFFFFFFFFFFFFFFFFFFFFFFFFFFFFFFFFFFFFFFFFFFFFFFFFFFFFFFFFFFFFFFFFFFFFFFFFFFFFFFFFFFFFFFFFFFFFFFFFFFFFFFFFFFFFFFFFFFFFFFFFFFFFFFFFFFFFFFFFFFFFFFFFFFFFFFFFFFFFFFFFFFFFFFFFFFFFFFFFFFFFFFFFFFFFFFFFFFFFFFF
310
FFFFFFFFFFFFFFFFFFFFFFFFFFFFFFFFFFFFFFFFFFFFFFFFFFFFFFFFFFFFFFFFFFFFFFFFFFFFFFFFFFFFFFFFFFFFFFFFFFFFFFFF0000000000000000000000000000000000000000000000000000000000FFFFFF0000000000000000000000000000000000FFFFFFFFFFFFFFFFFFFF0000FFFFFF0000000000000000000000
310
00000000000000FFFFFFFFFFFFFFFFFFFF0000FFFF000000000000000000000000000000000000FFFFFF00000000FFFFFF0000FFFF00FFFFFFFFFFFF00FFFFFF00FFFFFFFFFF00FFFFFF0000000000FFFF0000FFFF00FFFFFFFFFFFF00FFFFFF00FFFFFFFFFF00FFFFFF00FFFF0000FFFF0000FFFF00FFFFFFFFFFFF00FFFF
310
00FFFFFFFFFFFF00FFFFFF00FFFF0000FFFF0000FFFF0000000000FFFF00000000FFFFFF00000000FFFFFF00000000FFFFFF0000FFFFFFFFFFFF00FFFFFFFFFFFFFFFFFF00FFFFFFFFFFFFFFFFFFFFFFFFFF0000FFFFFFFFFFFF00FFFFFFFFFFFFFFFFFF00FFFFFFFFFFFFFFFFFFFFFFFFFF0000FFFFFFFFFFFF00FFFFFFFF
310
FFFFFFFFFF00FFFFFFFFFFFFFFFFFFFFFFFF0000FFFFFF0000000000FFFF00000000FFFFFF0000000000000000000000000000FFFFFFFF00FFFFFFFFFFFF00FFFF00FFFFFFFFFFFF00FFFFFFFFFFFFFFFFFFFFFFFFFFFF00FFFFFFFFFFFF00FFFFFF00FFFFFFFFFF00FFFFFFFFFFFFFFFFFFFFFFFFFFFF0000000000000000
310
FFFFFF00000000000000FFFFFFFFFFFFFFFFFFFFFFFFFFFFFFFFFFFFFFFFFFFFFFFFFFFFFFFFFFFFFFFFFFFFFFFFFFFFFFFFFFFFFFFFFFFFFFFFFFFFFFFFFFFFFFFFFFFFFFFFFFFFFFFFFFFFFFFFFFFFFFFFFFFFFFFFFFFFFFFFFFFFFFFFFFFFFFFFFFFFFFFFFFFFFFFFFFFFFFFFFFFFFFFFFFFFFFFFFFFFFFFFFFFFFFFFFF
310
FFFFFFFFFFFFFFFFFFFFFFFFFFFFFFFFFFFFFFFFFFFFFFFFFFFFFFFFFFFFFFFFFFFFFFFFFFFFFFFFFFFFFFFFFFFFFFFFFFFFFFFFFFFFFFFF
102
{BLKREFS
331
26D0
102
}
  0
BLOCK_RECORD
  5
26CF
330
23EC
100
AcDbSymbolTableRecord
100
AcDbBlockTableRecord
  2
HD Logo
340
0
310
2800000020000000200000000100080000000000000400000000000000000000000000000000000000000000000080000080000000808000800000008000800080800000C0C0C000C0DCC000F0CAA6000020400000206000002080000020A0000020C0000020E00000400000004020000040400000406000004080000040A0
310
000040C0000040E00000600000006020000060400000606000006080000060A0000060C0000060E00000800000008020000080400000806000008080000080A0000080C0000080E00000A0000000A0200000A0400000A0600000A0800000A0A00000A0C00000A0E00000C0000000C0200000C0400000C0600000C0800000C0
310
A00000C0C00000C0E00000E0000000E0200000E0400000E0600000E0800000E0A00000E0C00000E0E00040000000400020004000400040006000400080004000A0004000C0004000E00040200000402020004020400040206000402080004020A0004020C0004020E000404000004040200040404000404060004040800040
310
40A0004040C0004040E00040600000406020004060400040606000406080004060A0004060C0004060E00040800000408020004080400040806000408080004080A0004080C0004080E00040A0000040A0200040A0400040A0600040A0800040A0A00040A0C00040A0E00040C0000040C0200040C0400040C0600040C08000
310
40C0A00040C0C00040C0E00040E0000040E0200040E0400040E0600040E0800040E0A00040E0C00040E0E00080000000800020008000400080006000800080008000A0008000C0008000E00080200000802020008020400080206000802080008020A0008020C0008020E00080400000804020008040400080406000804080
310
008040A0008040C0008040E00080600000806020008060400080606000806080008060A0008060C0008060E00080800000808020008080400080806000808080008080A0008080C0008080E00080A0000080A0200080A0400080A0600080A0800080A0A00080A0C00080A0E00080C0000080C0200080C0400080C0600080C0
310
800080C0A00080C0C00080C0E00080E0000080E0200080E0400080E0600080E0800080E0A00080E0C00080E0E000C0000000C0002000C0004000C0006000C0008000C000A000C000C000C000E000C0200000C0202000C0204000C0206000C0208000C020A000C020C000C020E000C0400000C0402000C0404000C0406000C0
310
408000C040A000C040C000C040E000C0600000C0602000C0604000C0606000C0608000C060A000C060C000C060E000C0800000C0802000C0804000C0806000C0808000C080A000C080C000C080E000C0A00000C0A02000C0A04000C0A06000C0A08000C0A0A000C0A0C000C0A0E000C0C00000C0C02000C0C04000C0C06000
310
C0C08000C0C0A000F0FBFF00A4A0A000808080000000FF0000FF000000FFFF00FF000000FF00FF00FFFF0000FFFFFF00FFFFFFFFFFFFFFFFFFFFFFFFFFFFFFFFFFFFFFFFFFFFFFFFFFFFFFFFFFFFFFFFFFFFFFFFFFFFFFFFFFFFFFFFFFFFFFFFFFFFFFFFFFFFFFFFFFFFFFFFFFFFFFFFFFFFFFFFFFFFFFFFFFFFFFFFFFFFFF
310
FFFFFFFFFFFFFFFFFFFFFFFFFFFFFFFFFFFFFFFFFFFFFFFFFFFFFFFFFFFFFFFFFFFFFFFFFFFFFFFFFFFFFFFFFFFFFFFFFFFFFFFFFFFFFFFFFFFFFFFFFFFFFFFFFFFFFFFFFFFFFFFFFFFFFFFFFFFFFFFFFFFFFFFFFFFFFFFFFFFFFFFFFFFFFFFFFFFFFFFFFFFFFFFFFFFFFFFFFFFFFFFFFFFFFFFFFFFFFFFFFFFFFFFFFFFFFF
310
FFFFFFFFFFFFFFFFFFFFFFFFFFFFFFFFFFFFFFFFFFFFFFFFFFFFFFFFFFFFFFFFFFFFFFFFFFFFFFFFFFFFFFFFFFFFFFFFFFFFFFFFFFFFFFFFFFFFFFFFFFFFFFFFFFFFFFFFFFFFFFFFFFFFFFFFFFFFFFFFFFFFFFFFFFFFFFFFFFFFFFFFFFFFFFFFFFFFFFFFFFFFFFFFFFFFFFFFFFFFFFFFFFFFFFFFFFFFFFFFFFFFFFFFFFFFFF
310
FFFFFFFFFFFFFFFFFFFFFFFFFFFFFFFFFFFFFFFFFFFFFFFFFFFFFFFFFFFFFFFFFFFFFFFFFFFFFFFFFFFFFFFFFFFFFFFFFFFFFFFF0000000000000000000000000000000000000000000000000000000000FFFFFF0000000000000000000000000000000000FFFFFFFFFFFFFFFFFFFF0000FFFFFF0000000000000000000000
310
00000000000000FFFFFFFFFFFFFFFFFFFF0000FFFF000000000000000000000000000000000000FFFFFF00000000FFFFFF0000FFFF00FFFFFFFFFFFF00FFFFFF00FFFFFFFFFF00FFFFFF0000000000FFFF0000FFFF00FFFFFFFFFFFF00FFFFFF00FFFFFFFFFF00FFFFFF00FFFF0000FFFF0000FFFF00FFFFFFFFFFFF00FFFF
310
00FFFFFFFFFFFF00FFFFFF00FFFF0000FFFF0000FFFF0000000000FFFF00000000FFFFFF00000000FFFFFF00000000FFFFFF0000FFFFFFFFFFFF00FFFFFFFFFFFFFFFFFF00FFFFFFFFFFFFFFFFFFFFFFFFFF0000FFFFFFFFFFFF00FFFFFFFFFFFFFFFFFF00FFFFFFFFFFFFFFFFFFFFFFFFFF0000FFFFFFFFFFFF00FFFFFFFF
310
FFFFFFFFFF00FFFFFFFFFFFFFFFFFFFFFFFF0000FFFFFF0000000000FFFF00000000FFFFFF0000000000000000000000000000FFFFFFFF00FFFFFFFFFFFF00FFFF00FFFFFFFFFFFF00FFFFFFFFFFFFFFFFFFFFFFFFFFFF00FFFFFFFFFFFF00FFFFFF00FFFFFFFFFF00FFFFFFFFFFFFFFFFFFFFFFFFFFFF0000000000000000
310
FFFFFF00000000000000FFFFFFFFFFFFFFFFFFFFFFFFFFFFFFFFFFFFFFFFFFFFFFFFFFFFFFFFFFFFFFFFFFFFFFFFFFFFFFFFFFFFFFFFFFFFFFFFFFFFFFFFFFFFFFFFFFFFFFFFFFFFFFFFFFFFFFFFFFFFFFFFFFFFFFFFFFFFFFFFFFFFFFFFFFFFFFFFFFFFFFFFFFFFFFFFFFFFFFFFFFFFFFFFFFFFFFFFFFFFFFFFFFFFFFFFFF
310
FFFFFFFFFFFFFFFFFFFFFFFFFFFFFFFFFFFFFFFFFFFFFFFFFFFFFFFFFFFFFFFFFFFFFFFFFFFFFFFFFFFFFFFFFFFFFFFFFFFFFFFFFFFFFFFF
102
{BLKREFS
331
26D6
331
26DA
102
}
  0
BLOCK_RECORD
  5
26E7
330
23EC
100
AcDbSymbolTableRecord
100
AcDbBlockTableRecord
  2
Harmonic Drive LLC
340
0
310
2800000020000000200000000100080000000000000400000000000000000000000000000000000000000000000080000080000000808000800000008000800080800000C0C0C000C0DCC000F0CAA6000020400000206000002080000020A0000020C0000020E00000400000004020000040400000406000004080000040A0
310
000040C0000040E00000600000006020000060400000606000006080000060A0000060C0000060E00000800000008020000080400000806000008080000080A0000080C0000080E00000A0000000A0200000A0400000A0600000A0800000A0A00000A0C00000A0E00000C0000000C0200000C0400000C0600000C0800000C0
310
A00000C0C00000C0E00000E0000000E0200000E0400000E0600000E0800000E0A00000E0C00000E0E00040000000400020004000400040006000400080004000A0004000C0004000E00040200000402020004020400040206000402080004020A0004020C0004020E000404000004040200040404000404060004040800040
310
40A0004040C0004040E00040600000406020004060400040606000406080004060A0004060C0004060E00040800000408020004080400040806000408080004080A0004080C0004080E00040A0000040A0200040A0400040A0600040A0800040A0A00040A0C00040A0E00040C0000040C0200040C0400040C0600040C08000
310
40C0A00040C0C00040C0E00040E0000040E0200040E0400040E0600040E0800040E0A00040E0C00040E0E00080000000800020008000400080006000800080008000A0008000C0008000E00080200000802020008020400080206000802080008020A0008020C0008020E00080400000804020008040400080406000804080
310
008040A0008040C0008040E00080600000806020008060400080606000806080008060A0008060C0008060E00080800000808020008080400080806000808080008080A0008080C0008080E00080A0000080A0200080A0400080A0600080A0800080A0A00080A0C00080A0E00080C0000080C0200080C0400080C0600080C0
310
800080C0A00080C0C00080C0E00080E0000080E0200080E0400080E0600080E0800080E0A00080E0C00080E0E000C0000000C0002000C0004000C0006000C0008000C000A000C000C000C000E000C0200000C0202000C0204000C0206000C0208000C020A000C020C000C020E000C0400000C0402000C0404000C0406000C0
310
408000C040A000C040C000C040E000C0600000C0602000C0604000C0606000C0608000C060A000C060C000C060E000C0800000C0802000C0804000C0806000C0808000C080A000C080C000C080E000C0A00000C0A02000C0A04000C0A06000C0A08000C0A0A000C0A0C000C0A0E000C0C00000C0C02000C0C04000C0C06000
310
C0C08000C0C0A000F0FBFF00A4A0A000808080000000FF0000FF000000FFFF00FF000000FF00FF00FFFF0000FFFFFF00FFFFFFFFFFFFFFFFFFFFFFFFFFFFFFFFFFFFFFFFFFFFFFFFFFFFFFFFFFFFFFFFFFFFFFFFFFFFFFFFFFFFFFFFFFFFFFFFFFFFFFFFFFFFFFFFFFFFFFFFFFFFFFFFFFFFFFFFFFFFFFFFFFFFFFFFFFFFFF
310
FFFFFFFFFFFFFFFFFFFFFFFFFFFFFFFFFFFFFFFFFFFFFFFFFFFFFFFFFFFFFFFFFFFFFFFFFFFFFFFFFFFFFFFFFFFFFFFFFFFFFFFFFFFFFFFFFFFFFFFFFFFFFFFFFFFFFFFFFFFFFFFFFFFFFFFFFFFFFFFFFFFFFFFFFFFFFFFFFFFFFFFFFFFFFFFFFFFFFFFFFFFFFFFFFFFFFFFFFFFFFFFFFFFFFFFFFFFFFFFFFFFFFFFFFFFFFF
310
FFFFFFFFFFFFFFFFFFFFFFFFFFFFFFFFFFFFFFFFFFFFFFFFFFFFFFFFFFFFFFFFFFFFFFFFFFFFFFFFFFFFFFFFFFFFFFFFFFFFFFFFFFFFFFFFFFFFFFFFFFFFFFFFFFFFFFFFFFFFFFFFFFFFFFFFFFFFFFFFFFFFFFFFFFFFFFFFFFFFFFFFFFFFFFFFFFFFFFFFFFFFFFFFFFFFFFFFFFFFFFFFFFFFFFFFFFFFFFFFFFFFFFFFFFFFFF
310
FFFFFFFFFFFFFFFFFFFFFFFFFFFFFFFFFFFFFFFFFFFFFFFFFFFFFFFFFFFFFFFFFFFFFFFFFFFFFFFFFFFFFFFFFFFFFFFFFFFFFFFFFFFFFFFFFFFFFFFFFFFFFFFFFFFFFFFFFFFFFFFFFFFFFFFFFFFFFFFFFFFFFFFFFFFFFFFFFFFFFFFF0000000000000000000000000000FFFFFFFFFFFFFFFFFFFFFFFFFFFFFFFFFFFF000000
310
0000000000000000000000FFFFFFFFFFFFFFFFFFFFFFFFFFFFFFFFFFFFFFFFFF000000000000000000FFFFFFFFFFFFFFFFFFFFFFFFFFFFFFFFFFFFFFFFFFFFFF000000000000000000FFFFFFFFFFFFFFFFFFFFFFFFFFFFFFFFFFFFFFFFFF000000000000000000000000FFFFFFFFFFFFFFFFFFFFFFFFFFFFFFFFFFFFFFFF00
310
FFFFFF00FF0000FF000000FFFFFFFFFFFFFFFFFFFFFFFFFFFFFFFFFFFFFFFFFFFFFFFFFFFFFFFFFFFFFFFFFFFFFFFFFFFFFFFFFFFFFFFFFFFFFFFFFFFFFFFFFFFFFFFFFFFFFFFFFFFFFFFFFFFFFFFFFFFFFFFFFFFFFFFFFFFFFFFFFFFFFFFFFFFFFFFFFFFFFFFFFFFFFFFFFFFFFFFFFFFFFFFFFFFFFFFFFFFFFFFFFFFFFFFF
310
FFFFFFFFFFFFFFFFFFFFFFFFFFFFFFFFFFFFFFFFFFFFFFFFFFFFFFFFFFFFFFFFFFFFFFFFFFFFFFFFFFFFFFFFFFFFFFFFFFFFFFFFFFFFFFFFFFFFFFFFFFFFFFFFFFFFFFFFFFFFFFFFFFFFFFFFFFFFFFFFFFFFFFFFFFFFFFFFFFFFFFFFFFFFFFFFFFFFFFFFFFFFFFFFFFFFFFFFFFFFFFFFFFFFFFFFFFFFFFFFFFFFFFFFFFFFFF
310
FFFFFFFFFFFFFFFFFFFFFFFFFFFFFFFFFFFFFFFFFFFFFFFFFFFFFFFFFFFFFFFFFFFFFFFFFFFFFFFFFFFFFFFFFFFFFFFFFFFFFFFFFFFFFFFFFFFFFFFFFFFFFFFFFFFFFFFFFFFFFFFFFFFFFFFFFFFFFFFFFFFFFFFFFFFFFFFFFFFFFFFFFFFFFFFFFFFFFFFFFFFFFFFFFFFFFFFFFFFFFFFFFFFFFFFFFFFFFFFFFFFFFFFFFFFFFF
310
FFFFFFFFFFFFFFFFFFFFFFFFFFFFFFFFFFFFFFFFFFFFFFFFFFFFFFFFFFFFFFFFFFFFFFFFFFFFFFFFFFFFFFFFFFFFFFFFFFFFFFFFFFFFFFFF
102
{BLKREFS
331
26EC
331
26F1
102
}
  0
BLOCK_RECORD
  5
26FA
330
23EC
100
AcDbSymbolTableRecord
100
AcDbBlockTableRecord
  2
HD LLC
340
0
310
2800000020000000200000000100080000000000000400000000000000000000000000000000000000000000000080000080000000808000800000008000800080800000C0C0C000C0DCC000F0CAA6000020400000206000002080000020A0000020C0000020E00000400000004020000040400000406000004080000040A0
310
000040C0000040E00000600000006020000060400000606000006080000060A0000060C0000060E00000800000008020000080400000806000008080000080A0000080C0000080E00000A0000000A0200000A0400000A0600000A0800000A0A00000A0C00000A0E00000C0000000C0200000C0400000C0600000C0800000C0
310
A00000C0C00000C0E00000E0000000E0200000E0400000E0600000E0800000E0A00000E0C00000E0E00040000000400020004000400040006000400080004000A0004000C0004000E00040200000402020004020400040206000402080004020A0004020C0004020E000404000004040200040404000404060004040800040
310
40A0004040C0004040E00040600000406020004060400040606000406080004060A0004060C0004060E00040800000408020004080400040806000408080004080A0004080C0004080E00040A0000040A0200040A0400040A0600040A0800040A0A00040A0C00040A0E00040C0000040C0200040C0400040C0600040C08000
310
40C0A00040C0C00040C0E00040E0000040E0200040E0400040E0600040E0800040E0A00040E0C00040E0E00080000000800020008000400080006000800080008000A0008000C0008000E00080200000802020008020400080206000802080008020A0008020C0008020E00080400000804020008040400080406000804080
310
008040A0008040C0008040E00080600000806020008060400080606000806080008060A0008060C0008060E00080800000808020008080400080806000808080008080A0008080C0008080E00080A0000080A0200080A0400080A0600080A0800080A0A00080A0C00080A0E00080C0000080C0200080C0400080C0600080C0
310
800080C0A00080C0C00080C0E00080E0000080E0200080E0400080E0600080E0800080E0A00080E0C00080E0E000C0000000C0002000C0004000C0006000C0008000C000A000C000C000C000E000C0200000C0202000C0204000C0206000C0208000C020A000C020C000C020E000C0400000C0402000C0404000C0406000C0
310
408000C040A000C040C000C040E000C0600000C0602000C0604000C0606000C0608000C060A000C060C000C060E000C0800000C0802000C0804000C0806000C0808000C080A000C080C000C080E000C0A00000C0A02000C0A04000C0A06000C0A08000C0A0A000C0A0C000C0A0E000C0C00000C0C02000C0C04000C0C06000
310
C0C08000C0C0A000F0FBFF00A4A0A000808080000000FF0000FF000000FFFF00FF000000FF00FF00FFFF0000FFFFFF00FFFFFFFFFFFFFFFFFFFFFFFFFFFFFFFFFFFFFFFFFFFFFFFFFFFFFFFFFFFFFFFFFFFFFFFFFFFFFFFFFFFFFFFFFFFFFFFFFFFFFFFFFFFFFFFFFFFFFFFFFFFFFFFFFFFFFFFFFFFFFFFFFFFFFFFFFFFFFF
310
FFFFFFFFFFFFFFFFFFFFFFFFFFFFFFFFFFFFFFFFFFFFFFFFFFFFFFFFFFFFFFFFFFFFFFFFFFFFFFFFFFFFFFFFFFFFFFFFFFFFFFFFFFFFFFFFFFFFFFFFFFFFFFFFFFFFFFFFFFFFFFFFFFFFFFFFFFFFFFFFFFFFFFFFFFFFFFFFFFFFFFFFFFFFFFFFFFFFFFFFFFFFFFFFFFFFFFFFFFFFFFFFFFFFFFFFFFFFFFFFFFFFFFFFFFFFFF
310
FFFFFFFFFFFFFFFFFFFFFFFFFFFFFFFFFFFFFFFFFFFFFFFFFFFFFFFFFFFFFFFFFFFFFFFFFFFFFFFFFFFFFFFFFFFFFFFFFFFFFFFFFFFFFFFFFFFFFFFFFFFFFFFFFFFFFFFFFFFFFFFFFFFFFFFFFFFFFFFFFFFFFFFFFFFFFFFFFFFFFFFFFFFFFFFFFFFFFFFFFFFFFFFFFFFFFFFFFFFFFFFFFFFFFFFFFFFFFFFFFFFFFFFFFFFFFF
310
FFFFFFFFFFFFFFFFFFFFFFFFFFFFFFFFFFFFFFFFFFFFFFFFFFFFFFFFFFFFFFFFFFFFFFFFFFFFFFFFFFFFFFFFFFFFFFFFFFFFFFFFFFFFFFFFFFFFFFFFFFFFFFFFFFFFFFFFFFFFFFFFFFFFFFFFFFFFFFFFFFFFFFFFFFFFFFFFFFFFFFFFFFFFFFFFFFFFFFFFFFFFFFFFFFFFFFFFFFFFFFFFFFFFFFFFFFFFFFFFFFFFFFFFFFFF00
310
000000000000000000FFFFFFFFFFFFFFFFFFFFFFFFFFFFFFFFFFFFFFFFFFFF00000000000000000000FFFFFFFFFFFFFFFFFFFFFFFFFFFFFFFFFFFFFFFFFFFF00000000000000000000FFFFFFFFFFFFFFFFFFFFFFFFFFFFFFFFFFFFFFFFFFFF00000000000000000000FFFFFFFFFFFFFFFFFFFFFFFFFFFFFFFFFFFFFFFFFFFF
310
FFFFFFFFFFFFFFFFFFFFFFFFFFFFFFFFFFFFFFFFFFFFFFFFFFFFFFFFFFFFFFFFFFFFFFFFFFFFFFFFFFFFFFFFFFFFFFFFFFFFFFFFFFFFFFFFFFFFFFFFFFFFFFFFFFFFFFFFFFFFFFFFFFFFFFFFFFFFFFFFFFFFFFFFFFFFFFFFFFFFFFFFFFFFFFFFFFFFFFFFFFFFFFFFFFFFFFFFFFFFFFFFFFFFFFFFFFFFFFFFFFFFFFFFFFFFFF
310
FFFFFFFFFFFFFFFFFFFFFFFFFFFFFFFFFFFFFFFFFFFFFFFFFFFFFFFFFFFFFFFFFFFFFFFFFFFFFFFFFFFFFFFFFFFFFFFFFFFFFFFFFFFFFFFFFFFFFFFFFFFFFFFFFFFFFFFFFFFFFFFFFFFFFFFFFFFFFFFFFFFFFFFFFFFFFFFFFFFFFFFFFFFFFFFFFFFFFFFFFFFFFFFFFFFFFFFFFFFFFFFFFFFFFFFFFFFFFFFFFFFFFFFFFFFFFF
310
FFFFFFFFFFFFFFFFFFFFFFFFFFFFFFFFFFFFFFFFFFFFFFFFFFFFFFFFFFFFFFFFFFFFFFFFFFFFFFFFFFFFFFFFFFFFFFFFFFFFFFFFFFFFFFFFFFFFFFFFFFFFFFFFFFFFFFFFFFFFFFFFFFFFFFFFFFFFFFFFFFFFFFFFFFFFFFFFFFFFFFFFFFFFFFFFFFFFFFFFFFFFFFFFFFFFFFFFFFFFFFFFFFFFFFFFFFFFFFFFFFFFFFFFFFFFFF
310
FFFFFFFFFFFFFFFFFFFFFFFFFFFFFFFFFFFFFFFFFFFFFFFFFFFFFFFFFFFFFFFFFFFFFFFFFFFFFFFFFFFFFFFFFFFFFFFFFFFFFFFFFFFFFFFF
102
{BLKREFS
331
26FF
331
2703
102
}
  0
BLOCK_RECORD
  5
2704
330
23EC
100
AcDbSymbolTableRecord
100
AcDbBlockTableRecord
  2
NTC
340
0
310
2800000020000000200000000100080000000000000400000000000000000000000000000000000000000000000080000080000000808000800000008000800080800000C0C0C000C0DCC000F0CAA6000020400000206000002080000020A0000020C0000020E00000400000004020000040400000406000004080000040A0
310
000040C0000040E00000600000006020000060400000606000006080000060A0000060C0000060E00000800000008020000080400000806000008080000080A0000080C0000080E00000A0000000A0200000A0400000A0600000A0800000A0A00000A0C00000A0E00000C0000000C0200000C0400000C0600000C0800000C0
310
A00000C0C00000C0E00000E0000000E0200000E0400000E0600000E0800000E0A00000E0C00000E0E00040000000400020004000400040006000400080004000A0004000C0004000E00040200000402020004020400040206000402080004020A0004020C0004020E000404000004040200040404000404060004040800040
310
40A0004040C0004040E00040600000406020004060400040606000406080004060A0004060C0004060E00040800000408020004080400040806000408080004080A0004080C0004080E00040A0000040A0200040A0400040A0600040A0800040A0A00040A0C00040A0E00040C0000040C0200040C0400040C0600040C08000
310
40C0A00040C0C00040C0E00040E0000040E0200040E0400040E0600040E0800040E0A00040E0C00040E0E00080000000800020008000400080006000800080008000A0008000C0008000E00080200000802020008020400080206000802080008020A0008020C0008020E00080400000804020008040400080406000804080
310
008040A0008040C0008040E00080600000806020008060400080606000806080008060A0008060C0008060E00080800000808020008080400080806000808080008080A0008080C0008080E00080A0000080A0200080A0400080A0600080A0800080A0A00080A0C00080A0E00080C0000080C0200080C0400080C0600080C0
310
800080C0A00080C0C00080C0E00080E0000080E0200080E0400080E0600080E0800080E0A00080E0C00080E0E000C0000000C0002000C0004000C0006000C0008000C000A000C000C000C000E000C0200000C0202000C0204000C0206000C0208000C020A000C020C000C020E000C0400000C0402000C0404000C0406000C0
310
408000C040A000C040C000C040E000C0600000C0602000C0604000C0606000C0608000C060A000C060C000C060E000C0800000C0802000C0804000C0806000C0808000C080A000C080C000C080E000C0A00000C0A02000C0A04000C0A06000C0A08000C0A0A000C0A0C000C0A0E000C0C00000C0C02000C0C04000C0C06000
310
C0C08000C0C0A000F0FBFF00A4A0A000808080000000FF0000FF000000FFFF00FF000000FF00FF00FFFF0000FFFFFF00FFFFFFFFFFFFFFFFFFFFFFFFFFFFFFFFFFFFFFFFFFFFFFFFFFFFFFFFFFFFFFFFFFFFFFFFFFFFFFFFFFFFFFFFFFFFFFFFFFFFFFFFFFFFFFFFFFFFFFFFFFFFFFFFFFFFFFFFFFFFFFFFFFFFFFFFFFFFFF
310
FFFFFFFFFFFFFFFFFFFFFFFFFFFFFFFFFFFFFFFFFFFFFFFFFFFFFFFFFFFFFFFFFFFFFFFFFFFFFFFFFFFFFFFFFFFFFFFFFFFFFFFFFFFFFFFFFFFFFFFFFFFFFFFFFFFFFFFFFFFFFFFFFFFFFFFFFFFFFFFFFFFFFFFFFFFFFFFFFFFFFFFFFFFFFFFFFFFFFFFFFFFFFFFFFFFFFFFFFFFFFFFFFFFFFFFFFFFFFFFFFFFFFFFFFFFFFF
310
FFFFFFFFFFFFFFFFFFFFFFFFFFFFFFFFFFFFFFFFFFFFFFFFFFFFFFFFFFFFFFFFFFFFFFFFFFFFFFFFFFFFFFFFFFFFFFFFFFFFFFFFFFFFFFFFFFFFFFFFFFFFFFFFFFFFFFFFFFFFFFFFFFFFFFFFFFFFFFFFFFFFFFFFFFFFFFFFFFFFFFFFFFFFFFFFFFFFFFFFFFFFFFFFFFFFFFFFFFFFFFFFFFFFFFFFFFFFFFFFFFFFFFFFFFFFFF
310
FFFFFFFFFFFFFFFFFFFFFFFFFFFFFFFFFFFFFFFF000000000000000000000000000000000000000000000000000000000000FFFF00FF0000000000000000FFFFFFFFFFFFFFFFFFFFFFFFFFFFFFFFFFFFFF00FFFF00FF0000000000000000FFFFFFFFFFFFFFFFFFFFFFFFFFFFFFFFFFFFFF00FFFF00FF000000000000000000
310
00000000000000000000000000FFFFFFFFFF00FFFF00FF0000000000000000000000000000000000000000000000000000FF00FFFF00FF0000000000000000000000000000000000000000000000000000FF00FFFF00FF0000000000000000000000000000000000000000000000000000FF00FFFF00FF0000000000000000
310
00000000000000000000000000000000FFFFFF00FFFF00FF0000000000FFFFFFFFFFFFFFFFFFFFFFFFFFFFFFFFFFFFFFFFFFFF00FFFF000000000000000000000000000000000000000000000000000000000000FFFFFFFFFFFFFFFFFFFFFFFFFFFFFFFFFFFFFFFFFFFFFFFFFFFFFFFFFFFFFFFFFFFFFFFFFFFFFFFFFFFFFF
310
FFFFFFFFFFFFFFFFFFFFFFFFFFFFFFFFFFFFFFFFFFFFFFFFFFFFFFFFFFFFFFFFFFFFFFFFFFFFFFFFFFFFFFFFFFFFFFFFFFFFFFFFFFFFFFFFFFFFFFFFFFFFFFFFFFFFFFFFFFFFFFFFFFFFFFFFFFFFFFFFFFFFFFFFFFFFFFFFFFFFFFFFFFFFFFFFFFFFFFFFFFFFFFFFFFFFFFFFFFFFFFFFFFFFFFFFFFFFFFFFFFFFFFFFFFFFFF
310
FFFFFFFFFFFFFFFFFFFFFFFFFFFFFFFFFFFFFFFFFFFFFFFFFFFFFFFFFFFFFFFFFFFFFFFFFFFFFFFFFFFFFFFFFFFFFFFFFFFFFFFFFFFFFFFFFFFFFFFFFFFFFFFFFFFFFFFFFFFFFFFFFFFFFFFFFFFFFFFFFFFFFFFFFFFFFFFFFFFFFFFFFFFFFFFFFFFFFFFFFFFFFFFFFFFFFFFFFFFFFFFFFFFFFFFFFFFFFFFFFFFFFFFFFFFFFF
310
FFFFFFFFFFFFFFFFFFFFFFFFFFFFFFFFFFFFFFFFFFFFFFFFFFFFFFFFFFFFFFFFFFFFFFFFFFFFFFFFFFFFFFFFFFFFFFFFFFFFFFFFFFFFFFFF
102
{BLKREFS
331
270A
331
2710
102
}
  0
ENDTAB
  0
ENDSEC
  0
SECTION
  2
BLOCKS
  0
BLOCK
  5
240A
330
2409
100
AcDbEntity
  8
0
100
AcDbBlockBegin
  2
*Model_Space
 70
     0
 10
0.0
 20
0.0
 30
0.0
  3
*Model_Space
  1

  0
ENDBLK
  5
240B
330
2409
100
AcDbEntity
  8
0
100
AcDbBlockEnd
  0
BLOCK
  5
2406
330
2405
100
AcDbEntity
 67
     1
  8
0
100
AcDbBlockBegin
  2
*Paper_Space
 70
     0
 10
0.0
 20
0.0
 30
0.0
  3
*Paper_Space
  1

  0
ENDBLK
  5
2407
330
2405
100
AcDbEntity
 67
     1
  8
0
100
AcDbBlockEnd
  0
BLOCK
  5
2424
330
2423
100
AcDbEntity
  8
0
100
AcDbBlockBegin
  2
$MODEL_SPACE
 70
     0
 10
0.0
 20
0.0
 30
0.0
  3
$MODEL_SPACE
  1

  0
ENDBLK
  5
2425
330
2423
100
AcDbEntity
  8
0
100
AcDbBlockEnd
  0
BLOCK
  5
2427
330
2426
100
AcDbEntity
  8
0
100
AcDbBlockBegin
  2
$PAPER_SPACE
 70
     0
 10
0.0
 20
0.0
 30
0.0
  3
$PAPER_SPACE
  1

  0
ENDBLK
  5
2428
330
2426
100
AcDbEntity
  8
0
100
AcDbBlockEnd
  0
BLOCK
  5
266A
330
2667
100
AcDbEntity
  8
0
 62
     7
100
AcDbBlockBegin
  2
AI9-BLK14
 70
     0
 10
0.0
 20
0.0
 30
0.0
  3
AI9-BLK14
  1

  0
SPLINE
  5
2668
330
2667
100
AcDbEntity
  8
LAYER_1
 62
     7
100
AcDbSpline
210
0.0
220
0.0
230
1.0
 70
    11
 71
     3
 72
    23
 73
    19
 74
     0
 42
0.0000000001
 43
0.0000000001
 40
0.0
 40
0.0
 40
0.0
 40
0.0
 40
1.0
 40
1.0
 40
1.0
 40
2.0
 40
2.0
 40
2.0
 40
3.0
 40
3.0
 40
3.0
 40
4.0
 40
4.0
 40
4.0
 40
5.0
 40
5.0
 40
5.0
 40
6.0
 40
6.0
 40
6.0
 40
6.0
 10
-10.90321044921874
 20
10.88107571072048
 30
0.0
 10
-10.90321044921874
 20
10.88107571072048
 30
0.0
 10
-10.90321044921874
 20
-10.88107571072048
 30
0.0
 10
-10.90321044921874
 20
-10.88107571072048
 30
0.0
 10
-10.90321044921874
 20
-10.88107571072048
 30
0.0
 10
1.752692328559025
 20
-10.88107571072048
 30
0.0
 10
1.752692328559025
 20
-10.88107571072048
 30
0.0
 10
3.280592176649305
 20
-10.88107571072048
 30
0.0
 10
10.90321044921874
 20
-10.32383151584201
 30
0.0
 10
10.90321044921874
 20
0.6792867024739583
 30
0.0
 10
10.90321044921874
 20
10.61700914171006
 30
0.0
 10
2.773129611545138
 20
10.87952541775172
 30
0.0
 10
2.691136338975693
 20
10.88090345594618
 30
0.0
 10
2.691136338975693
 20
10.88090345594618
 30
0.0
 10
-9.903099229600693
 20
10.88107571072048
 30
0.0
 10
-9.903099229600693
 20
10.88107571072048
 30
0.0
 10
-9.903099229600693
 20
10.88107571072048
 30
0.0
 10
-10.90321044921874
 20
10.88107571072048
 30
0.0
 10
-10.90321044921874
 20
10.88107571072048
 30
0.0
  0
SPLINE
  5
2669
330
2667
100
AcDbEntity
  8
LAYER_1
 62
     7
100
AcDbSpline
210
0.0
220
0.0
230
1.0
 70
    11
 71
     3
 72
    20
 73
    16
 74
     0
 42
0.0000000001
 43
0.0000000001
 40
0.0
 40
0.0
 40
0.0
 40
0.0
 40
1.0
 40
1.0
 40
1.0
 40
2.0
 40
2.0
 40
2.0
 40
3.0
 40
3.0
 40
3.0
 40
4.0
 40
4.0
 40
4.0
 40
5.0
 40
5.0
 40
5.0
 40
5.0
 10
2.672877332899305
 20
8.881197781032986
 30
0.0
 10
2.905421278211805
 20
8.874307590060762
 30
0.0
 10
8.902988009982637
 20
8.616442192925347
 30
0.0
 10
8.902988009982637
 20
0.6792867024739583
 30
0.0
 10
8.902988009982637
 20
-8.191661919487842
 30
0.0
 10
3.430109320746526
 20
-8.881197781032986
 30
0.0
 10
1.752692328559025
 20
-8.881197781032986
 30
0.0
 10
1.752692328559025
 20
-8.881197781032986
 30
0.0
 10
-7.231427680121528
 20
-8.881197781032986
 30
0.0
 10
-8.902988009982637
 20
-8.881197781032986
 30
0.0
 10
-8.902988009982637
 20
-7.174497477213541
 30
0.0
 10
-8.902988009982637
 20
7.174497477213541
 30
0.0
 10
-8.902988009982637
 20
8.881197781032986
 30
0.0
 10
-7.208690049913191
 20
8.881197781032986
 30
0.0
 10
2.672877332899305
 20
8.881197781032986
 30
0.0
 10
2.672877332899305
 20
8.881197781032986
 30
0.0
  0
ENDBLK
  5
266B
330
2667
100
AcDbEntity
  8
0
100
AcDbBlockEnd
  0
BLOCK
  5
266F
330
266C
100
AcDbEntity
  8
0
 62
     7
100
AcDbBlockBegin
  2
AI9-BLK13
 70
     0
 10
0.0
 20
0.0
 30
0.0
  3
AI9-BLK13
  1

  0
LWPOLYLINE
  5
266D
330
266C
100
AcDbEntity
  8
LAYER_1
 62
     7
100
AcDbPolyline
 90
       12
 70
     1
 43
0.0
 10
-3.792361111111107
 20
10.7376736111111
 10
-2.469444444444443
 20
10.7376736111111
 10
-2.469444444444443
 20
1.874131944444444
 10
2.469444444444443
 20
1.874131944444444
 10
2.469444444444443
 20
10.7376736111111
 10
3.792361111111107
 20
10.7376736111111
 10
3.792361111111107
 20
-10.7376736111111
 10
2.469444444444443
 20
-10.7376736111111
 10
2.469444444444443
 20
-0.6835069444444444
 10
-2.469444444444443
 20
-0.6835069444444444
 10
-2.469444444444443
 20
-10.7376736111111
 10
-3.792361111111107
 20
-10.7376736111111
  0
HATCH
  5
266E
330
266C
100
AcDbEntity
  8
LAYER_1
 62
     7
100
AcDbHatch
 10
0.0
 20
0.0
 30
0.0
210
0.0
220
0.0
230
1.0
  2
SOLID
 70
     1
 71
     0
 91
        1
 92
        3
 72
     0
 73
     1
 93
       12
 10
-3.792361111111107
 20
10.7376736111111
 10
-2.469444444444443
 20
10.7376736111111
 10
-2.469444444444443
 20
1.874131944444444
 10
2.469444444444443
 20
1.874131944444444
 10
2.469444444444443
 20
10.7376736111111
 10
3.792361111111107
 20
10.7376736111111
 10
3.792361111111107
 20
-10.7376736111111
 10
2.469444444444443
 20
-10.7376736111111
 10
2.469444444444443
 20
-0.6835069444444444
 10
-2.469444444444443
 20
-0.6835069444444444
 10
-2.469444444444443
 20
-10.7376736111111
 10
-3.792361111111107
 20
-10.7376736111111
 97
        0
 75
     2
 76
     1
 98
        1
 10
0.0
 20
0.0
  0
ENDBLK
  5
2670
330
266C
100
AcDbEntity
  8
0
100
AcDbBlockEnd
  0
BLOCK
  5
2674
330
2671
100
AcDbEntity
  8
0
 62
     7
100
AcDbBlockBegin
  2
AI9-BLK11
 70
     0
 10
0.0
 20
0.0
 30
0.0
  3
AI9-BLK11
  1

  0
SPLINE
  5
2672
330
2671
100
AcDbEntity
  8
LAYER_1
 62
     7
100
AcDbSpline
210
0.0
220
0.0
230
1.0
 70
    11
 71
     3
 72
    26
 73
    22
 74
     0
 42
0.0000000001
 43
0.0000000001
 40
0.0
 40
0.0
 40
0.0
 40
0.0
 40
1.0
 40
1.0
 40
1.0
 40
2.0
 40
2.0
 40
2.0
 40
3.0
 40
3.0
 40
3.0
 40
4.0
 40
4.0
 40
4.0
 40
5.0
 40
5.0
 40
5.0
 40
6.0
 40
6.0
 40
6.0
 40
7.0
 40
7.0
 40
7.0
 40
7.0
 10
-2.645833333333333
 20
0.9039930555555551
 30
0.0
 10
-2.645833333333333
 20
0.9039930555555551
 30
0.0
 10
-2.645833333333333
 20
8.180034722222217
 30
0.0
 10
-2.645833333333333
 20
8.180034722222217
 30
0.0
 10
-2.645833333333333
 20
8.180034722222217
 30
0.0
 10
0.465087890625
 20
8.180034722222217
 30
0.0
 10
0.465087890625
 20
8.180034722222217
 30
0.0
 10
0.9026150173611108
 20
8.180034722222217
 30
0.0
 10
1.24988064236111
 20
8.034651692708331
 30
0.0
 10
1.506884765625
 20
7.745263671874997
 30
0.0
 10
2.001600477430554
 20
7.194048394097221
 30
0.0
 10
2.248958333333332
 20
6.160519748263887
 30
0.0
 10
2.248958333333332
 20
4.643299696180553
 30
0.0
 10
2.248958333333332
 20
3.232188585069443
 30
0.0
 10
2.072569444444444
 20
2.256537543402775
 30
0.0
 10
1.720480685763888
 20
1.715657552083333
 30
0.0
 10
1.368391927083333
 20
1.174088541666665
 30
0.0
 10
0.8929687499999998
 20
0.9039930555555551
 30
0.0
 10
0.2942111545138888
 20
0.9039930555555551
 30
0.0
 10
0.2942111545138888
 20
0.9039930555555551
 30
0.0
 10
-2.645833333333333
 20
0.9039930555555551
 30
0.0
 10
-2.645833333333333
 20
0.9039930555555551
 30
0.0
  0
SPLINE
  5
2673
330
2671
100
AcDbEntity
  8
LAYER_1
 62
     7
100
AcDbSpline
210
0.0
220
0.0
230
1.0
 70
    11
 71
     3
 72
    68
 73
    64
 74
     0
 42
0.0000000001
 43
0.0000000001
 40
0.0
 40
0.0
 40
0.0
 40
0.0
 40
1.0
 40
1.0
 40
1.0
 40
2.0
 40
2.0
 40
2.0
 40
3.0
 40
3.0
 40
3.0
 40
4.0
 40
4.0
 40
4.0
 40
5.0
 40
5.0
 40
5.0
 40
6.0
 40
6.0
 40
6.0
 40
7.0
 40
7.0
 40
7.0
 40
8.0
 40
8.0
 40
8.0
 40
9.0
 40
9.0
 40
9.0
 40
10.0
 40
10.0
 40
10.0
 40
11.0
 40
11.0
 40
11.0
 40
12.0
 40
12.0
 40
12.0
 40
13.0
 40
13.0
 40
13.0
 40
14.0
 40
14.0
 40
14.0
 40
15.0
 40
15.0
 40
15.0
 40
16.0
 40
16.0
 40
16.0
 40
17.0
 40
17.0
 40
17.0
 40
18.0
 40
18.0
 40
18.0
 40
19.0
 40
19.0
 40
19.0
 40
20.0
 40
20.0
 40
20.0
 40
21.0
 40
21.0
 40
21.0
 40
21.0
 10
-3.968749999999998
 20
-10.7376736111111
 30
0.0
 10
-3.968749999999998
 20
-10.7376736111111
 30
0.0
 10
-2.645833333333333
 20
-10.7376736111111
 30
0.0
 10
-2.645833333333333
 20
-10.7376736111111
 30
0.0
 10
-2.645833333333333
 20
-10.7376736111111
 30
0.0
 10
-2.645833333333333
 20
-1.521354166666665
 30
0.0
 10
-2.645833333333333
 20
-1.521354166666665
 30
0.0
 10
-2.645833333333333
 20
-1.521354166666665
 30
0.0
 10
0.2390896267361111
 20
-1.521354166666665
 30
0.0
 10
0.2390896267361111
 20
-1.521354166666665
 30
0.0
 10
0.7599880642361111
 20
-1.521354166666665
 30
0.0
 10
1.143771701388887
 20
-1.65295681423611
 30
0.0
 10
1.390440538194444
 20
-1.916162109374999
 30
0.0
 10
1.816254340277773
 20
-2.39434136284722
 30
0.0
 10
2.04363064236111
 20
-3.335541449652775
 30
0.0
 10
2.072569444444444
 20
-4.739762369791666
 30
0.0
 10
2.072569444444444
 20
-4.739762369791666
 30
0.0
 10
2.160763888888888
 20
-8.324039713541665
 30
0.0
 10
2.160763888888888
 20
-8.324039713541665
 30
0.0
 10
2.18005642361111
 20
-9.163264973958332
 30
0.0
 10
2.202794053819443
 20
-9.728949652777775
 30
0.0
 10
2.227598741319444
 20
-10.02109374999998
 30
0.0
 10
2.252403428819443
 20
-10.31392686631944
 30
0.0
 10
2.28892144097222
 20
-10.55301649305555
 30
0.0
 10
2.33853081597222
 20
-10.7376736111111
 30
0.0
 10
2.33853081597222
 20
-10.7376736111111
 30
0.0
 10
3.968749999999998
 20
-10.7376736111111
 30
0.0
 10
3.968749999999998
 20
-10.7376736111111
 30
0.0
 10
3.968749999999998
 20
-10.7376736111111
 30
0.0
 10
3.968749999999998
 20
-10.25260416666666
 30
0.0
 10
3.968749999999998
 20
-10.25260416666666
 30
0.0
 10
3.766867404513888
 20
-10.05830078125
 30
0.0
 10
3.625618489583333
 20
-9.621462673611112
 30
0.0
 10
3.545692274305555
 20
-8.942089843749997
 30
0.0
 10
3.49470486111111
 20
-8.543836805555555
 30
0.0
 10
3.459564887152775
 20
-7.937499999999999
 30
0.0
 10
3.439583333333333
 20
-7.121701388888887
 30
0.0
 10
3.439583333333333
 20
-7.121701388888887
 30
0.0
 10
3.395486111111106
 20
-4.232644314236106
 30
0.0
 10
3.395486111111106
 20
-4.232644314236106
 30
0.0
 10
3.375504557291666
 20
-2.981385633680555
 30
0.0
 10
3.26870659722222
 20
-2.077392578125
 30
0.0
 10
3.075781249999999
 20
-1.522043185763888
 30
0.0
 10
2.882166883680555
 20
-0.9666937934027776
 30
0.0
 10
2.592089843749999
 20
-0.5188313802083333
 30
0.0
 10
2.204861111111106
 20
-0.1770779079861111
 30
0.0
 10
2.63618706597222
 20
0.3197048611111111
 30
0.0
 10
2.971739366319443
 20
0.9770290798611107
 30
0.0
 10
3.211518012152775
 20
1.79558376736111
 30
0.0
 10
3.451296657986107
 20
2.613449435763888
 30
0.0
 10
3.571874999999999
 20
3.66558159722222
 30
0.0
 10
3.571874999999999
 20
4.951291232638888
 30
0.0
 10
3.571874999999999
 20
7.415912543402777
 30
0.0
 10
3.124701605902775
 20
9.106076388888887
 30
0.0
 10
2.231043836805555
 20
10.02178276909722
 30
0.0
 10
1.759754774305553
 20
10.498583984375
 30
0.0
 10
1.163753255208332
 20
10.7376736111111
 30
0.0
 10
0.443039279513889
 20
10.7376736111111
 30
0.0
 10
0.443039279513889
 20
10.7376736111111
 30
0.0
 10
-3.968749999999998
 20
10.7376736111111
 30
0.0
 10
-3.968749999999998
 20
10.7376736111111
 30
0.0
 10
-3.968749999999998
 20
10.7376736111111
 30
0.0
 10
-3.968749999999998
 20
-10.7376736111111
 30
0.0
 10
-3.968749999999998
 20
-10.7376736111111
 30
0.0
  0
ENDBLK
  5
2675
330
2671
100
AcDbEntity
  8
0
100
AcDbBlockEnd
  0
BLOCK
  5
2678
330
2676
100
AcDbEntity
  8
0
 62
     7
100
AcDbBlockBegin
  2
AI9-BLK10
 70
     0
 10
0.0
 20
0.0
 30
0.0
  3
AI9-BLK10
  1

  0
SPLINE
  5
2677
330
2676
100
AcDbEntity
  8
LAYER_1
 62
     7
100
AcDbSpline
210
0.0
220
0.0
230
1.0
 70
    11
 71
     3
 72
    59
 73
    55
 74
     0
 42
0.0000000001
 43
0.0000000001
 40
0.0
 40
0.0
 40
0.0
 40
0.0
 40
1.0
 40
1.0
 40
1.0
 40
2.0
 40
2.0
 40
2.0
 40
3.0
 40
3.0
 40
3.0
 40
4.0
 40
4.0
 40
4.0
 40
5.0
 40
5.0
 40
5.0
 40
6.0
 40
6.0
 40
6.0
 40
7.0
 40
7.0
 40
7.0
 40
8.0
 40
8.0
 40
8.0
 40
9.0
 40
9.0
 40
9.0
 40
10.0
 40
10.0
 40
10.0
 40
11.0
 40
11.0
 40
11.0
 40
12.0
 40
12.0
 40
12.0
 40
13.0
 40
13.0
 40
13.0
 40
14.0
 40
14.0
 40
14.0
 40
15.0
 40
15.0
 40
15.0
 40
16.0
 40
16.0
 40
16.0
 40
17.0
 40
17.0
 40
17.0
 40
18.0
 40
18.0
 40
18.0
 40
18.0
 10
-4.652256944444443
 20
10.7376736111111
 30
0.0
 10
-4.652256944444443
 20
10.7376736111111
 30
0.0
 10
-2.798795572916666
 20
10.7376736111111
 30
0.0
 10
-2.798795572916666
 20
10.7376736111111
 30
0.0
 10
-2.798795572916666
 20
10.7376736111111
 30
0.0
 10
0.0
 20
-7.419357638888887
 30
0.0
 10
0.0
 20
-7.419357638888887
 30
0.0
 10
0.0
 20
-7.419357638888887
 30
0.0
 10
2.793283420138888
 20
10.7376736111111
 30
0.0
 10
2.793283420138888
 20
10.7376736111111
 30
0.0
 10
2.793283420138888
 20
10.7376736111111
 30
0.0
 10
4.652256944444443
 20
10.7376736111111
 30
0.0
 10
4.652256944444443
 20
10.7376736111111
 30
0.0
 10
4.652256944444443
 20
10.7376736111111
 30
0.0
 10
4.652256944444443
 20
-10.7376736111111
 30
0.0
 10
4.652256944444443
 20
-10.7376736111111
 30
0.0
 10
4.652256944444443
 20
-10.7376736111111
 30
0.0
 10
3.41753472222222
 20
-10.7376736111111
 30
0.0
 10
3.41753472222222
 20
-10.7376736111111
 30
0.0
 10
3.41753472222222
 20
-10.7376736111111
 30
0.0
 10
3.41753472222222
 20
1.936832682291665
 30
0.0
 10
3.41753472222222
 20
1.936832682291665
 30
0.0
 10
3.41753472222222
 20
2.375048828124999
 30
0.0
 10
3.424424913194443
 20
3.101274956597221
 30
0.0
 10
3.439583333333333
 20
4.11482204861111
 30
0.0
 10
3.454052734374998
 20
5.128369140624998
 30
0.0
 10
3.461631944444443
 20
6.214952256944441
 30
0.0
 10
3.461631944444443
 20
7.375260416666666
 30
0.0
 10
3.461631944444443
 20
7.375260416666666
 30
0.0
 10
0.6538791232638889
 20
-10.7376736111111
 30
0.0
 10
0.6538791232638889
 20
-10.7376736111111
 30
0.0
 10
0.6538791232638889
 20
-10.7376736111111
 30
0.0
 10
-0.6628363715277778
 20
-10.7376736111111
 30
0.0
 10
-0.6628363715277778
 20
-10.7376736111111
 30
0.0
 10
-0.6628363715277778
 20
-10.7376736111111
 30
0.0
 10
-3.461631944444443
 20
7.375260416666666
 30
0.0
 10
-3.461631944444443
 20
7.375260416666666
 30
0.0
 10
-3.461631944444443
 20
7.375260416666666
 30
0.0
 10
-3.461631944444443
 20
6.717247178819441
 30
0.0
 10
-3.461631944444443
 20
6.717247178819441
 30
0.0
 10
-3.461631944444443
 20
6.190836588541666
 30
0.0
 10
-3.45474175347222
 20
5.389507378472222
 30
0.0
 10
-3.439583333333333
 20
4.312570529513888
 30
0.0
 10
-3.425113932291666
 20
3.235633680555555
 30
0.0
 10
-3.41753472222222
 20
2.44395073784722
 30
0.0
 10
-3.41753472222222
 20
1.936832682291665
 30
0.0
 10
-3.41753472222222
 20
1.936832682291665
 30
0.0
 10
-3.41753472222222
 20
-10.7376736111111
 30
0.0
 10
-3.41753472222222
 20
-10.7376736111111
 30
0.0
 10
-3.41753472222222
 20
-10.7376736111111
 30
0.0
 10
-4.652256944444443
 20
-10.7376736111111
 30
0.0
 10
-4.652256944444443
 20
-10.7376736111111
 30
0.0
 10
-4.652256944444443
 20
-10.7376736111111
 30
0.0
 10
-4.652256944444443
 20
10.7376736111111
 30
0.0
 10
-4.652256944444443
 20
10.7376736111111
 30
0.0
  0
ENDBLK
  5
2679
330
2676
100
AcDbEntity
  8
0
100
AcDbBlockEnd
  0
BLOCK
  5
267D
330
267A
100
AcDbEntity
  8
0
 62
     7
100
AcDbBlockBegin
  2
AI9-BLK9
 70
     0
 10
0.0
 20
0.0
 30
0.0
  3
AI9-BLK9
  1

  0
SPLINE
  5
267B
330
267A
100
AcDbEntity
  8
LAYER_1
 62
     7
100
AcDbSpline
210
0.0
220
0.0
230
1.0
 70
    11
 71
     3
 72
    29
 73
    25
 74
     0
 42
0.0000000001
 43
0.0000000001
 40
0.0
 40
0.0
 40
0.0
 40
0.0
 40
1.0
 40
1.0
 40
1.0
 40
2.0
 40
2.0
 40
2.0
 40
3.0
 40
3.0
 40
3.0
 40
4.0
 40
4.0
 40
4.0
 40
5.0
 40
5.0
 40
5.0
 40
6.0
 40
6.0
 40
6.0
 40
7.0
 40
7.0
 40
7.0
 40
8.0
 40
8.0
 40
8.0
 40
8.0
 10
0.0668348524305556
 20
-8.753298611111111
 30
0.0
 10
-0.9067491319444444
 20
-8.753298611111111
 30
0.0
 10
-1.60954861111111
 20
-7.936810980902778
 30
0.0
 10
-2.041563585069444
 20
-6.30383572048611
 30
0.0
 10
-2.474267578124999
 20
-4.670860460069443
 30
0.0
 10
-2.689930555555555
 20
-2.664436848958333
 30
0.0
 10
-2.689930555555555
 20
-0.28525390625
 30
0.0
 10
-2.689930555555555
 20
2.68855251736111
 30
0.0
 10
-2.439127604166666
 20
4.938199869791666
 30
0.0
 10
-1.937521701388888
 20
6.464377170138886
 30
0.0
 10
-1.43591579861111
 20
7.989865451388887
 30
0.0
 10
-0.7827256944444444
 20
8.753298611111111
 30
0.0
 10
0.0220486111111111
 20
8.753298611111111
 30
0.0
 10
0.8468044704861108
 20
8.753298611111111
 30
0.0
 10
1.49792751736111
 20
7.982975260416663
 30
0.0
 10
1.974728732638888
 20
6.442328559027776
 30
0.0
 10
2.451529947916665
 20
4.901681857638886
 30
0.0
 10
2.689930555555555
 20
2.868386501736111
 30
0.0
 10
2.689930555555555
 20
0.3438205295138888
 30
0.0
 10
2.689930555555555
 20
-2.045697699652774
 30
0.0
 10
2.483224826388884
 20
-4.15891927083333
 30
0.0
 10
2.071191406249999
 20
-5.996533203124998
 30
0.0
 10
1.65915798611111
 20
-7.834836154513887
 30
0.0
 10
0.9908094618055557
 20
-8.753298611111111
 30
0.0
 10
0.0668348524305556
 20
-8.753298611111111
 30
0.0
  0
SPLINE
  5
267C
330
267A
100
AcDbEntity
  8
LAYER_1
 62
     7
100
AcDbSpline
210
0.0
220
0.0
230
1.0
 70
    11
 71
     3
 72
    29
 73
    25
 74
     0
 42
0.0000000001
 43
0.0000000001
 40
0.0
 40
0.0
 40
0.0
 40
0.0
 40
1.0
 40
1.0
 40
1.0
 40
2.0
 40
2.0
 40
2.0
 40
3.0
 40
3.0
 40
3.0
 40
4.0
 40
4.0
 40
4.0
 40
5.0
 40
5.0
 40
5.0
 40
6.0
 40
6.0
 40
6.0
 40
7.0
 40
7.0
 40
7.0
 40
8.0
 40
8.0
 40
8.0
 40
8.0
 10
-0.0289388020833333
 20
11.35503472222222
 30
0.0
 10
-1.317404513888887
 20
11.35503472222222
 30
0.0
 10
-2.28892144097222
 20
10.02798394097222
 30
0.0
 10
-2.94280056423611
 20
7.374571397569441
 30
0.0
 10
-3.450607638888888
 20
5.30613606770833
 30
0.0
 10
-3.704166666666666
 20
2.81877712673611
 30
0.0
 10
-3.704166666666666
 20
-0.0881944444444445
 30
0.0
 10
-3.704166666666666
 20
-3.307291666666666
 30
0.0
 10
-3.406510416666666
 20
-5.97035047743055
 30
0.0
 10
-2.811197916666666
 20
-8.077370876736106
 30
0.0
 10
-2.147672526041664
 20
-10.26293945312499
 30
0.0
 10
-1.229899088541666
 20
-11.35503472222222
 30
0.0
 10
-0.0585666232638889
 20
-11.35503472222222
 30
0.0
 10
1.20027126736111
 20
-11.35503472222222
 30
0.0
 10
2.166276041666665
 20
-10.10653211805555
 30
0.0
 10
2.840136718749998
 20
-7.609526909722221
 30
0.0
 10
3.416156684027776
 20
-5.483213975694441
 30
0.0
 10
3.704166666666666
 20
-2.814643012152775
 30
0.0
 10
3.704166666666666
 20
0.3948079427083333
 30
0.0
 10
3.704166666666666
 20
3.360346137152776
 30
0.0
 10
3.449918619791666
 20
5.793961588541666
 30
0.0
 10
2.94280056423611
 20
7.696343315972222
 30
0.0
 10
2.298567708333333
 20
10.13547092013888
 30
0.0
 10
1.307758246527777
 20
11.35503472222222
 30
0.0
 10
-0.0289388020833333
 20
11.35503472222222
 30
0.0
  0
ENDBLK
  5
267E
330
267A
100
AcDbEntity
  8
0
100
AcDbBlockEnd
  0
BLOCK
  5
2682
330
267F
100
AcDbEntity
  8
0
 62
     7
100
AcDbBlockBegin
  2
AI9-BLK8
 70
     0
 10
0.0
 20
0.0
 30
0.0
  3
AI9-BLK8
  1

  0
LWPOLYLINE
  5
2680
330
267F
100
AcDbEntity
  8
LAYER_1
 62
     7
100
AcDbPolyline
 90
       10
 70
     1
 43
0.0
 10
-3.792361111111107
 20
10.7376736111111
 10
-2.268939887152773
 20
10.7376736111111
 10
2.557638888888888
 20
-6.505718315972222
 10
2.557638888888888
 20
10.7376736111111
 10
3.792361111111107
 20
10.7376736111111
 10
3.792361111111107
 20
-10.7376736111111
 10
2.32612847222222
 20
-10.7376736111111
 10
-2.557638888888888
 20
6.549815538194441
 10
-2.557638888888888
 20
-10.7376736111111
 10
-3.792361111111107
 20
-10.7376736111111
  0
HATCH
  5
2681
330
267F
100
AcDbEntity
  8
LAYER_1
 62
     7
100
AcDbHatch
 10
0.0
 20
0.0
 30
0.0
210
0.0
220
0.0
230
1.0
  2
SOLID
 70
     1
 71
     0
 91
        1
 92
        3
 72
     0
 73
     1
 93
       10
 10
-3.792361111111107
 20
10.7376736111111
 10
-2.268939887152773
 20
10.7376736111111
 10
2.557638888888888
 20
-6.505718315972222
 10
2.557638888888888
 20
10.7376736111111
 10
3.792361111111107
 20
10.7376736111111
 10
3.792361111111107
 20
-10.7376736111111
 10
2.32612847222222
 20
-10.7376736111111
 10
-2.557638888888888
 20
6.549815538194441
 10
-2.557638888888888
 20
-10.7376736111111
 10
-3.792361111111107
 20
-10.7376736111111
 97
        0
 75
     2
 76
     1
 98
        1
 10
0.0
 20
0.0
  0
ENDBLK
  5
2683
330
267F
100
AcDbEntity
  8
0
100
AcDbBlockEnd
  0
BLOCK
  5
2687
330
2684
100
AcDbEntity
  8
0
 62
     7
100
AcDbBlockBegin
  2
AI9-BLK7
 70
     0
 10
0.0
 20
0.0
 30
0.0
  3
AI9-BLK7
  1

  0
LWPOLYLINE
  5
2685
330
2684
100
AcDbEntity
  8
LAYER_1
 62
     7
100
AcDbPolyline
 90
        4
 70
     1
 43
0.0
 10
-0.6614583333333333
 20
10.7376736111111
 10
0.6614583333333333
 20
10.7376736111111
 10
0.6614583333333333
 20
-10.7376736111111
 10
-0.6614583333333333
 20
-10.7376736111111
  0
HATCH
  5
2686
330
2684
100
AcDbEntity
  8
LAYER_1
 62
     7
100
AcDbHatch
 10
0.0
 20
0.0
 30
0.0
210
0.0
220
0.0
230
1.0
  2
SOLID
 70
     1
 71
     0
 91
        1
 92
        3
 72
     0
 73
     1
 93
        4
 10
-0.6614583333333333
 20
10.7376736111111
 10
0.6614583333333333
 20
10.7376736111111
 10
0.6614583333333333
 20
-10.7376736111111
 10
-0.6614583333333333
 20
-10.7376736111111
 97
        0
 75
     2
 76
     1
 98
        1
 10
0.0
 20
0.0
  0
ENDBLK
  5
2688
330
2684
100
AcDbEntity
  8
0
100
AcDbBlockEnd
  0
BLOCK
  5
268B
330
2689
100
AcDbEntity
  8
0
 62
     7
100
AcDbBlockBegin
  2
AI9-BLK6
 70
     0
 10
0.0
 20
0.0
 30
0.0
  3
AI9-BLK6
  1

  0
SPLINE
  5
268A
330
2689
100
AcDbEntity
  8
LAYER_1
 62
     7
100
AcDbSpline
210
0.0
220
0.0
230
1.0
 70
    11
 71
     3
 72
    59
 73
    55
 74
     0
 42
0.0000000001
 43
0.0000000001
 40
0.0
 40
0.0
 40
0.0
 40
0.0
 40
1.0
 40
1.0
 40
1.0
 40
2.0
 40
2.0
 40
2.0
 40
3.0
 40
3.0
 40
3.0
 40
4.0
 40
4.0
 40
4.0
 40
5.0
 40
5.0
 40
5.0
 40
6.0
 40
6.0
 40
6.0
 40
7.0
 40
7.0
 40
7.0
 40
8.0
 40
8.0
 40
8.0
 40
9.0
 40
9.0
 40
9.0
 40
10.0
 40
10.0
 40
10.0
 40
11.0
 40
11.0
 40
11.0
 40
12.0
 40
12.0
 40
12.0
 40
13.0
 40
13.0
 40
13.0
 40
14.0
 40
14.0
 40
14.0
 40
15.0
 40
15.0
 40
15.0
 40
16.0
 40
16.0
 40
16.0
 40
17.0
 40
17.0
 40
17.0
 40
18.0
 40
18.0
 40
18.0
 40
18.0
 10
3.062689887152775
 20
9.168088107638887
 30
0.0
 10
3.735172526041666
 20
7.739062499999997
 30
0.0
 10
4.110687934027776
 20
6.116422526041666
 30
0.0
 10
4.189236111111108
 20
4.299479166666666
 30
0.0
 10
4.189236111111108
 20
4.299479166666666
 30
0.0
 10
2.866319444444443
 20
4.299479166666666
 30
0.0
 10
2.866319444444443
 20
4.299479166666666
 30
0.0
 10
2.720936414930555
 20
5.667871093749997
 30
0.0
 10
2.435682508680555
 20
6.752387152777776
 30
0.0
 10
2.009868706597218
 20
7.553027343749997
 30
0.0
 10
1.584054904513888
 20
8.352978515624997
 30
0.0
 10
0.9839192708333332
 20
8.753298611111111
 30
0.0
 10
0.2101508246527778
 20
8.753298611111111
 30
0.0
 10
-0.7386284722222222
 20
8.753298611111111
 30
0.0
 10
-1.503439670138888
 20
8.010536024305555
 30
0.0
 10
-2.083593749999999
 20
6.526388888888886
 30
0.0
 10
-2.664436848958333
 20
5.042241753472221
 30
0.0
 10
-2.954513888888888
 20
2.767100694444443
 30
0.0
 10
-2.954513888888888
 20
-0.2990342881944444
 30
0.0
 10
-2.954513888888888
 20
-2.811197916666666
 30
0.0
 10
-2.693375651041666
 20
-4.847938368055555
 30
0.0
 10
-2.17041015625
 20
-6.409944661458332
 30
0.0
 10
-1.648133680555553
 20
-7.972639973958332
 30
0.0
 10
-0.8640299479166666
 20
-8.753298611111111
 30
0.0
 10
0.1812120225694444
 20
-8.753298611111111
 30
0.0
 10
1.138948567708333
 20
-8.753298611111111
 30
0.0
 10
1.865174696180553
 20
-7.927853732638887
 30
0.0
 10
2.359201388888884
 20
-6.275585937499998
 30
0.0
 10
2.62998589409722
 20
-5.406043836805555
 30
0.0
 10
2.828423394097221
 20
-4.262272135416666
 30
0.0
 10
2.954513888888888
 20
-2.844270833333331
 30
0.0
 10
2.954513888888888
 20
-2.844270833333331
 30
0.0
 10
4.277430555555555
 20
-2.844270833333331
 30
0.0
 10
4.277430555555555
 20
-2.844270833333331
 30
0.0
 10
4.169943576388888
 20
-5.109765624999996
 30
0.0
 10
3.795117187499998
 20
-7.009391276041665
 30
0.0
 10
3.151573350694443
 20
-8.542458767361106
 30
0.0
 10
2.381249999999999
 20
-10.38834092881943
 30
0.0
 10
1.347721354166665
 20
-11.3109375
 30
0.0
 10
0.0509874131944445
 20
-11.3109375
 30
0.0
 10
-1.07004665798611
 20
-11.3109375
 30
0.0
 10
-2.010557725694444
 20
-10.55577256944443
 30
0.0
 10
-2.771234809027776
 20
-9.04475368923611
 30
0.0
 10
-3.775824652777775
 20
-7.046598307291666
 30
0.0
 10
-4.277430555555555
 20
-3.961170789930555
 30
0.0
 10
-4.277430555555555
 20
0.2115288628472222
 30
0.0
 10
-4.277430555555555
 20
3.379638671874998
 30
0.0
 10
-3.902604166666666
 20
5.977929687499997
 30
0.0
 10
-3.151573350694443
 20
8.005712890624996
 30
0.0
 10
-2.333018663194443
 20
10.20919596354165
 30
0.0
 10
-1.20647243923611
 20
11.3109375
 30
0.0
 10
0.2266872829861111
 20
11.3109375
 30
0.0
 10
1.444873046875
 20
11.3109375
 30
0.0
 10
2.390207248263884
 20
10.59642469618055
 30
0.0
 10
3.062689887152775
 20
9.168088107638887
 30
0.0
  0
ENDBLK
  5
268C
330
2689
100
AcDbEntity
  8
0
100
AcDbBlockEnd
  0
BLOCK
  5
2690
330
268D
100
AcDbEntity
  8
0
 62
     7
100
AcDbBlockBegin
  2
AI9-BLK5
 70
     0
 10
0.0
 20
0.0
 30
0.0
  3
AI9-BLK5
  1

  0
SPLINE
  5
268E
330
268D
100
AcDbEntity
  8
LAYER_1
 62
     7
100
AcDbSpline
210
0.0
220
0.0
230
1.0
 70
    11
 71
     3
 72
    32
 73
    28
 74
     0
 42
0.0000000001
 43
0.0000000001
 40
0.0
 40
0.0
 40
0.0
 40
0.0
 40
1.0
 40
1.0
 40
1.0
 40
2.0
 40
2.0
 40
2.0
 40
3.0
 40
3.0
 40
3.0
 40
4.0
 40
4.0
 40
4.0
 40
5.0
 40
5.0
 40
5.0
 40
6.0
 40
6.0
 40
6.0
 40
7.0
 40
7.0
 40
7.0
 40
8.0
 40
8.0
 40
8.0
 40
9.0
 40
9.0
 40
9.0
 40
9.0
 10
-2.62378472222222
 20
-8.268229166666666
 30
0.0
 10
-2.62378472222222
 20
-8.268229166666666
 30
0.0
 10
-2.62378472222222
 20
8.180034722222217
 30
0.0
 10
-2.62378472222222
 20
8.180034722222217
 30
0.0
 10
-2.62378472222222
 20
8.180034722222217
 30
0.0
 10
-0.3376193576388888
 20
8.180034722222217
 30
0.0
 10
-0.3376193576388888
 20
8.180034722222217
 30
0.0
 10
0.6972873263888888
 20
8.180034722222217
 30
0.0
 10
1.449007161458333
 20
7.445540364583332
 30
0.0
 10
1.918918185763885
 20
5.977929687499997
 30
0.0
 10
2.388829210069443
 20
4.510319010416666
 30
0.0
 10
2.62378472222222
 20
2.449462890624999
 30
0.0
 10
2.62378472222222
 20
-0.204638671875
 30
0.0
 10
2.62378472222222
 20
-0.8950358072916666
 30
0.0
 10
2.590022786458332
 20
-1.643310546874999
 30
0.0
 10
2.523187934027773
 20
-2.45015190972222
 30
0.0
 10
2.408121744791666
 20
-3.80200737847222
 30
0.0
 10
2.226220703124999
 20
-4.909950086805555
 30
0.0
 10
1.976795789930553
 20
-5.774669053819441
 30
0.0
 10
1.659847005208333
 20
-6.853672960069442
 30
0.0
 10
1.252636718749998
 20
-7.583344184027778
 30
0.0
 10
0.7544759114583333
 20
-7.962304687499997
 30
0.0
 10
0.4664659288194444
 20
-8.166254340277777
 30
0.0
 10
0.1074869791666666
 20
-8.268229166666666
 30
0.0
 10
-0.3231499565972222
 20
-8.268229166666666
 30
0.0
 10
-0.3231499565972222
 20
-8.268229166666666
 30
0.0
 10
-2.62378472222222
 20
-8.268229166666666
 30
0.0
 10
-2.62378472222222
 20
-8.268229166666666
 30
0.0
  0
SPLINE
  5
268F
330
268D
100
AcDbEntity
  8
LAYER_1
 62
     7
100
AcDbSpline
210
0.0
220
0.0
230
1.0
 70
    11
 71
     3
 72
    26
 73
    22
 74
     0
 42
0.0000000001
 43
0.0000000001
 40
0.0
 40
0.0
 40
0.0
 40
0.0
 40
1.0
 40
1.0
 40
1.0
 40
2.0
 40
2.0
 40
2.0
 40
3.0
 40
3.0
 40
3.0
 40
4.0
 40
4.0
 40
4.0
 40
5.0
 40
5.0
 40
5.0
 40
6.0
 40
6.0
 40
6.0
 40
7.0
 40
7.0
 40
7.0
 40
7.0
 10
-3.946701388888888
 20
-10.7376736111111
 30
0.0
 10
-3.946701388888888
 20
-10.7376736111111
 30
0.0
 10
-0.0943956163194444
 20
-10.7376736111111
 30
0.0
 10
-0.0943956163194444
 20
-10.7376736111111
 30
0.0
 10
1.546847873263885
 20
-10.7376736111111
 30
0.0
 10
2.705777994791666
 20
-9.11021050347222
 30
0.0
 10
3.381705729166666
 20
-5.854595269097222
 30
0.0
 10
3.757910156249999
 20
-4.01284722222222
 30
0.0
 10
3.946701388888888
 20
-1.951991102430555
 30
0.0
 10
3.946701388888888
 20
0.328662109375
 30
0.0
 10
3.946701388888888
 20
3.281797960069443
 30
0.0
 10
3.622862413194443
 20
5.703700086805552
 30
0.0
 10
2.976562499999998
 20
7.594368489583332
 30
0.0
 10
2.25171440972222
 20
9.689675564236106
 30
0.0
 10
1.233344184027777
 20
10.7376736111111
 30
0.0
 10
-0.0799262152777778
 20
10.7376736111111
 30
0.0
 10
-0.0799262152777778
 20
10.7376736111111
 30
0.0
 10
-3.946701388888888
 20
10.7376736111111
 30
0.0
 10
-3.946701388888888
 20
10.7376736111111
 30
0.0
 10
-3.946701388888888
 20
10.7376736111111
 30
0.0
 10
-3.946701388888888
 20
-10.7376736111111
 30
0.0
 10
-3.946701388888888
 20
-10.7376736111111
 30
0.0
  0
ENDBLK
  5
2691
330
268D
100
AcDbEntity
  8
0
100
AcDbBlockEnd
  0
BLOCK
  5
2695
330
2692
100
AcDbEntity
  8
0
 62
     7
100
AcDbBlockBegin
  2
AI9-BLK4
 70
     0
 10
0.0
 20
0.0
 30
0.0
  3
AI9-BLK4
  1

  0
SPLINE
  5
2693
330
2692
100
AcDbEntity
  8
LAYER_1
 62
     7
100
AcDbSpline
210
0.0
220
0.0
230
1.0
 70
    11
 71
     3
 72
    26
 73
    22
 74
     0
 42
0.0000000001
 43
0.0000000001
 40
0.0
 40
0.0
 40
0.0
 40
0.0
 40
1.0
 40
1.0
 40
1.0
 40
2.0
 40
2.0
 40
2.0
 40
3.0
 40
3.0
 40
3.0
 40
4.0
 40
4.0
 40
4.0
 40
5.0
 40
5.0
 40
5.0
 40
6.0
 40
6.0
 40
6.0
 40
7.0
 40
7.0
 40
7.0
 40
7.0
 10
-2.645833333333333
 20
0.9039930555555551
 30
0.0
 10
-2.645833333333333
 20
0.9039930555555551
 30
0.0
 10
-2.645833333333333
 20
8.180034722222217
 30
0.0
 10
-2.645833333333333
 20
8.180034722222217
 30
0.0
 10
-2.645833333333333
 20
8.180034722222217
 30
0.0
 10
0.465087890625
 20
8.180034722222217
 30
0.0
 10
0.465087890625
 20
8.180034722222217
 30
0.0
 10
0.9026150173611108
 20
8.180034722222217
 30
0.0
 10
1.24988064236111
 20
8.034651692708331
 30
0.0
 10
1.506884765625
 20
7.745263671874997
 30
0.0
 10
2.001600477430554
 20
7.194048394097221
 30
0.0
 10
2.248958333333332
 20
6.160519748263887
 30
0.0
 10
2.248958333333332
 20
4.643299696180553
 30
0.0
 10
2.248958333333332
 20
3.232188585069443
 30
0.0
 10
2.072569444444444
 20
2.256537543402775
 30
0.0
 10
1.720480685763888
 20
1.715657552083333
 30
0.0
 10
1.368391927083333
 20
1.174088541666665
 30
0.0
 10
0.8929687499999998
 20
0.9039930555555551
 30
0.0
 10
0.2942111545138888
 20
0.9039930555555551
 30
0.0
 10
0.2942111545138888
 20
0.9039930555555551
 30
0.0
 10
-2.645833333333333
 20
0.9039930555555551
 30
0.0
 10
-2.645833333333333
 20
0.9039930555555551
 30
0.0
  0
SPLINE
  5
2694
330
2692
100
AcDbEntity
  8
LAYER_1
 62
     7
100
AcDbSpline
210
0.0
220
0.0
230
1.0
 70
    11
 71
     3
 72
    68
 73
    64
 74
     0
 42
0.0000000001
 43
0.0000000001
 40
0.0
 40
0.0
 40
0.0
 40
0.0
 40
1.0
 40
1.0
 40
1.0
 40
2.0
 40
2.0
 40
2.0
 40
3.0
 40
3.0
 40
3.0
 40
4.0
 40
4.0
 40
4.0
 40
5.0
 40
5.0
 40
5.0
 40
6.0
 40
6.0
 40
6.0
 40
7.0
 40
7.0
 40
7.0
 40
8.0
 40
8.0
 40
8.0
 40
9.0
 40
9.0
 40
9.0
 40
10.0
 40
10.0
 40
10.0
 40
11.0
 40
11.0
 40
11.0
 40
12.0
 40
12.0
 40
12.0
 40
13.0
 40
13.0
 40
13.0
 40
14.0
 40
14.0
 40
14.0
 40
15.0
 40
15.0
 40
15.0
 40
16.0
 40
16.0
 40
16.0
 40
17.0
 40
17.0
 40
17.0
 40
18.0
 40
18.0
 40
18.0
 40
19.0
 40
19.0
 40
19.0
 40
20.0
 40
20.0
 40
20.0
 40
21.0
 40
21.0
 40
21.0
 40
21.0
 10
-3.968749999999998
 20
-10.7376736111111
 30
0.0
 10
-3.968749999999998
 20
-10.7376736111111
 30
0.0
 10
-2.645833333333333
 20
-10.7376736111111
 30
0.0
 10
-2.645833333333333
 20
-10.7376736111111
 30
0.0
 10
-2.645833333333333
 20
-10.7376736111111
 30
0.0
 10
-2.645833333333333
 20
-1.521354166666665
 30
0.0
 10
-2.645833333333333
 20
-1.521354166666665
 30
0.0
 10
-2.645833333333333
 20
-1.521354166666665
 30
0.0
 10
0.2390896267361111
 20
-1.521354166666665
 30
0.0
 10
0.2390896267361111
 20
-1.521354166666665
 30
0.0
 10
0.7599880642361111
 20
-1.521354166666665
 30
0.0
 10
1.143771701388887
 20
-1.65295681423611
 30
0.0
 10
1.390440538194444
 20
-1.916162109374999
 30
0.0
 10
1.816254340277773
 20
-2.39434136284722
 30
0.0
 10
2.04363064236111
 20
-3.335541449652775
 30
0.0
 10
2.072569444444444
 20
-4.739762369791666
 30
0.0
 10
2.072569444444444
 20
-4.739762369791666
 30
0.0
 10
2.160763888888888
 20
-8.324039713541665
 30
0.0
 10
2.160763888888888
 20
-8.324039713541665
 30
0.0
 10
2.18005642361111
 20
-9.163264973958332
 30
0.0
 10
2.202794053819443
 20
-9.728949652777775
 30
0.0
 10
2.227598741319444
 20
-10.02109374999998
 30
0.0
 10
2.252403428819443
 20
-10.31392686631944
 30
0.0
 10
2.28892144097222
 20
-10.55301649305555
 30
0.0
 10
2.33853081597222
 20
-10.7376736111111
 30
0.0
 10
2.33853081597222
 20
-10.7376736111111
 30
0.0
 10
3.968749999999998
 20
-10.7376736111111
 30
0.0
 10
3.968749999999998
 20
-10.7376736111111
 30
0.0
 10
3.968749999999998
 20
-10.7376736111111
 30
0.0
 10
3.968749999999998
 20
-10.25260416666666
 30
0.0
 10
3.968749999999998
 20
-10.25260416666666
 30
0.0
 10
3.766867404513888
 20
-10.05830078125
 30
0.0
 10
3.625618489583333
 20
-9.621462673611112
 30
0.0
 10
3.545692274305555
 20
-8.942089843749997
 30
0.0
 10
3.49470486111111
 20
-8.543836805555555
 30
0.0
 10
3.459564887152775
 20
-7.937499999999999
 30
0.0
 10
3.439583333333333
 20
-7.121701388888887
 30
0.0
 10
3.439583333333333
 20
-7.121701388888887
 30
0.0
 10
3.395486111111106
 20
-4.232644314236106
 30
0.0
 10
3.395486111111106
 20
-4.232644314236106
 30
0.0
 10
3.375504557291666
 20
-2.981385633680555
 30
0.0
 10
3.26870659722222
 20
-2.077392578125
 30
0.0
 10
3.075781249999999
 20
-1.522043185763888
 30
0.0
 10
2.882166883680555
 20
-0.9666937934027776
 30
0.0
 10
2.592089843749999
 20
-0.5188313802083333
 30
0.0
 10
2.204861111111106
 20
-0.1770779079861111
 30
0.0
 10
2.63618706597222
 20
0.3197048611111111
 30
0.0
 10
2.971739366319443
 20
0.9770290798611107
 30
0.0
 10
3.211518012152775
 20
1.79558376736111
 30
0.0
 10
3.451296657986107
 20
2.613449435763888
 30
0.0
 10
3.571874999999999
 20
3.66558159722222
 30
0.0
 10
3.571874999999999
 20
4.951291232638888
 30
0.0
 10
3.571874999999999
 20
7.415912543402777
 30
0.0
 10
3.124701605902775
 20
9.106076388888887
 30
0.0
 10
2.231043836805555
 20
10.02178276909722
 30
0.0
 10
1.759754774305553
 20
10.498583984375
 30
0.0
 10
1.163753255208332
 20
10.7376736111111
 30
0.0
 10
0.443039279513889
 20
10.7376736111111
 30
0.0
 10
0.443039279513889
 20
10.7376736111111
 30
0.0
 10
-3.968749999999998
 20
10.7376736111111
 30
0.0
 10
-3.968749999999998
 20
10.7376736111111
 30
0.0
 10
-3.968749999999998
 20
10.7376736111111
 30
0.0
 10
-3.968749999999998
 20
-10.7376736111111
 30
0.0
 10
-3.968749999999998
 20
-10.7376736111111
 30
0.0
  0
ENDBLK
  5
2696
330
2692
100
AcDbEntity
  8
0
100
AcDbBlockEnd
  0
BLOCK
  5
269A
330
2697
100
AcDbEntity
  8
0
 62
     7
100
AcDbBlockBegin
  2
AI9-BLK3
 70
     0
 10
0.0
 20
0.0
 30
0.0
  3
AI9-BLK3
  1

  0
LWPOLYLINE
  5
2698
330
2697
100
AcDbEntity
  8
LAYER_1
 62
     7
100
AcDbPolyline
 90
        4
 70
     1
 43
0.0
 10
-0.6613722059461809
 20
10.7376736111111
 10
0.6613722059461809
 20
10.7376736111111
 10
0.6613722059461809
 20
-10.7376736111111
 10
-0.6613722059461809
 20
-10.7376736111111
  0
HATCH
  5
2699
330
2697
100
AcDbEntity
  8
LAYER_1
 62
     7
100
AcDbHatch
 10
0.0
 20
0.0
 30
0.0
210
0.0
220
0.0
230
1.0
  2
SOLID
 70
     1
 71
     0
 91
        1
 92
        3
 72
     0
 73
     1
 93
        4
 10
-0.6613722059461809
 20
10.7376736111111
 10
0.6613722059461809
 20
10.7376736111111
 10
0.6613722059461809
 20
-10.7376736111111
 10
-0.6613722059461809
 20
-10.7376736111111
 97
        0
 75
     2
 76
     1
 98
        1
 10
0.0
 20
0.0
  0
ENDBLK
  5
269B
330
2697
100
AcDbEntity
  8
0
100
AcDbBlockEnd
  0
BLOCK
  5
269F
330
269C
100
AcDbEntity
  8
0
 62
     7
100
AcDbBlockBegin
  2
AI9-BLK2
 70
     0
 10
0.0
 20
0.0
 30
0.0
  3
AI9-BLK2
  1

  0
LWPOLYLINE
  5
269D
330
269C
100
AcDbEntity
  8
LAYER_1
 62
     7
100
AcDbPolyline
 90
        7
 70
     1
 43
0.0
 10
-2.785704210069443
 20
10.7376736111111
 10
0.0
 20
-7.550960286458332
 10
2.771234809027776
 20
10.7376736111111
 10
4.233333333333331
 20
10.7376736111111
 10
0.6910861545138888
 20
-10.7376736111111
 10
-0.7055555555555558
 20
-10.7376736111111
 10
-4.233333333333331
 20
10.7376736111111
  0
HATCH
  5
269E
330
269C
100
AcDbEntity
  8
LAYER_1
 62
     7
100
AcDbHatch
 10
0.0
 20
0.0
 30
0.0
210
0.0
220
0.0
230
1.0
  2
SOLID
 70
     1
 71
     0
 91
        1
 92
        3
 72
     0
 73
     1
 93
        7
 10
-2.785704210069443
 20
10.7376736111111
 10
0.0
 20
-7.550960286458332
 10
2.771234809027776
 20
10.7376736111111
 10
4.233333333333331
 20
10.7376736111111
 10
0.6910861545138888
 20
-10.7376736111111
 10
-0.7055555555555558
 20
-10.7376736111111
 10
-4.233333333333331
 20
10.7376736111111
 97
        0
 75
     2
 76
     1
 98
        1
 10
0.0
 20
0.0
  0
ENDBLK
  5
26A0
330
269C
100
AcDbEntity
  8
0
100
AcDbBlockEnd
  0
BLOCK
  5
26A4
330
26A1
100
AcDbEntity
  8
0
 62
     7
100
AcDbBlockBegin
  2
AI9-BLK1
 70
     0
 10
0.0
 20
0.0
 30
0.0
  3
AI9-BLK1
  1

  0
LWPOLYLINE
  5
26A2
330
26A1
100
AcDbEntity
  8
LAYER_1
 62
     7
100
AcDbPolyline
 90
       12
 70
     1
 43
0.0
 10
-3.571874999999999
 20
10.7376736111111
 10
3.483680555555555
 20
10.7376736111111
 10
3.483680555555555
 20
8.091840277777777
 10
-2.248958333333332
 20
8.091840277777777
 10
-2.248958333333332
 20
1.565451388888888
 10
3.042708333333333
 20
1.565451388888888
 10
3.042708333333333
 20
-0.9039930555555551
 10
-2.248958333333332
 20
-0.9039930555555551
 10
-2.248958333333332
 20
-8.180034722222217
 10
3.571874999999999
 20
-8.180034722222217
 10
3.571874999999999
 20
-10.7376736111111
 10
-3.571874999999999
 20
-10.7376736111111
  0
HATCH
  5
26A3
330
26A1
100
AcDbEntity
  8
LAYER_1
 62
     7
100
AcDbHatch
 10
0.0
 20
0.0
 30
0.0
210
0.0
220
0.0
230
1.0
  2
SOLID
 70
     1
 71
     0
 91
        1
 92
        3
 72
     0
 73
     1
 93
       12
 10
-3.571874999999999
 20
10.7376736111111
 10
3.483680555555555
 20
10.7376736111111
 10
3.483680555555555
 20
8.091840277777777
 10
-2.248958333333332
 20
8.091840277777777
 10
-2.248958333333332
 20
1.565451388888888
 10
3.042708333333333
 20
1.565451388888888
 10
3.042708333333333
 20
-0.9039930555555551
 10
-2.248958333333332
 20
-0.9039930555555551
 10
-2.248958333333332
 20
-8.180034722222217
 10
3.571874999999999
 20
-8.180034722222217
 10
3.571874999999999
 20
-10.7376736111111
 10
-3.571874999999999
 20
-10.7376736111111
 97
        0
 75
     2
 76
     1
 98
        1
 10
0.0
 20
0.0
  0
ENDBLK
  5
26A5
330
26A1
100
AcDbEntity
  8
0
100
AcDbBlockEnd
  0
BLOCK
  5
26C9
330
26A6
100
AcDbEntity
  8
0
100
AcDbBlockBegin
  2
HD_LLC_logo_OT5
 70
     0
 10
0.0
 20
0.0
 30
0.0
  3
HD_LLC_logo_OT5
  1

  0
SPLINE
  5
26A7
102
{ACAD_REACTORS
330
26C7
102
}
330
26A6
100
AcDbEntity
  8
LAYER_1
 62
     7
100
AcDbSpline
210
0.0
220
0.0
230
1.0
 70
    11
 71
     3
 72
   113
 73
   109
 74
     0
 42
0.0000000001
 43
0.0000000001
 40
0.0
 40
0.0
 40
0.0
 40
0.0
 40
1.0
 40
1.0
 40
1.0
 40
2.0
 40
2.0
 40
2.0
 40
3.0
 40
3.0
 40
3.0
 40
4.0
 40
4.0
 40
4.0
 40
5.0
 40
5.0
 40
5.0
 40
6.0
 40
6.0
 40
6.0
 40
7.0
 40
7.0
 40
7.0
 40
8.0
 40
8.0
 40
8.0
 40
9.0
 40
9.0
 40
9.0
 40
10.0
 40
10.0
 40
10.0
 40
11.0
 40
11.0
 40
11.0
 40
12.0
 40
12.0
 40
12.0
 40
13.0
 40
13.0
 40
13.0
 40
14.0
 40
14.0
 40
14.0
 40
15.0
 40
15.0
 40
15.0
 40
16.0
 40
16.0
 40
16.0
 40
17.0
 40
17.0
 40
17.0
 40
18.0
 40
18.0
 40
18.0
 40
19.0
 40
19.0
 40
19.0
 40
20.0
 40
20.0
 40
20.0
 40
21.0
 40
21.0
 40
21.0
 40
22.0
 40
22.0
 40
22.0
 40
23.0
 40
23.0
 40
23.0
 40
24.0
 40
24.0
 40
24.0
 40
25.0
 40
25.0
 40
25.0
 40
26.0
 40
26.0
 40
26.0
 40
27.0
 40
27.0
 40
27.0
 40
28.0
 40
28.0
 40
28.0
 40
29.0
 40
29.0
 40
29.0
 40
30.0
 40
30.0
 40
30.0
 40
31.0
 40
31.0
 40
31.0
 40
32.0
 40
32.0
 40
32.0
 40
33.0
 40
33.0
 40
33.0
 40
34.0
 40
34.0
 40
34.0
 40
35.0
 40
35.0
 40
35.0
 40
36.0
 40
36.0
 40
36.0
 40
36.0
 10
193.3039632161458
 20
186.1548733181423
 30
0.0
 10
193.3039632161458
 20
186.1860514322916
 30
0.0
 10
193.3039632161458
 20
219.6932223849826
 30
0.0
 10
193.3039632161458
 20
219.6932223849826
 30
0.0
 10
193.3039632161458
 20
219.6932223849826
 30
0.0
 10
193.2974175347219
 20
219.7488606770833
 30
0.0
 10
193.2974175347219
 20
219.7488606770833
 30
0.0
 10
191.5293945312499
 20
235.455740017361
 30
0.0
 10
175.1458984374999
 20
235.2467949761284
 30
0.0
 10
174.9808783637151
 20
235.2428331163193
 30
0.0
 10
174.9808783637151
 20
235.2428331163193
 30
0.0
 10
125.8827555338541
 20
235.2430053710937
 30
0.0
 10
125.8827555338541
 20
235.2430053710937
 30
0.0
 10
125.8827555338541
 20
235.2430053710937
 30
0.0
 10
125.8827555338541
 20
255.5278998480901
 30
0.0
 10
125.8827555338541
 20
255.5278998480901
 30
0.0
 10
125.8827555338541
 20
255.5278998480901
 30
0.0
 10
84.5626247829861
 20
255.5278998480901
 30
0.0
 10
84.5626247829861
 20
255.5278998480901
 30
0.0
 10
84.5626247829861
 20
255.5278998480901
 30
0.0
 10
84.55711263020829
 20
233.7919311523436
 30
0.0
 10
84.55711263020829
 20
233.7919311523436
 30
0.0
 10
84.55711263020829
 20
233.7919311523436
 30
0.0
 10
64.42052951388888
 20
233.7919311523436
 30
0.0
 10
64.42052951388888
 20
233.7919311523436
 30
0.0
 10
64.42052951388888
 20
233.7919311523436
 30
0.0
 10
64.41501736111111
 20
255.5278998480901
 30
0.0
 10
64.41501736111111
 20
255.5278998480901
 30
0.0
 10
64.41501736111111
 20
255.5278998480901
 30
0.0
 10
23.91757541232637
 20
255.5278998480901
 30
0.0
 10
23.91757541232637
 20
255.5278998480901
 30
0.0
 10
23.91757541232637
 20
255.5278998480901
 30
0.0
 10
23.91757541232637
 20
233.2393378363715
 30
0.0
 10
23.91757541232637
 20
233.2393378363715
 30
0.0
 10
23.91757541232637
 20
233.2393378363715
 30
0.0
 10
43.65624999999999
 20
233.2393378363715
 30
0.0
 10
43.65624999999999
 20
233.2393378363715
 30
0.0
 10
43.65624999999999
 20
233.2393378363715
 30
0.0
 10
43.65624999999999
 20
211.5188720703125
 30
0.0
 10
43.65624999999999
 20
211.5188720703125
 30
0.0
 10
43.65624999999999
 20
211.5188720703125
 30
0.0
 10
23.91757541232637
 20
211.5188720703125
 30
0.0
 10
23.91757541232637
 20
211.5188720703125
 30
0.0
 10
23.91757541232637
 20
211.5188720703125
 30
0.0
 10
23.91757541232637
 20
189.2303100585936
 30
0.0
 10
23.91757541232637
 20
189.2303100585936
 30
0.0
 10
23.91757541232637
 20
189.2303100585936
 30
0.0
 10
64.41501736111111
 20
189.2303100585936
 30
0.0
 10
64.41501736111111
 20
189.2303100585936
 30
0.0
 10
64.41501736111111
 20
189.2303100585936
 30
0.0
 10
64.42052951388888
 20
211.069976128472
 30
0.0
 10
64.42052951388888
 20
211.069976128472
 30
0.0
 10
64.42052951388888
 20
211.069976128472
 30
0.0
 10
84.55711263020829
 20
211.069976128472
 30
0.0
 10
84.55711263020829
 20
211.069976128472
 30
0.0
 10
84.55711263020829
 20
211.069976128472
 30
0.0
 10
84.5626247829861
 20
189.2303100585936
 30
0.0
 10
84.5626247829861
 20
189.2303100585936
 30
0.0
 10
84.5626247829861
 20
189.2303100585936
 30
0.0
 10
125.8827555338541
 20
189.2303100585936
 30
0.0
 10
125.8827555338541
 20
189.2303100585936
 30
0.0
 10
125.8827555338541
 20
189.2303100585936
 30
0.0
 10
125.8827555338541
 20
211.5188720703125
 30
0.0
 10
125.8827555338541
 20
211.5188720703125
 30
0.0
 10
125.8827555338541
 20
211.5188720703125
 30
0.0
 10
105.3213921440971
 20
211.5188720703125
 30
0.0
 10
105.3213921440971
 20
211.5188720703125
 30
0.0
 10
105.3213921440971
 20
211.5188720703125
 30
0.0
 10
105.3213921440971
 20
233.2393378363715
 30
0.0
 10
105.3213921440971
 20
233.2393378363715
 30
0.0
 10
105.3213921440971
 20
233.2393378363715
 30
0.0
 10
175.0046495225693
 20
233.243127441406
 30
0.0
 10
175.0046495225693
 20
233.243127441406
 30
0.0
 10
175.6268337673611
 20
233.2560465494791
 30
0.0
 10
189.7165852864583
 20
233.3962619357638
 30
0.0
 10
191.3037407769094
 20
219.5690266927083
 30
0.0
 10
191.3037407769094
 20
219.4332899305555
 30
0.0
 10
191.3037407769094
 20
186.1142211914062
 30
0.0
 10
191.3037407769094
 20
186.1142211914062
 30
0.0
 10
191.3037407769094
 20
186.1142211914062
 30
0.0
 10
191.3051188151039
 20
186.0880384657115
 30
0.0
 10
191.3051188151039
 20
186.0880384657115
 30
0.0
 10
191.3054633246526
 20
186.0787367078991
 30
0.0
 10
191.3109754774304
 20
185.9566080729166
 30
0.0
 10
191.3109754774304
 20
185.7399115668401
 30
0.0
 10
191.3109754774304
 20
184.2090833875865
 30
0.0
 10
191.0488037109374
 20
177.9643310546874
 30
0.0
 10
186.9866916232638
 20
173.5652886284722
 30
0.0
 10
184.2540418836804
 20
170.6064683702255
 30
0.0
 10
180.3224989149304
 20
169.0308539496526
 30
0.0
 10
175.300927734375
 20
168.8825425889756
 30
0.0
 10
175.300927734375
 20
168.8825425889756
 30
0.0
 10
107.0094889322916
 20
168.8828870985243
 30
0.0
 10
107.0094889322916
 20
168.8828870985243
 30
0.0
 10
107.0094889322916
 20
168.8828870985243
 30
0.0
 10
107.0094889322916
 20
166.8830091688368
 30
0.0
 10
107.0094889322916
 20
166.8830091688368
 30
0.0
 10
107.0094889322916
 20
166.8830091688368
 30
0.0
 10
175.3305555555555
 20
166.8830091688368
 30
0.0
 10
175.3305555555555
 20
166.8830091688368
 30
0.0
 10
180.9467502170138
 20
167.0485460069444
 30
0.0
 10
185.3571614583333
 20
168.8448187934026
 30
0.0
 10
188.4687717013888
 20
172.2223904079861
 30
0.0
 10
192.9649658203124
 20
177.1034016927083
 30
0.0
 10
193.3136094835069
 20
183.7202243381076
 30
0.0
 10
193.3136094835069
 20
185.6520616319443
 30
0.0
 10
193.3136094835069
 20
185.9247409396701
 30
0.0
 10
193.3070638020833
 20
186.0868326822916
 30
0.0
 10
193.3039632161458
 20
186.1548733181423
 30
0.0
  0
INSERT
  5
26A8
102
{ACAD_REACTORS
330
26C8
102
}
330
26A6
100
AcDbEntity
  8
LAYER_1
 62
     7
100
AcDbBlockReference
  2
AI9-BLK14
 10
159.5625257703993
 20
200.5118781195744
 30
0.0
  0
INSERT
  5
26A9
330
26A6
100
AcDbEntity
  8
LAYER_1
 62
     7
100
AcDbBlockReference
  2
AI9-BLK13
 10
27.69615614149305
 20
179.2145562065971
 30
0.0
 42
0.9200000000000001
  0
INSERT
  5
26AA
102
{ACAD_REACTORS
330
26B5
102
}
330
26A6
100
AcDbEntity
  8
LAYER_1
 62
     7
100
AcDbBlockReference
  2
AI9-BLK11
 10
44.76591525607638
 20
179.2145562065971
 30
0.0
 42
0.9200000000000001
  0
INSERT
  5
26AB
102
{ACAD_REACTORS
330
26C3
102
}
330
26A6
100
AcDbEntity
  8
LAYER_1
 62
     7
100
AcDbBlockReference
  2
AI9-BLK10
 10
54.04665798611111
 20
179.2145562065971
 30
0.0
 42
0.9200000000000001
  0
INSERT
  5
26AC
102
{ACAD_REACTORS
330
26C2
102
}
330
26A6
100
AcDbEntity
  8
LAYER_1
 62
     7
100
AcDbBlockReference
  2
AI9-BLK9
 10
62.79013807508679
 20
179.2145562065971
 30
0.0
 42
0.9
  0
INSERT
  5
26AD
330
26A6
100
AcDbEntity
  8
LAYER_1
 62
     7
100
AcDbBlockReference
  2
AI9-BLK8
 10
71.03046196831595
 20
179.2145562065971
 30
0.0
 42
0.9200000000000001
  0
INSERT
  5
26AE
330
26A6
100
AcDbEntity
  8
LAYER_1
 62
     7
100
AcDbBlockReference
  2
AI9-BLK7
 10
76.93793945312498
 20
179.2145562065971
 30
0.0
 42
0.9200000000000001
  0
INSERT
  5
26AF
102
{ACAD_REACTORS
330
26B6
102
}
330
26A6
100
AcDbEntity
  8
LAYER_1
 62
     7
100
AcDbBlockReference
  2
AI9-BLK6
 10
82.55602891710069
 20
179.2145562065971
 30
0.0
 42
0.9
  0
INSERT
  5
26B0
102
{ACAD_REACTORS
330
26C4
102
}
330
26A6
100
AcDbEntity
  8
LAYER_1
 62
     7
100
AcDbBlockReference
  2
AI9-BLK5
 10
94.32430284288193
 20
179.2145562065971
 30
0.0
 42
0.9200000000000001
  0
INSERT
  5
26B1
102
{ACAD_REACTORS
330
26C5
102
}
330
26A6
100
AcDbEntity
  8
LAYER_1
 62
     7
100
AcDbBlockReference
  2
AI9-BLK4
 10
103.2081705729166
 20
179.2145562065971
 30
0.0
 42
0.9200000000000001
  0
INSERT
  5
26B2
330
26A6
100
AcDbEntity
  8
LAYER_1
 62
     7
100
AcDbBlockReference
  2
AI9-BLK3
 10
108.850978597005
 20
179.2145562065971
 30
0.0
 42
0.9200000000000001
  0
INSERT
  5
26B3
330
26A6
100
AcDbEntity
  8
LAYER_1
 62
     7
100
AcDbBlockReference
  2
AI9-BLK2
 10
114.2045708550346
 20
179.2145562065971
 30
0.0
 42
0.9200000000000001
  0
INSERT
  5
26B4
330
26A6
100
AcDbEntity
  8
LAYER_1
 62
     7
100
AcDbBlockReference
  2
AI9-BLK1
 10
122.4125108506944
 20
179.2145562065971
 30
0.0
 42
0.9200000000000001
  0
HATCH
  5
26B5
330
26A6
100
AcDbEntity
  8
0
  6
Continuous
100
AcDbHatch
 10
0.0
 20
0.0
 30
0.0
210
0.0
220
0.0
230
1.0
  2
SOLID
 70
     1
 71
     1
 91
        2
 92
       16
 93
        1
 72
     4
 94
        3
 73
     0
 74
     0
 95
       26
 96
       22
 40
0.0
 40
0.0
 40
0.0
 40
0.0
 40
1.0
 40
1.0
 40
1.0
 40
2.0
 40
2.0
 40
2.0
 40
3.0
 40
3.0
 40
3.0
 40
4.0
 40
4.0
 40
4.0
 40
5.0
 40
5.0
 40
5.0
 40
6.0
 40
6.0
 40
6.0
 40
7.0
 40
7.0
 40
7.0
 40
7.0
 10
42.12008192274304
 20
180.046229817708
 10
42.12008192274304
 20
180.046229817708
 10
42.12008192274304
 20
186.7401881510414
 10
42.12008192274304
 20
186.7401881510414
 10
42.12008192274304
 20
186.7401881510414
 10
45.23100314670138
 20
186.7401881510414
 10
45.23100314670138
 20
186.7401881510414
 10
45.66853027343749
 20
186.7401881510414
 10
46.01579589843749
 20
186.6064357638887
 10
46.27280002170138
 20
186.3401987847218
 10
46.76751573350694
 20
185.8330807291664
 10
47.01487358940972
 20
184.8822343749996
 10
47.01487358940972
 20
183.4863919270832
 10
47.01487358940972
 20
182.188169704861
 10
46.83848470052082
 20
181.2905707465276
 10
46.48639594184028
 20
180.7929611545137
 10
46.13430718315971
 20
180.2947176649304
 10
45.65888400607638
 20
180.046229817708
 10
45.06012641059028
 20
180.046229817708
 10
45.06012641059028
 20
180.046229817708
 10
42.12008192274304
 20
180.046229817708
 10
42.12008192274304
 20
180.046229817708
 97
        1
330
26AA
 92
        1
 93
        1
 72
     4
 94
        3
 73
     0
 74
     0
 95
       68
 96
       64
 40
0.0
 40
0.0
 40
0.0
 40
0.0
 40
1.0
 40
1.0
 40
1.0
 40
2.0
 40
2.0
 40
2.0
 40
3.0
 40
3.0
 40
3.0
 40
4.0
 40
4.0
 40
4.0
 40
5.0
 40
5.0
 40
5.0
 40
6.0
 40
6.0
 40
6.0
 40
7.0
 40
7.0
 40
7.0
 40
8.0
 40
8.0
 40
8.0
 40
9.0
 40
9.0
 40
9.0
 40
10.0
 40
10.0
 40
10.0
 40
11.0
 40
11.0
 40
11.0
 40
12.0
 40
12.0
 40
12.0
 40
13.0
 40
13.0
 40
13.0
 40
14.0
 40
14.0
 40
14.0
 40
15.0
 40
15.0
 40
15.0
 40
16.0
 40
16.0
 40
16.0
 40
17.0
 40
17.0
 40
17.0
 40
18.0
 40
18.0
 40
18.0
 40
19.0
 40
19.0
 40
19.0
 40
20.0
 40
20.0
 40
20.0
 40
21.0
 40
21.0
 40
21.0
 40
21.0
 10
40.79716525607638
 20
169.3358964843748
 10
40.79716525607638
 20
169.3358964843748
 10
42.12008192274304
 20
169.3358964843748
 10
42.12008192274304
 20
169.3358964843748
 10
42.12008192274304
 20
169.3358964843748
 10
42.12008192274304
 20
177.8149103732637
 10
42.12008192274304
 20
177.8149103732637
 10
42.12008192274304
 20
177.8149103732637
 10
45.00500488281249
 20
177.8149103732637
 10
45.00500488281249
 20
177.8149103732637
 10
45.52590332031249
 20
177.8149103732637
 10
45.90968695746528
 20
177.6938359374998
 10
46.15635579427083
 20
177.4516870659719
 10
46.58216959635415
 20
177.0117621527776
 10
46.80954589843749
 20
176.1458580729164
 10
46.83848470052082
 20
174.8539748263887
 10
46.83848470052082
 20
174.8539748263887
 10
46.92667914496527
 20
171.5564396701385
 10
46.92667914496527
 20
171.5564396701385
 10
46.94597167968749
 20
170.7843524305554
 10
46.96870930989581
 20
170.2639225260415
 10
46.99351399739582
 20
169.9951499565971
 10
47.01831868489581
 20
169.725743489583
 10
47.0548366970486
 20
169.5057810329859
 10
47.10444607204859
 20
169.3358964843748
 10
47.10444607204859
 20
169.3358964843748
 10
48.73466525607638
 20
169.3358964843748
 10
48.73466525607638
 20
169.3358964843748
 10
48.73466525607638
 20
169.3358964843748
 10
48.73466525607638
 20
169.7821603732635
 10
48.73466525607638
 20
169.7821603732635
 10
48.53278266059028
 20
169.9609194878471
 10
48.39153374565971
 20
170.3628105468748
 10
48.31160753038194
 20
170.9878335503471
 10
48.26062011718749
 20
171.3542263454858
 10
48.22548014322915
 20
171.9120562065971
 10
48.20549858940971
 20
172.6625909288193
 10
48.20549858940971
 20
172.6625909288193
 10
48.16140136718749
 20
175.3205234374999
 10
48.16140136718749
 20
175.3205234374999
 10
48.14141981336803
 20
176.4716814236109
 10
48.03462185329859
 20
177.3033550347219
 10
47.84169650607638
 20
177.8142764756941
 10
47.64808213975693
 20
178.3251979166665
 10
47.35800509982638
 20
178.7372313368054
 10
46.97077636718749
 20
179.0516445312498
 10
47.4021023220486
 20
179.5086846788193
 10
47.73765462239582
 20
180.1134229600693
 10
47.97743326822915
 20
180.8664932725691
 10
48.21721191406249
 20
181.6189296874999
 10
48.33779025607638
 20
182.5868912760413
 10
48.33779025607638
 20
183.7697441406248
 10
48.33779025607638
 20
186.0371957465274
 10
47.89061686197916
 20
187.5921464843749
 10
46.99695909288194
 20
188.4345963541665
 10
46.52567003038194
 20
188.8732534722221
 10
45.92966851128472
 20
189.0932159288193
 10
45.20895453559027
 20
189.0932159288193
 10
45.20895453559027
 20
189.0932159288193
 10
40.79716525607638
 20
189.0932159288193
 10
40.79716525607638
 20
189.0932159288193
 10
40.79716525607638
 20
189.0932159288193
 10
40.79716525607638
 20
169.3358964843748
 10
40.79716525607638
 20
169.3358964843748
 97
        0
 75
     0
 76
     1
 98
        0
  0
HATCH
  5
26B6
330
26A6
100
AcDbEntity
  8
0
  6
Continuous
100
AcDbHatch
 10
0.0
 20
0.0
 30
0.0
210
0.0
220
0.0
230
1.0
  2
SOLID
 70
     1
 71
     1
 91
        1
 92
        1
 93
        1
 72
     4
 94
        3
 73
     0
 74
     0
 95
       59
 96
       55
 40
0.0
 40
0.0
 40
0.0
 40
0.0
 40
1.0
 40
1.0
 40
1.0
 40
2.0
 40
2.0
 40
2.0
 40
3.0
 40
3.0
 40
3.0
 40
4.0
 40
4.0
 40
4.0
 40
5.0
 40
5.0
 40
5.0
 40
6.0
 40
6.0
 40
6.0
 40
7.0
 40
7.0
 40
7.0
 40
8.0
 40
8.0
 40
8.0
 40
9.0
 40
9.0
 40
9.0
 40
10.0
 40
10.0
 40
10.0
 40
11.0
 40
11.0
 40
11.0
 40
12.0
 40
12.0
 40
12.0
 40
13.0
 40
13.0
 40
13.0
 40
14.0
 40
14.0
 40
14.0
 40
15.0
 40
15.0
 40
15.0
 40
16.0
 40
16.0
 40
16.0
 40
17.0
 40
17.0
 40
17.0
 40
18.0
 40
18.0
 40
18.0
 40
18.0
 10
85.61871880425345
 20
187.4658355034721
 10
86.29120144314232
 20
186.1797124565971
 10
86.66671685112847
 20
184.7193364800346
 10
86.7452650282118
 20
183.0840874565969
 10
86.7452650282118
 20
183.0840874565969
 10
85.42234836154511
 20
183.0840874565969
 10
85.42234836154511
 20
183.0840874565969
 10
85.27696533203123
 20
184.3156401909719
 10
84.99171142578125
 20
185.2917046440971
 10
84.56589762369791
 20
186.0122808159719
 10
84.14008382161458
 20
186.7322368706594
 10
83.53994818793401
 20
187.0925249565969
 10
82.76617974175342
 20
187.0925249565969
 10
81.81740044487847
 20
187.0925249565969
 10
81.05258924696178
 20
186.4240386284721
 10
80.47243516710068
 20
185.0883062065971
 10
79.89159206814234
 20
183.7525737847219
 10
79.6015150282118
 20
181.7049468315971
 10
79.6015150282118
 20
178.9454253472221
 10
79.6015150282118
 20
176.6844780815969
 10
79.86265326605901
 20
174.8514116753471
 10
80.38561876085069
 20
173.4456060112846
 10
80.90789523654512
 20
172.0391802300344
 10
81.69199896918403
 20
171.3365874565971
 10
82.73724093967013
 20
171.3365874565971
 10
83.69497748480901
 20
171.3365874565971
 10
84.42120361328125
 20
172.0794878472221
 10
84.91523030598958
 20
173.5665288628469
 10
85.18601481119791
 20
174.3491167534719
 10
85.38445231119791
 20
175.3785112847221
 10
85.51054280598959
 20
176.6547124565971
 10
85.51054280598959
 20
176.6547124565971
 10
86.83345947265625
 20
176.6547124565971
 10
86.83345947265625
 20
176.6547124565971
 10
86.72597249348957
 20
174.6157671440971
 10
86.35114610460069
 20
172.9061040581596
 10
85.70760226779514
 20
171.526343315972
 10
84.93727891710069
 20
169.8650493706596
 10
83.90375027126735
 20
169.0347124565971
 10
82.60701633029514
 20
169.0347124565971
 10
81.48598225911458
 20
169.0347124565971
 10
80.54547119140625
 20
169.7143608940971
 10
79.78479410807292
 20
171.0742778862845
 10
78.78020426432292
 20
172.8726177300344
 10
78.27859836154512
 20
175.6495024956596
 10
78.27859836154512
 20
179.4049321831594
 10
78.27859836154512
 20
182.2562310112846
 10
78.65342475043402
 20
184.5946929253469
 10
79.40445556640622
 20
186.4196978081596
 10
80.22301025390625
 20
188.4028325737846
 10
81.34955647786458
 20
189.3943999565971
 10
82.78271620008679
 20
189.3943999565971
 10
84.00090196397568
 20
189.3943999565971
 10
84.94623616536458
 20
188.7513384331594
 10
85.61871880425345
 20
187.4658355034721
 97
        1
330
26AF
 75
     0
 76
     1
 98
        1
 10
0.0
 20
0.0
  0
LINE
  5
26B7
102
{ACAD_REACTORS
330
26C6
102
}
330
26A6
100
AcDbEntity
  8
LAYER_1
 62
     7
100
AcDbLine
 10
34.65766059027778
 20
177.4497853732638
 30
0.0
 11
36.19830729166666
 21
186.1658769531249
 31
0.0
  0
LINE
  5
26B8
102
{ACAD_REACTORS
330
26C6
102
}
330
26A6
100
AcDbEntity
  8
LAYER_1
 62
     7
100
AcDbLine
 10
36.19830729166666
 20
186.1658769531249
 30
0.0
 11
37.67556423611111
 21
177.4497853732638
 31
0.0
  0
LINE
  5
26B9
102
{ACAD_REACTORS
330
26C6
102
}
330
26A6
100
AcDbEntity
  8
LAYER_1
 62
     7
100
AcDbLine
 10
37.67556423611111
 20
177.4497853732638
 30
0.0
 11
34.65766059027778
 21
177.4497853732638
 31
0.0
  0
LINE
  5
26BA
102
{ACAD_REACTORS
330
26C6
102
}
330
26A6
100
AcDbEntity
  8
LAYER_1
 62
     7
100
AcDbLine
 10
31.83957248263888
 20
169.3358964843748
 30
0.0
 11
33.22450086805555
 21
169.3358964843748
 31
0.0
  0
LINE
  5
26BB
102
{ACAD_REACTORS
330
26C6
102
}
330
26A6
100
AcDbEntity
  8
LAYER_1
 62
     7
100
AcDbLine
 10
33.22450086805555
 20
169.3358964843748
 30
0.0
 11
34.27043185763887
 21
175.2590353732638
 31
0.0
  0
LINE
  5
26BC
102
{ACAD_REACTORS
330
26C6
102
}
330
26A6
100
AcDbEntity
  8
LAYER_1
 62
     7
100
AcDbLine
 10
34.27043185763887
 20
175.2590353732638
 30
0.0
 11
38.04694552951389
 21
175.2590353732638
 31
0.0
  0
LINE
  5
26BD
102
{ACAD_REACTORS
330
26C6
102
}
330
26A6
100
AcDbEntity
  8
LAYER_1
 62
     7
100
AcDbLine
 10
38.04694552951389
 20
175.2590353732638
 30
0.0
 11
39.05015733506942
 21
169.3358964843748
 31
0.0
  0
LINE
  5
26BE
102
{ACAD_REACTORS
330
26C6
102
}
330
26A6
100
AcDbEntity
  8
LAYER_1
 62
     7
100
AcDbLine
 10
39.05015733506942
 20
169.3358964843748
 30
0.0
 11
40.43508572048611
 21
169.3358964843748
 31
0.0
  0
LINE
  5
26BF
102
{ACAD_REACTORS
330
26C6
102
}
330
26A6
100
AcDbEntity
  8
LAYER_1
 62
     7
100
AcDbLine
 10
40.43508572048611
 20
169.3358964843748
 30
0.0
 11
36.952783203125
 21
189.0932159288193
 31
0.0
  0
LINE
  5
26C0
102
{ACAD_REACTORS
330
26C6
102
}
330
26A6
100
AcDbEntity
  8
LAYER_1
 62
     7
100
AcDbLine
 10
36.952783203125
 20
189.0932159288193
 30
0.0
 11
35.47828233506943
 21
189.0932159288193
 31
0.0
  0
LINE
  5
26C1
102
{ACAD_REACTORS
330
26C6
102
}
330
26A6
100
AcDbEntity
  8
LAYER_1
 62
     7
100
AcDbLine
 10
35.47828233506943
 20
189.0932159288193
 30
0.0
 11
31.83957248263888
 21
169.3358964843748
 31
0.0
  0
HATCH
  5
26C2
330
26A6
100
AcDbEntity
  8
0
  6
Continuous
100
AcDbHatch
 10
0.0
 20
0.0
 30
0.0
210
0.0
220
0.0
230
1.0
  2
SOLID
 70
     1
 71
     1
 91
        2
 92
       16
 93
        1
 72
     4
 94
        3
 73
     0
 74
     0
 95
       29
 96
       25
 40
0.0
 40
0.0
 40
0.0
 40
0.0
 40
1.0
 40
1.0
 40
1.0
 40
2.0
 40
2.0
 40
2.0
 40
3.0
 40
3.0
 40
3.0
 40
4.0
 40
4.0
 40
4.0
 40
5.0
 40
5.0
 40
5.0
 40
6.0
 40
6.0
 40
6.0
 40
7.0
 40
7.0
 40
7.0
 40
8.0
 40
8.0
 40
8.0
 40
8.0
 10
62.85697292751734
 20
171.3365874565971
 10
61.88338894314235
 20
171.3365874565971
 10
61.18058946397566
 20
172.0714263237844
 10
60.74857449001735
 20
173.5411040581594
 10
60.31587049696178
 20
175.0107817925344
 10
60.10020751953123
 20
176.8165630425343
 10
60.10020751953123
 20
178.9578276909721
 10
60.10020751953123
 20
181.6342534722221
 10
60.35101047092013
 20
183.6589360894094
 10
60.85261637369789
 20
185.0324956597219
 10
61.35422227647566
 20
186.4054351128471
 10
62.00741238064235
 20
187.0925249565969
 10
62.81218668619789
 20
187.0925249565969
 10
63.6369425455729
 20
187.0925249565969
 10
64.28806559244789
 20
186.3992339409721
 10
64.76486680772568
 20
185.0126519097221
 10
65.24166802300347
 20
183.6260698784719
 10
65.48006863064235
 20
181.7961040581594
 10
65.48006863064235
 20
179.5239946831596
 10
65.48006863064235
 20
177.3734282769096
 10
65.27336290147568
 20
175.4715288628469
 10
64.86132948133678
 20
173.8176763237846
 10
64.4492960611979
 20
172.1632036675344
 10
63.78094753689235
 20
171.3365874565971
 10
62.85697292751734
 20
171.3365874565971
 97
        1
330
26AC
 92
        1
 93
        1
 72
     4
 94
        3
 73
     0
 74
     0
 95
       29
 96
       25
 40
0.0
 40
0.0
 40
0.0
 40
0.0
 40
1.0
 40
1.0
 40
1.0
 40
2.0
 40
2.0
 40
2.0
 40
3.0
 40
3.0
 40
3.0
 40
4.0
 40
4.0
 40
4.0
 40
5.0
 40
5.0
 40
5.0
 40
6.0
 40
6.0
 40
6.0
 40
7.0
 40
7.0
 40
7.0
 40
8.0
 40
8.0
 40
8.0
 40
8.0
 10
62.76119927300346
 20
189.4340874565971
 10
61.47273356119789
 20
189.4340874565971
 10
60.50121663411457
 20
188.2397417534719
 10
59.84733751085068
 20
185.8516704644094
 10
59.3395304361979
 20
183.9900786675344
 10
59.08597140842012
 20
181.7514556206596
 10
59.08597140842012
 20
179.1351812065971
 10
59.08597140842012
 20
176.2379937065971
 10
59.3836276584201
 20
173.8412407769094
 10
59.9789401584201
 20
171.9449224175346
 10
60.6424655490451
 20
169.9779106987846
 10
61.5602389865451
 20
168.9950249565971
 10
62.7315714518229
 20
168.9950249565971
 10
63.9904093424479
 20
168.9950249565971
 10
64.95641411675345
 20
170.1186773003469
 10
65.63027479383679
 20
172.3659819878471
 10
66.20629475911457
 20
174.2796636284719
 10
66.49430474175345
 20
176.6813774956593
 10
66.49430474175345
 20
179.5698833550344
 10
66.49430474175345
 20
182.2388677300343
 10
66.24005669487845
 20
184.4291216362844
 10
65.73293863932289
 20
186.1412651909719
 10
65.08870578342011
 20
188.3364800347219
 10
64.09789632161457
 20
189.4340874565971
 10
62.76119927300346
 20
189.4340874565971
 97
        0
 75
     0
 76
     1
 98
        0
  0
HATCH
  5
26C3
330
26A6
100
AcDbEntity
  8
0
  6
Continuous
100
AcDbHatch
 10
0.0
 20
0.0
 30
0.0
210
0.0
220
0.0
230
1.0
  2
SOLID
 70
     1
 71
     1
 91
        1
 92
        1
 93
        1
 72
     4
 94
        3
 73
     0
 74
     0
 95
       59
 96
       55
 40
0.0
 40
0.0
 40
0.0
 40
0.0
 40
1.0
 40
1.0
 40
1.0
 40
2.0
 40
2.0
 40
2.0
 40
3.0
 40
3.0
 40
3.0
 40
4.0
 40
4.0
 40
4.0
 40
5.0
 40
5.0
 40
5.0
 40
6.0
 40
6.0
 40
6.0
 40
7.0
 40
7.0
 40
7.0
 40
8.0
 40
8.0
 40
8.0
 40
9.0
 40
9.0
 40
9.0
 40
10.0
 40
10.0
 40
10.0
 40
11.0
 40
11.0
 40
11.0
 40
12.0
 40
12.0
 40
12.0
 40
13.0
 40
13.0
 40
13.0
 40
14.0
 40
14.0
 40
14.0
 40
15.0
 40
15.0
 40
15.0
 40
16.0
 40
16.0
 40
16.0
 40
17.0
 40
17.0
 40
17.0
 40
18.0
 40
18.0
 40
18.0
 40
18.0
 10
49.39440104166666
 20
189.0932159288193
 10
49.39440104166666
 20
189.0932159288193
 10
51.24786241319444
 20
189.0932159288193
 10
51.24786241319444
 20
189.0932159288193
 10
51.24786241319444
 20
189.0932159288193
 10
54.04665798611111
 20
172.3887471788193
 10
54.04665798611111
 20
172.3887471788193
 10
54.04665798611111
 20
172.3887471788193
 10
56.83994140624999
 20
189.0932159288193
 10
56.83994140624999
 20
189.0932159288193
 10
56.83994140624999
 20
189.0932159288193
 10
58.69891493055553
 20
189.0932159288193
 10
58.69891493055553
 20
189.0932159288193
 10
58.69891493055553
 20
189.0932159288193
 10
58.69891493055553
 20
169.3358964843748
 10
58.69891493055553
 20
169.3358964843748
 10
58.69891493055553
 20
169.3358964843748
 10
57.46419270833333
 20
169.3358964843748
 10
57.46419270833333
 20
169.3358964843748
 10
57.46419270833333
 20
169.3358964843748
 10
57.46419270833333
 20
180.9964422743054
 10
57.46419270833333
 20
180.9964422743054
 10
57.46419270833333
 20
181.3996011284721
 10
57.47108289930555
 20
182.0677291666664
 10
57.48624131944444
 20
183.0001924913193
 10
57.50071072048609
 20
183.9326558159721
 10
57.50828993055553
 20
184.932312282986
 10
57.50828993055553
 20
185.9997957899304
 10
57.50828993055553
 20
185.9997957899304
 10
54.700537109375
 20
169.3358964843748
 10
54.700537109375
 20
169.3358964843748
 10
54.700537109375
 20
169.3358964843748
 10
53.38382161458333
 20
169.3358964843748
 10
53.38382161458333
 20
169.3358964843748
 10
53.38382161458333
 20
169.3358964843748
 10
50.58502604166665
 20
185.9997957899304
 10
50.58502604166665
 20
185.9997957899304
 10
50.58502604166665
 20
185.9997957899304
 10
50.58502604166665
 20
185.3944236111109
 10
50.58502604166665
 20
185.3944236111109
 10
50.58502604166665
 20
184.9101258680554
 10
50.59191623263888
 20
184.1729029947915
 10
50.60707465277777
 20
183.1821210937498
 10
50.62154405381942
 20
182.1913391927082
 10
50.62912326388889
 20
181.4629908854165
 10
50.62912326388889
 20
180.9964422743054
 10
50.62912326388889
 20
180.9964422743054
 10
50.62912326388889
 20
169.3358964843748
 10
50.62912326388889
 20
169.3358964843748
 10
50.62912326388889
 20
169.3358964843748
 10
49.39440104166666
 20
169.3358964843748
 10
49.39440104166666
 20
169.3358964843748
 10
49.39440104166666
 20
169.3358964843748
 10
49.39440104166666
 20
189.0932159288193
 10
49.39440104166666
 20
189.0932159288193
 97
        1
330
26AB
 75
     0
 76
     1
 98
        1
 10
0.0
 20
0.0
  0
HATCH
  5
26C4
330
26A6
100
AcDbEntity
  8
0
  6
Continuous
100
AcDbHatch
 10
0.0
 20
0.0
 30
0.0
210
0.0
220
0.0
230
1.0
  2
SOLID
 70
     1
 71
     1
 91
        2
 92
       16
 93
        1
 72
     4
 94
        3
 73
     0
 74
     0
 95
       32
 96
       28
 40
0.0
 40
0.0
 40
0.0
 40
0.0
 40
1.0
 40
1.0
 40
1.0
 40
2.0
 40
2.0
 40
2.0
 40
3.0
 40
3.0
 40
3.0
 40
4.0
 40
4.0
 40
4.0
 40
5.0
 40
5.0
 40
5.0
 40
6.0
 40
6.0
 40
6.0
 40
7.0
 40
7.0
 40
7.0
 40
8.0
 40
8.0
 40
8.0
 40
9.0
 40
9.0
 40
9.0
 40
9.0
 10
91.70051812065969
 20
171.6077853732635
 10
91.70051812065969
 20
171.6077853732635
 10
91.70051812065969
 20
186.7401881510414
 10
91.70051812065969
 20
186.7401881510414
 10
91.70051812065969
 20
186.7401881510414
 10
93.98668348524305
 20
186.7401881510414
 10
93.98668348524305
 20
186.7401881510414
 10
95.02159016927082
 20
186.7401881510414
 10
95.77331000434028
 20
186.0644533420137
 10
96.24322102864582
 20
184.7142515190969
 10
96.71313205295138
 20
183.3640496961804
 10
96.94808756510417
 20
181.4680620659721
 10
96.94808756510417
 20
179.0262886284719
 10
96.94808756510417
 20
178.3911232638887
 10
96.91432562934028
 20
177.7027105034721
 10
96.84749077690971
 20
176.9604164496524
 10
96.7324245876736
 20
175.7167094184024
 10
96.55052354600693
 20
174.6974021267359
 10
96.30109863281248
 20
173.901860677083
 10
95.98414984809028
 20
172.9091770833332
 10
95.57693956163193
 20
172.2378795572914
 10
95.07877875434026
 20
171.8892358940971
 10
94.79076877170138
 20
171.7016022135415
 10
94.43178982204859
 20
171.6077853732635
 10
94.00115288628471
 20
171.6077853732635
 10
94.00115288628471
 20
171.6077853732635
 10
91.70051812065969
 20
171.6077853732635
 10
91.70051812065969
 20
171.6077853732635
 97
        1
330
26B0
 92
        1
 93
        1
 72
     4
 94
        3
 73
     0
 74
     0
 95
       26
 96
       22
 40
0.0
 40
0.0
 40
0.0
 40
0.0
 40
1.0
 40
1.0
 40
1.0
 40
2.0
 40
2.0
 40
2.0
 40
3.0
 40
3.0
 40
3.0
 40
4.0
 40
4.0
 40
4.0
 40
5.0
 40
5.0
 40
5.0
 40
6.0
 40
6.0
 40
6.0
 40
7.0
 40
7.0
 40
7.0
 40
7.0
 10
90.37760145399305
 20
169.3358964843748
 10
90.37760145399305
 20
169.3358964843748
 10
94.22990722656248
 20
169.3358964843748
 10
94.22990722656248
 20
169.3358964843748
 10
95.87115071614581
 20
169.3358964843748
 10
97.03008083767359
 20
170.8331625434026
 10
97.70600857204859
 20
173.8283285590274
 10
98.08221299913194
 20
175.5227367621524
 10
98.27100423177082
 20
177.4187243923609
 10
98.27100423177082
 20
179.5169253472221
 10
98.27100423177082
 20
182.233810329861
 10
97.94716525607638
 20
184.4619602864582
 10
97.30086534288195
 20
186.2013752170135
 10
96.57601725260416
 20
188.1290577256941
 10
95.5576470269097
 20
189.0932159288193
 10
94.24437662760416
 20
189.0932159288193
 10
94.24437662760416
 20
189.0932159288193
 10
90.37760145399305
 20
189.0932159288193
 10
90.37760145399305
 20
189.0932159288193
 10
90.37760145399305
 20
189.0932159288193
 10
90.37760145399305
 20
169.3358964843748
 10
90.37760145399305
 20
169.3358964843748
 97
        0
 75
     0
 76
     1
 98
        0
  0
HATCH
  5
26C5
330
26A6
100
AcDbEntity
  8
0
  6
Continuous
100
AcDbHatch
 10
0.0
 20
0.0
 30
0.0
210
0.0
220
0.0
230
1.0
  2
SOLID
 70
     1
 71
     1
 91
        2
 92
       16
 93
        1
 72
     4
 94
        3
 73
     0
 74
     0
 95
       26
 96
       22
 40
0.0
 40
0.0
 40
0.0
 40
0.0
 40
1.0
 40
1.0
 40
1.0
 40
2.0
 40
2.0
 40
2.0
 40
3.0
 40
3.0
 40
3.0
 40
4.0
 40
4.0
 40
4.0
 40
5.0
 40
5.0
 40
5.0
 40
6.0
 40
6.0
 40
6.0
 40
7.0
 40
7.0
 40
7.0
 40
7.0
 10
100.5623372395832
 20
180.046229817708
 10
100.5623372395832
 20
180.046229817708
 10
100.5623372395832
 20
186.7401881510414
 10
100.5623372395832
 20
186.7401881510414
 10
100.5623372395832
 20
186.7401881510414
 10
103.6732584635416
 20
186.7401881510414
 10
103.6732584635416
 20
186.7401881510414
 10
104.1107855902777
 20
186.7401881510414
 10
104.4580512152777
 20
186.6064357638887
 10
104.7150553385415
 20
186.3401987847218
 10
105.2097710503471
 20
185.8330807291664
 10
105.4571289062497
 20
184.8822343749996
 10
105.4571289062497
 20
183.4863919270832
 10
105.4571289062497
 20
182.188169704861
 10
105.280740017361
 20
181.2905707465276
 10
104.9286512586804
 20
180.7929611545137
 10
104.5765624999999
 20
180.2947176649304
 10
104.1011393229166
 20
180.046229817708
 10
103.5023817274304
 20
180.046229817708
 10
103.5023817274304
 20
180.046229817708
 10
100.5623372395832
 20
180.046229817708
 10
100.5623372395832
 20
180.046229817708
 97
        1
330
26B1
 92
        1
 93
        1
 72
     4
 94
        3
 73
     0
 74
     0
 95
       68
 96
       64
 40
0.0
 40
0.0
 40
0.0
 40
0.0
 40
1.0
 40
1.0
 40
1.0
 40
2.0
 40
2.0
 40
2.0
 40
3.0
 40
3.0
 40
3.0
 40
4.0
 40
4.0
 40
4.0
 40
5.0
 40
5.0
 40
5.0
 40
6.0
 40
6.0
 40
6.0
 40
7.0
 40
7.0
 40
7.0
 40
8.0
 40
8.0
 40
8.0
 40
9.0
 40
9.0
 40
9.0
 40
10.0
 40
10.0
 40
10.0
 40
11.0
 40
11.0
 40
11.0
 40
12.0
 40
12.0
 40
12.0
 40
13.0
 40
13.0
 40
13.0
 40
14.0
 40
14.0
 40
14.0
 40
15.0
 40
15.0
 40
15.0
 40
16.0
 40
16.0
 40
16.0
 40
17.0
 40
17.0
 40
17.0
 40
18.0
 40
18.0
 40
18.0
 40
19.0
 40
19.0
 40
19.0
 40
20.0
 40
20.0
 40
20.0
 40
21.0
 40
21.0
 40
21.0
 40
21.0
 10
99.23942057291661
 20
169.3358964843748
 10
99.23942057291661
 20
169.3358964843748
 10
100.5623372395832
 20
169.3358964843748
 10
100.5623372395832
 20
169.3358964843748
 10
100.5623372395832
 20
169.3358964843748
 10
100.5623372395832
 20
177.8149103732637
 10
100.5623372395832
 20
177.8149103732637
 10
100.5623372395832
 20
177.8149103732637
 10
103.4472601996527
 20
177.8149103732637
 10
103.4472601996527
 20
177.8149103732637
 10
103.9681586371527
 20
177.8149103732637
 10
104.3519422743053
 20
177.6938359374998
 10
104.5986111111109
 20
177.4516870659719
 10
105.0244249131943
 20
177.0117621527776
 10
105.2518012152777
 20
176.1458580729164
 10
105.280740017361
 20
174.8539748263887
 10
105.280740017361
 20
174.8539748263887
 10
105.3689344618053
 20
171.5564396701385
 10
105.3689344618053
 20
171.5564396701385
 10
105.3882269965277
 20
170.7843524305554
 10
105.4109646267359
 20
170.2639225260415
 10
105.4357693142359
 20
169.9951499565971
 10
105.4605740017358
 20
169.725743489583
 10
105.4970920138888
 20
169.5057810329859
 10
105.5467013888887
 20
169.3358964843748
 10
105.5467013888887
 20
169.3358964843748
 10
107.1769205729166
 20
169.3358964843748
 10
107.1769205729166
 20
169.3358964843748
 10
107.1769205729166
 20
169.3358964843748
 10
107.1769205729166
 20
169.7821603732635
 10
107.1769205729166
 20
169.7821603732635
 10
106.9750379774303
 20
169.9609194878471
 10
106.8337890624997
 20
170.3628105468748
 10
106.7538628472221
 20
170.9878335503471
 10
106.7028754340274
 20
171.3542263454858
 10
106.6677354600692
 20
171.9120562065971
 10
106.6477539062497
 20
172.6625909288193
 10
106.6477539062497
 20
172.6625909288193
 10
106.6036566840277
 20
175.3205234374999
 10
106.6036566840277
 20
175.3205234374999
 10
106.5836751302082
 20
176.4716814236109
 10
106.4768771701387
 20
177.3033550347219
 10
106.2839518229166
 20
177.8142764756941
 10
106.0903374565971
 20
178.3251979166665
 10
105.8002604166666
 20
178.7372313368054
 10
105.4130316840277
 20
179.0516445312498
 10
105.8443576388886
 20
179.5086846788193
 10
106.179909939236
 20
180.1134229600693
 10
106.4196885850692
 20
180.8664932725691
 10
106.6594672309027
 20
181.6189296874999
 10
106.7800455729166
 20
182.5868912760413
 10
106.7800455729166
 20
183.7697441406248
 10
106.7800455729166
 20
186.0371957465274
 10
106.3328721788193
 20
187.5921464843749
 10
105.4392144097221
 20
188.4345963541665
 10
104.9679253472221
 20
188.8732534722221
 10
104.3719238281249
 20
189.0932159288193
 10
103.6512098524303
 20
189.0932159288193
 10
103.6512098524303
 20
189.0932159288193
 10
99.23942057291661
 20
189.0932159288193
 10
99.23942057291661
 20
189.0932159288193
 10
99.23942057291661
 20
189.0932159288193
 10
99.23942057291661
 20
169.3358964843748
 10
99.23942057291661
 20
169.3358964843748
 97
        0
 75
     0
 76
     1
 98
        0
  0
HATCH
  5
26C6
330
26A6
100
AcDbEntity
  8
0
  6
Continuous
100
AcDbHatch
 10
0.0
 20
0.0
 30
0.0
210
0.0
220
0.0
230
1.0
  2
SOLID
 70
     1
 71
     1
 91
        2
 92
        1
 93
        8
 72
     1
 10
35.47828233506943
 20
189.0932159288193
 11
31.83957248263888
 21
169.3358964843748
 72
     1
 10
31.83957248263888
 20
169.3358964843748
 11
33.22450086805555
 21
169.3358964843748
 72
     1
 10
33.22450086805555
 20
169.3358964843748
 11
34.27043185763887
 21
175.2590353732638
 72
     1
 10
34.27043185763887
 20
175.2590353732638
 11
38.04694552951389
 21
175.2590353732638
 72
     1
 10
38.04694552951389
 20
175.2590353732638
 11
39.05015733506942
 21
169.3358964843748
 72
     1
 10
39.05015733506942
 20
169.3358964843748
 11
40.43508572048611
 21
169.3358964843748
 72
     1
 10
40.43508572048611
 20
169.3358964843748
 11
36.952783203125
 21
189.0932159288193
 72
     1
 10
36.952783203125
 20
189.0932159288193
 11
35.47828233506943
 21
189.0932159288193
 97
        8
330
26C1
330
26BA
330
26BB
330
26BC
330
26BD
330
26BE
330
26BF
330
26C0
 92
       16
 93
        3
 72
     1
 10
37.67556423611111
 20
177.4497853732638
 11
34.65766059027778
 21
177.4497853732638
 72
     1
 10
34.65766059027778
 20
177.4497853732638
 11
36.19830729166666
 21
186.1658769531249
 72
     1
 10
36.19830729166666
 20
186.1658769531249
 11
37.67556423611111
 21
177.4497853732638
 97
        3
330
26B9
330
26B7
330
26B8
 75
     0
 76
     1
 98
        1
 10
0.0
 20
0.0
  0
HATCH
  5
26C7
330
26A6
100
AcDbEntity
  8
0
  6
Continuous
100
AcDbHatch
 10
0.0
 20
0.0
 30
0.0
210
0.0
220
0.0
230
1.0
  2
SOLID
 70
     1
 71
     1
 91
        1
 92
        1
 93
        1
 72
     4
 94
        3
 73
     0
 74
     0
 95
      113
 96
      109
 40
0.0
 40
0.0
 40
0.0
 40
0.0
 40
1.0
 40
1.0
 40
1.0
 40
2.0
 40
2.0
 40
2.0
 40
3.0
 40
3.0
 40
3.0
 40
4.0
 40
4.0
 40
4.0
 40
5.0
 40
5.0
 40
5.0
 40
6.0
 40
6.0
 40
6.0
 40
7.0
 40
7.0
 40
7.0
 40
8.0
 40
8.0
 40
8.0
 40
9.0
 40
9.0
 40
9.0
 40
10.0
 40
10.0
 40
10.0
 40
11.0
 40
11.0
 40
11.0
 40
12.0
 40
12.0
 40
12.0
 40
13.0
 40
13.0
 40
13.0
 40
14.0
 40
14.0
 40
14.0
 40
15.0
 40
15.0
 40
15.0
 40
16.0
 40
16.0
 40
16.0
 40
17.0
 40
17.0
 40
17.0
 40
18.0
 40
18.0
 40
18.0
 40
19.0
 40
19.0
 40
19.0
 40
20.0
 40
20.0
 40
20.0
 40
21.0
 40
21.0
 40
21.0
 40
22.0
 40
22.0
 40
22.0
 40
23.0
 40
23.0
 40
23.0
 40
24.0
 40
24.0
 40
24.0
 40
25.0
 40
25.0
 40
25.0
 40
26.0
 40
26.0
 40
26.0
 40
27.0
 40
27.0
 40
27.0
 40
28.0
 40
28.0
 40
28.0
 40
29.0
 40
29.0
 40
29.0
 40
30.0
 40
30.0
 40
30.0
 40
31.0
 40
31.0
 40
31.0
 40
32.0
 40
32.0
 40
32.0
 40
33.0
 40
33.0
 40
33.0
 40
34.0
 40
34.0
 40
34.0
 40
35.0
 40
35.0
 40
35.0
 40
36.0
 40
36.0
 40
36.0
 40
36.0
 10
193.3039632161458
 20
186.1548733181423
 10
193.3039632161458
 20
186.1860514322916
 10
193.3039632161458
 20
219.6932223849826
 10
193.3039632161458
 20
219.6932223849826
 10
193.3039632161458
 20
219.6932223849826
 10
193.2974175347219
 20
219.7488606770833
 10
193.2974175347219
 20
219.7488606770833
 10
191.5293945312499
 20
235.455740017361
 10
175.1458984374999
 20
235.2467949761284
 10
174.9808783637151
 20
235.2428331163193
 10
174.9808783637151
 20
235.2428331163193
 10
125.8827555338541
 20
235.2430053710937
 10
125.8827555338541
 20
235.2430053710937
 10
125.8827555338541
 20
235.2430053710937
 10
125.8827555338541
 20
255.5278998480901
 10
125.8827555338541
 20
255.5278998480901
 10
125.8827555338541
 20
255.5278998480901
 10
84.5626247829861
 20
255.5278998480901
 10
84.5626247829861
 20
255.5278998480901
 10
84.5626247829861
 20
255.5278998480901
 10
84.55711263020829
 20
233.7919311523436
 10
84.55711263020829
 20
233.7919311523436
 10
84.55711263020829
 20
233.7919311523436
 10
64.42052951388888
 20
233.7919311523436
 10
64.42052951388888
 20
233.7919311523436
 10
64.42052951388888
 20
233.7919311523436
 10
64.41501736111111
 20
255.5278998480901
 10
64.41501736111111
 20
255.5278998480901
 10
64.41501736111111
 20
255.5278998480901
 10
23.91757541232637
 20
255.5278998480901
 10
23.91757541232637
 20
255.5278998480901
 10
23.91757541232637
 20
255.5278998480901
 10
23.91757541232637
 20
233.2393378363715
 10
23.91757541232637
 20
233.2393378363715
 10
23.91757541232637
 20
233.2393378363715
 10
43.65624999999999
 20
233.2393378363715
 10
43.65624999999999
 20
233.2393378363715
 10
43.65624999999999
 20
233.2393378363715
 10
43.65624999999999
 20
211.5188720703125
 10
43.65624999999999
 20
211.5188720703125
 10
43.65624999999999
 20
211.5188720703125
 10
23.91757541232637
 20
211.5188720703125
 10
23.91757541232637
 20
211.5188720703125
 10
23.91757541232637
 20
211.5188720703125
 10
23.91757541232637
 20
189.2303100585936
 10
23.91757541232637
 20
189.2303100585936
 10
23.91757541232637
 20
189.2303100585936
 10
64.41501736111111
 20
189.2303100585936
 10
64.41501736111111
 20
189.2303100585936
 10
64.41501736111111
 20
189.2303100585936
 10
64.42052951388888
 20
211.069976128472
 10
64.42052951388888
 20
211.069976128472
 10
64.42052951388888
 20
211.069976128472
 10
84.55711263020829
 20
211.069976128472
 10
84.55711263020829
 20
211.069976128472
 10
84.55711263020829
 20
211.069976128472
 10
84.5626247829861
 20
189.2303100585936
 10
84.5626247829861
 20
189.2303100585936
 10
84.5626247829861
 20
189.2303100585936
 10
125.8827555338541
 20
189.2303100585936
 10
125.8827555338541
 20
189.2303100585936
 10
125.8827555338541
 20
189.2303100585936
 10
125.8827555338541
 20
211.5188720703125
 10
125.8827555338541
 20
211.5188720703125
 10
125.8827555338541
 20
211.5188720703125
 10
105.3213921440971
 20
211.5188720703125
 10
105.3213921440971
 20
211.5188720703125
 10
105.3213921440971
 20
211.5188720703125
 10
105.3213921440971
 20
233.2393378363715
 10
105.3213921440971
 20
233.2393378363715
 10
105.3213921440971
 20
233.2393378363715
 10
175.0046495225693
 20
233.243127441406
 10
175.0046495225693
 20
233.243127441406
 10
175.6268337673611
 20
233.2560465494791
 10
189.7165852864583
 20
233.3962619357638
 10
191.3037407769094
 20
219.5690266927083
 10
191.3037407769094
 20
219.4332899305555
 10
191.3037407769094
 20
186.1142211914062
 10
191.3037407769094
 20
186.1142211914062
 10
191.3037407769094
 20
186.1142211914062
 10
191.3051188151039
 20
186.0880384657115
 10
191.3051188151039
 20
186.0880384657115
 10
191.3054633246526
 20
186.0787367078991
 10
191.3109754774304
 20
185.9566080729166
 10
191.3109754774304
 20
185.7399115668401
 10
191.3109754774304
 20
184.2090833875865
 10
191.0488037109374
 20
177.9643310546874
 10
186.9866916232638
 20
173.5652886284722
 10
184.2540418836804
 20
170.6064683702255
 10
180.3224989149304
 20
169.0308539496526
 10
175.300927734375
 20
168.8825425889756
 10
175.300927734375
 20
168.8825425889756
 10
107.0094889322916
 20
168.8828870985243
 10
107.0094889322916
 20
168.8828870985243
 10
107.0094889322916
 20
168.8828870985243
 10
107.0094889322916
 20
166.8830091688368
 10
107.0094889322916
 20
166.8830091688368
 10
107.0094889322916
 20
166.8830091688368
 10
175.3305555555555
 20
166.8830091688368
 10
175.3305555555555
 20
166.8830091688368
 10
180.9467502170138
 20
167.0485460069444
 10
185.3571614583333
 20
168.8448187934026
 10
188.4687717013888
 20
172.2223904079861
 10
192.9649658203124
 20
177.1034016927083
 10
193.3136094835069
 20
183.7202243381076
 10
193.3136094835069
 20
185.6520616319443
 10
193.3136094835069
 20
185.9247409396701
 10
193.3070638020833
 20
186.0868326822916
 10
193.3039632161458
 20
186.1548733181423
 97
        1
330
26A7
 75
     0
 76
     1
 98
        1
 10
0.0
 20
0.0
  0
HATCH
  5
26C8
330
26A6
100
AcDbEntity
  8
0
  6
Continuous
100
AcDbHatch
 10
0.0
 20
0.0
 30
0.0
210
0.0
220
0.0
230
1.0
  2
SOLID
 70
     1
 71
     1
 91
        2
 92
        1
 93
        1
 72
     4
 94
        3
 73
     0
 74
     0
 95
       23
 96
       19
 40
0.0
 40
0.0
 40
0.0
 40
0.0
 40
1.0
 40
1.0
 40
1.0
 40
2.0
 40
2.0
 40
2.0
 40
3.0
 40
3.0
 40
3.0
 40
4.0
 40
4.0
 40
4.0
 40
5.0
 40
5.0
 40
5.0
 40
6.0
 40
6.0
 40
6.0
 40
6.0
 10
148.6593153211804
 20
211.3929538302949
 10
148.6593153211804
 20
211.3929538302949
 10
148.6593153211804
 20
189.630802408854
 10
148.6593153211804
 20
189.630802408854
 10
148.6593153211804
 20
189.630802408854
 10
161.3152180989583
 20
189.630802408854
 10
161.3152180989583
 20
189.630802408854
 10
162.8431179470483
 20
189.630802408854
 10
170.4657362196178
 20
190.1880466037324
 10
170.4657362196178
 20
201.1911648220484
 10
170.4657362196178
 20
211.1288872612845
 10
162.3356553819444
 20
211.3914035373261
 10
162.2536621093749
 20
211.3927815755205
 10
162.2536621093749
 20
211.3927815755205
 10
149.6594265407986
 20
211.3929538302949
 10
149.6594265407986
 20
211.3929538302949
 10
149.6594265407986
 20
211.3929538302949
 10
148.6593153211804
 20
211.3929538302949
 10
148.6593153211804
 20
211.3929538302949
 97
        1
330
26A8
 92
       16
 93
        1
 72
     4
 94
        3
 73
     0
 74
     0
 95
       20
 96
       16
 40
0.0
 40
0.0
 40
0.0
 40
0.0
 40
1.0
 40
1.0
 40
1.0
 40
2.0
 40
2.0
 40
2.0
 40
3.0
 40
3.0
 40
3.0
 40
4.0
 40
4.0
 40
4.0
 40
5.0
 40
5.0
 40
5.0
 40
5.0
 10
162.2354031032984
 20
209.3930759006075
 10
162.467947048611
 20
209.3861857096352
 10
168.4655137803819
 20
209.1283203124997
 10
168.4655137803819
 20
201.1911648220484
 10
168.4655137803819
 20
192.3202162000866
 10
162.9926350911458
 20
191.6306803385414
 10
161.3152180989583
 20
191.6306803385414
 10
161.3152180989583
 20
191.6306803385414
 10
152.3310980902776
 20
191.6306803385414
 10
150.6595377604166
 20
191.6306803385414
 10
150.6595377604166
 20
193.3373806423609
 10
150.6595377604166
 20
207.686375596788
 10
150.6595377604166
 20
209.3930759006075
 10
152.3538357204859
 20
209.3930759006075
 10
162.2354031032984
 20
209.3930759006075
 10
162.2354031032984
 20
209.3930759006075
 97
        0
 75
     0
 76
     1
 98
        0
  0
ENDBLK
  5
26CA
330
26A6
100
AcDbEntity
  8
0
100
AcDbBlockEnd
  0
BLOCK
  5
26CD
330
26CB
100
AcDbEntity
  8
0
100
AcDbBlockBegin
  2
HD logo-new
 70
     0
 10
0.0
 20
0.0
 30
0.0
  3
HD logo-new
  1

  0
INSERT
  5
26CC
330
26CB
100
AcDbEntity
  8
0
 62
     3
100
AcDbBlockReference
  2
HD_LLC_logo_OT5
 10
-27.1607188578505
 20
-68.37367811463031
 30
0.0
 41
0.2999999999999971
 42
0.3000000000000007
 43
0.3
  0
ENDBLK
  5
26CE
330
26CB
100
AcDbEntity
  8
0
100
AcDbBlockEnd
  0
BLOCK
  5
26D1
330
26CF
100
AcDbEntity
  8
0
100
AcDbBlockBegin
  2
HD Logo
 70
     0
 10
0.0
 20
0.0
 30
0.0
  3
HD Logo
  1

  0
INSERT
  5
26D0
330
26CF
100
AcDbEntity
  8
0
100
AcDbBlockReference
  2
HD logo-new
 10
0.9700256734946606
 20
7.273795608420527
 30
0.0
  0
ENDBLK
  5
26D2
330
26CF
100
AcDbEntity
  8
0
100
AcDbBlockEnd
  0
BLOCK
  5
26E9
330
26E7
100
AcDbEntity
  8
0
100
AcDbBlockBegin
  2
Harmonic Drive LLC
 70
     0
 10
0.0
 20
0.0
 30
0.0
  3
Harmonic Drive LLC
  1

  0
MTEXT
  5
26E8
330
26E7
100
AcDbEntity
  8
0
100
AcDbMText
 10
8.730232253264317
 20
-1.454758693481394
 30
0.0
 40
5.25
 41
158.5992
 71
     5
 72
     5
  1
{\fArial|b0|i0|c0|p34;Harmonic Drive LLC\P800-921-3332\Pwww.harmonicdrive.net}
 73
     1
 44
1.0
  0
ENDBLK
  5
26EA
330
26E7
100
AcDbEntity
  8
0
100
AcDbBlockEnd
  0
BLOCK
  5
26FC
330
26FA
100
AcDbEntity
  8
0
100
AcDbBlockBegin
  2
HD LLC
 70
     0
 10
0.0
 20
0.0
 30
0.0
  3
HD LLC
  1

  0
MTEXT
  5
26FB
330
26FA
100
AcDbEntity
  8
0
100
AcDbMText
 10
-2.314970886968865
 20
1.247205085865914
 30
0.0
 40
5.675387507387601
 41
236.1828726592229
 71
     5
 72
     5
  1
Harmonic Drive LLC\P800-921-3332\Pwww.harmonicdrive.net
 73
     1
 44
1.0
  0
ENDBLK
  5
26FD
330
26FA
100
AcDbEntity
  8
0
100
AcDbBlockEnd
  0
BLOCK
  5
2707
330
2704
100
AcDbEntity
  8
0
100
AcDbBlockBegin
  2
NTC
 70
     0
 10
0.0
 20
0.0
 30
0.0
  3
NTC
  1

  0
LWPOLYLINE
  5
2705
330
2704
100
AcDbEntity
  8
0
100
AcDbPolyline
 90
        8
 70
     1
 43
0.0
 10
4.581008201925953
 20
-10.78862239032818
 10
319.3921777697513
 20
-10.78862239032818
 42
-0.4142135623730951
 10
324.9046777697513
 20
-16.30112239032816
 10
324.9046777697513
 20
-117.4075202476924
 42
-0.4142135623730951
 10
319.3921777697513
 20
-122.9200202476925
 10
4.581008201925837
 20
-122.9200202476925
 42
-0.4142135623730951
 10
-0.9314917980741483
 20
-117.4075202476924
 10
-0.9314917980740915
 20
-16.30112239032816
 42
-0.4142135623730951
  0
MTEXT
  5
2706
330
2704
100
AcDbEntity
  8
0
  6
Continuous
370
    30
100
AcDbMText
 10
21.65307678143926
 20
-17.4535155144544
 30
0.0
 40
8.75
 41
294.5432999999998
 71
     1
 72
     5
  3
{\fTxt|b1|i0|c0|p2;Notice:\P\Ftxt.shx;\H0.5714x;All specifications and dimensions shown in the drawing are subject to change without notice. This drawing is the property of Harmonic Drive LLC.   This data is believed to be accurate, however, Harmonic
  1
 Drive LLC assumes no liability for any errors or omissions in the specifications, models, or drawings.\P\PHarmonic Drive LLC\PTel: 800-921-3332\Pwww.harmonicdrive.net}
 73
     1
 44
1.0
  0
ENDBLK
  5
2708
330
2704
100
AcDbEntity
  8
0
100
AcDbBlockEnd
  0
ENDSEC
  0
SECTION
  2
ENTITIES
  0
LINE
  5
2429
330
2409
100
AcDbEntity
  8
1
 62
     7
100
AcDbLine
 10
191.2579606916914
 20
238.514565537033
 30
0.0
 11
192.0679606916915
 21
238.514565537033
 31
0.0
  0
LINE
  5
242A
330
2409
100
AcDbEntity
  8
1
 62
     7
100
AcDbLine
 10
191.0579606916915
 20
238.3145655370328
 30
0.0
 11
191.0579606916915
 21
236.7920218945485
 31
0.0
  0
LINE
  5
242B
330
2409
100
AcDbEntity
  8
1
 62
     7
100
AcDbLine
 10
190.8866081785701
 20
235.4448001513774
 30
0.0
 11
191.0579606916915
 21
236.7920218945485
 31
0.0
  0
LINE
  5
242C
330
2409
100
AcDbEntity
  8
1
 62
     7
100
AcDbLine
 10
191.0850098273503
 20
235.2195655370328
 30
0.0
 11
192.0679606916915
 21
235.2195655370328
 31
0.0
  0
LINE
  5
242D
330
2409
100
AcDbEntity
  8
1
 62
     7
100
AcDbLine
 10
192.0679606916915
 20
238.514565537033
 30
0.0
 11
192.0679606916915
 21
235.2195655370328
 31
0.0
  0
LINE
  5
242E
330
2409
100
AcDbEntity
  8
1
 62
     7
100
AcDbLine
 10
192.8666155049338
 20
235.2195655370328
 30
0.0
 11
192.0679606916915
 21
235.2195655370328
 31
0.0
  0
LINE
  5
242F
330
2409
100
AcDbEntity
  8
1
 62
     7
100
AcDbLine
 10
192.7778378027764
 20
238.4959767506785
 30
0.0
 11
192.0679606916915
 21
238.514565537033
 31
0.0
  0
LINE
  5
2430
330
2409
100
AcDbEntity
  8
1
 62
     7
100
AcDbLine
 10
192.0679606916915
 20
192.9245655370331
 30
0.0
 11
192.7778378027764
 21
192.9431543233874
 31
0.0
  0
LINE
  5
2431
330
2409
100
AcDbEntity
  8
1
 62
     7
100
AcDbLine
 10
192.0679606916915
 20
196.2195655370328
 30
0.0
 11
192.8666155049338
 21
196.2195655370328
 31
0.0
  0
LINE
  5
2432
330
2409
100
AcDbEntity
  8
1
 62
     7
100
AcDbLine
 10
192.0679606916915
 20
196.2195655370328
 30
0.0
 11
192.0679606916915
 21
192.9245655370331
 31
0.0
  0
LINE
  5
2433
330
2409
100
AcDbEntity
  8
1
 62
     7
100
AcDbLine
 10
192.0679606916915
 20
196.2195655370328
 30
0.0
 11
191.0850098273503
 21
196.2195655370328
 31
0.0
  0
LINE
  5
2434
330
2409
100
AcDbEntity
  8
1
 62
     7
100
AcDbLine
 10
191.0579606916915
 20
194.6471091795178
 30
0.0
 11
190.8866081785701
 21
195.9943309226881
 31
0.0
  0
LINE
  5
2435
330
2409
100
AcDbEntity
  8
1
 62
     7
100
AcDbLine
 10
191.0579606916915
 20
194.6471091795178
 30
0.0
 11
191.0579606916915
 21
193.1245655370328
 31
0.0
  0
LINE
  5
2436
330
2409
100
AcDbEntity
  8
1
 62
     7
100
AcDbLine
 10
192.0679606916915
 20
192.9245655370331
 30
0.0
 11
191.2579606916914
 21
192.9245655370331
 31
0.0
  0
LINE
  5
2437
330
2409
100
AcDbEntity
  8
1
 62
     7
100
AcDbLine
 10
195.6088310541324
 20
239.0370655370329
 30
0.0
 11
197.9692106916915
 21
239.0370655370329
 31
0.0
  0
LINE
  5
2438
330
2409
100
AcDbEntity
  8
1
 62
     7
100
AcDbLine
 10
195.6529550291628
 20
234.7945655370331
 30
0.0
 11
198.1692106916914
 21
234.7945655370331
 31
0.0
  0
LINE
  5
2439
330
2409
100
AcDbEntity
  8
1
 62
     7
100
AcDbLine
 10
198.6142106916916
 20
234.494565537033
 30
0.0
 11
198.6142106916916
 21
233.7995655370331
 31
0.0
  0
LINE
  5
243A
330
2409
100
AcDbEntity
  8
1
 62
     7
100
AcDbLine
 10
194.5492106916915
 20
233.4995655370331
 30
0.0
 11
198.3142106916915
 21
233.4995655370331
 31
0.0
  0
LINE
  5
243B
330
2409
100
AcDbEntity
  8
1
 62
     7
100
AcDbLine
 10
197.9692106916915
 20
239.0370655370329
 30
0.0
 11
198.1692106916914
 21
239.2370655370331
 31
0.0
  0
LINE
  5
243C
330
2409
100
AcDbEntity
  8
1
 62
     7
100
AcDbLine
 10
198.6142106916916
 20
234.494565537033
 30
0.0
 11
198.3142106916915
 21
234.7945655370331
 31
0.0
  0
LINE
  5
243D
330
2409
100
AcDbEntity
  8
1
 62
     7
100
AcDbLine
 10
198.3142106916915
 20
233.4995655370331
 30
0.0
 11
198.6142106916916
 21
233.7995655370331
 31
0.0
  0
LINE
  5
243E
330
2409
100
AcDbEntity
  8
1
 62
     7
100
AcDbLine
 10
194.5492106916915
 20
240.2560655370331
 30
0.0
 11
197.6692106916916
 21
240.2560655370331
 31
0.0
  0
LINE
  5
243F
330
2409
100
AcDbEntity
  8
1
 62
     7
100
AcDbLine
 10
198.1692106916914
 20
239.2370655370331
 30
0.0
 11
198.1692106916914
 21
239.2637948957236
 31
0.0
  0
LINE
  5
2440
330
2409
100
AcDbEntity
  8
1
 62
     7
100
AcDbLine
 10
197.6692106916916
 20
240.2560655370331
 30
0.0
 11
198.1692106916914
 21
239.9673904024383
 31
0.0
  0
LINE
  5
2441
330
2409
100
AcDbEntity
  8
1
 62
     7
100
AcDbLine
 10
198.1692106916914
 20
239.2637948957236
 30
0.0
 11
198.1692106916914
 21
234.7945655370331
 31
0.0
  0
LINE
  5
2442
330
2409
100
AcDbEntity
  8
1
 62
     7
100
AcDbLine
 10
198.1692106916914
 20
239.2637948957236
 30
0.0
 11
198.1692106916914
 21
239.9673904024383
 31
0.0
  0
LINE
  5
2443
330
2409
100
AcDbEntity
  8
1
 62
     7
100
AcDbLine
 10
198.1692106916914
 20
234.7945655370331
 30
0.0
 11
198.3142106916915
 21
234.7945655370331
 31
0.0
  0
LINE
  5
2444
330
2409
100
AcDbEntity
  8
1
 62
     7
100
AcDbLine
 10
190.7842106916915
 20
234.7945655370331
 30
0.0
 11
190.9292106916915
 21
234.7945655370331
 31
0.0
  0
LINE
  5
2445
330
2409
100
AcDbEntity
  8
1
 62
     7
100
AcDbLine
 10
190.9292106916915
 20
239.9673904024383
 30
0.0
 11
190.9292106916915
 21
239.2637948957236
 31
0.0
  0
LINE
  5
2446
330
2409
100
AcDbEntity
  8
1
 62
     7
100
AcDbLine
 10
190.9292106916915
 20
234.7945655370331
 30
0.0
 11
190.9292106916915
 21
239.2637948957236
 31
0.0
  0
LINE
  5
2447
330
2409
100
AcDbEntity
  8
1
 62
     7
100
AcDbLine
 10
190.9292106916915
 20
239.9673904024383
 30
0.0
 11
191.4292106916915
 21
240.2560655370331
 31
0.0
  0
LINE
  5
2448
330
2409
100
AcDbEntity
  8
1
 62
     7
100
AcDbLine
 10
190.9292106916915
 20
239.2637948957236
 30
0.0
 11
190.9292106916915
 21
239.2370655370331
 31
0.0
  0
LINE
  5
2449
330
2409
100
AcDbEntity
  8
1
 62
     7
100
AcDbLine
 10
191.4292106916915
 20
240.2560655370331
 30
0.0
 11
194.5492106916915
 21
240.2560655370331
 31
0.0
  0
LINE
  5
244A
330
2409
100
AcDbEntity
  8
1
 62
     7
100
AcDbLine
 10
190.4842106916914
 20
233.7995655370331
 30
0.0
 11
190.7842106916915
 21
233.4995655370331
 31
0.0
  0
LINE
  5
244B
330
2409
100
AcDbEntity
  8
1
 62
     7
100
AcDbLine
 10
190.7842106916915
 20
234.7945655370331
 30
0.0
 11
190.4842106916914
 21
234.494565537033
 31
0.0
  0
LINE
  5
244C
330
2409
100
AcDbEntity
  8
1
 62
     7
100
AcDbLine
 10
190.9292106916915
 20
239.2370655370331
 30
0.0
 11
191.1292106916915
 21
239.0370655370329
 31
0.0
  0
LINE
  5
244D
330
2409
100
AcDbEntity
  8
1
 62
     7
100
AcDbLine
 10
190.7842106916915
 20
233.4995655370331
 30
0.0
 11
194.5492106916915
 21
233.4995655370331
 31
0.0
  0
LINE
  5
244E
330
2409
100
AcDbEntity
  8
1
 62
     7
100
AcDbLine
 10
190.4842106916914
 20
233.7995655370331
 30
0.0
 11
190.4842106916914
 21
234.494565537033
 31
0.0
  0
LINE
  5
244F
330
2409
100
AcDbEntity
  8
1
 62
     7
100
AcDbLine
 10
190.9292106916915
 20
234.7945655370331
 30
0.0
 11
193.4454663542202
 21
234.7945655370331
 31
0.0
  0
LINE
  5
2450
330
2409
100
AcDbEntity
  8
1
 62
     7
100
AcDbLine
 10
191.1292106916915
 20
239.0370655370329
 30
0.0
 11
193.4895903292504
 21
239.0370655370329
 31
0.0
  0
LINE
  5
2451
330
2409
100
AcDbEntity
  8
1
 62
     7
100
AcDbLine
 10
193.4895903292504
 20
192.402065537033
 30
0.0
 11
191.1292106916915
 21
192.402065537033
 31
0.0
  0
LINE
  5
2452
330
2409
100
AcDbEntity
  8
1
 62
     7
100
AcDbLine
 10
193.4454663542202
 20
196.6445655370328
 30
0.0
 11
190.9292106916915
 21
196.6445655370328
 31
0.0
  0
LINE
  5
2453
330
2409
100
AcDbEntity
  8
1
 62
     7
100
AcDbLine
 10
190.4842106916914
 20
196.9445655370329
 30
0.0
 11
190.4842106916914
 21
197.639565537033
 31
0.0
  0
LINE
  5
2454
330
2409
100
AcDbEntity
  8
1
 62
     7
100
AcDbLine
 10
194.5492106916915
 20
197.9395655370328
 30
0.0
 11
190.7842106916915
 21
197.9395655370328
 31
0.0
  0
LINE
  5
2455
330
2409
100
AcDbEntity
  8
1
 62
     7
100
AcDbLine
 10
191.1292106916915
 20
192.402065537033
 30
0.0
 11
190.9292106916915
 21
192.202065537033
 31
0.0
  0
LINE
  5
2456
330
2409
100
AcDbEntity
  8
1
 62
     7
100
AcDbLine
 10
190.4842106916914
 20
196.9445655370329
 30
0.0
 11
190.7842106916915
 21
196.6445655370328
 31
0.0
  0
LINE
  5
2457
330
2409
100
AcDbEntity
  8
1
 62
     7
100
AcDbLine
 10
190.7842106916915
 20
197.9395655370328
 30
0.0
 11
190.4842106916914
 21
197.639565537033
 31
0.0
  0
LINE
  5
2458
330
2409
100
AcDbEntity
  8
1
 62
     7
100
AcDbLine
 10
194.5492106916915
 20
191.183065537033
 30
0.0
 11
191.4292106916915
 21
191.183065537033
 31
0.0
  0
LINE
  5
2459
330
2409
100
AcDbEntity
  8
1
 62
     7
100
AcDbLine
 10
190.9292106916915
 20
192.202065537033
 30
0.0
 11
190.9292106916915
 21
192.1753361783426
 31
0.0
  0
LINE
  5
245A
330
2409
100
AcDbEntity
  8
1
 62
     7
100
AcDbLine
 10
191.4292106916915
 20
191.183065537033
 30
0.0
 11
190.9292106916915
 21
191.4717406716279
 31
0.0
  0
LINE
  5
245B
330
2409
100
AcDbEntity
  8
1
 62
     7
100
AcDbLine
 10
190.9292106916915
 20
192.1753361783426
 30
0.0
 11
190.9292106916915
 21
196.6445655370328
 31
0.0
  0
LINE
  5
245C
330
2409
100
AcDbEntity
  8
1
 62
     7
100
AcDbLine
 10
190.9292106916915
 20
192.1753361783426
 30
0.0
 11
190.9292106916915
 21
191.4717406716279
 31
0.0
  0
LINE
  5
245D
330
2409
100
AcDbEntity
  8
1
 62
     7
100
AcDbLine
 10
190.9292106916915
 20
196.6445655370328
 30
0.0
 11
190.7842106916915
 21
196.6445655370328
 31
0.0
  0
LINE
  5
245E
330
2409
100
AcDbEntity
  8
1
 62
     7
100
AcDbLine
 10
198.3142106916915
 20
196.6445655370328
 30
0.0
 11
198.1692106916914
 21
196.6445655370328
 31
0.0
  0
LINE
  5
245F
330
2409
100
AcDbEntity
  8
1
 62
     7
100
AcDbLine
 10
198.1692106916914
 20
191.4717406716279
 30
0.0
 11
198.1692106916914
 21
192.1753361783426
 31
0.0
  0
LINE
  5
2460
330
2409
100
AcDbEntity
  8
1
 62
     7
100
AcDbLine
 10
198.1692106916914
 20
196.6445655370328
 30
0.0
 11
198.1692106916914
 21
192.1753361783426
 31
0.0
  0
LINE
  5
2461
330
2409
100
AcDbEntity
  8
1
 62
     7
100
AcDbLine
 10
198.1692106916914
 20
191.4717406716279
 30
0.0
 11
197.6692106916916
 21
191.183065537033
 31
0.0
  0
LINE
  5
2462
330
2409
100
AcDbEntity
  8
1
 62
     7
100
AcDbLine
 10
198.1692106916914
 20
192.1753361783426
 30
0.0
 11
198.1692106916914
 21
192.202065537033
 31
0.0
  0
LINE
  5
2463
330
2409
100
AcDbEntity
  8
1
 62
     7
100
AcDbLine
 10
197.6692106916916
 20
191.183065537033
 30
0.0
 11
194.5492106916915
 21
191.183065537033
 31
0.0
  0
LINE
  5
2464
330
2409
100
AcDbEntity
  8
1
 62
     7
100
AcDbLine
 10
198.6142106916916
 20
197.639565537033
 30
0.0
 11
198.3142106916915
 21
197.9395655370328
 31
0.0
  0
LINE
  5
2465
330
2409
100
AcDbEntity
  8
1
 62
     7
100
AcDbLine
 10
198.3142106916915
 20
196.6445655370328
 30
0.0
 11
198.6142106916916
 21
196.9445655370329
 31
0.0
  0
LINE
  5
2466
330
2409
100
AcDbEntity
  8
1
 62
     7
100
AcDbLine
 10
198.1692106916914
 20
192.202065537033
 30
0.0
 11
197.9692106916915
 21
192.402065537033
 31
0.0
  0
LINE
  5
2467
330
2409
100
AcDbEntity
  8
1
 62
     7
100
AcDbLine
 10
198.3142106916915
 20
197.9395655370328
 30
0.0
 11
194.5492106916915
 21
197.9395655370328
 31
0.0
  0
LINE
  5
2468
330
2409
100
AcDbEntity
  8
1
 62
     7
100
AcDbLine
 10
198.6142106916916
 20
197.639565537033
 30
0.0
 11
198.6142106916916
 21
196.9445655370329
 31
0.0
  0
LINE
  5
2469
330
2409
100
AcDbEntity
  8
1
 62
     7
100
AcDbLine
 10
198.1692106916914
 20
196.6445655370328
 30
0.0
 11
195.6529550291628
 21
196.6445655370328
 31
0.0
  0
LINE
  5
246A
330
2409
100
AcDbEntity
  8
1
 62
     7
100
AcDbLine
 10
197.9692106916915
 20
192.402065537033
 30
0.0
 11
195.6088310541324
 21
192.402065537033
 31
0.0
  0
LINE
  5
246F
330
2409
100
AcDbEntity
  8
1
  6
DIVIDE
 62
     7
100
AcDbLine
 10
200.1592106915624
 20
235.3392027484713
 30
0.0
 11
200.1592106915624
 21
242.2220655370332
 31
0.0
  0
LINE
  5
2470
330
2409
100
AcDbEntity
  8
1
  6
DIVIDE
 62
     7
100
AcDbLine
 10
200.1592106915624
 20
242.2220655370332
 30
0.0
 11
198.6592106915624
 21
242.2220655370332
 31
0.0
  0
LINE
  5
2471
330
2409
100
AcDbEntity
  8
1
  6
DIVIDE
 62
     7
100
AcDbLine
 10
200.1592106915624
 20
235.3392027484713
 30
0.0
 11
200.1592106915624
 21
242.2220655370332
 31
0.0
  0
LINE
  5
2472
330
2409
100
AcDbEntity
  8
1
  6
DIVIDE
 62
     7
100
AcDbLine
 10
170.6592106466206
 20
235.7997611893013
 30
0.0
 11
170.6592106466206
 21
242.2220655370332
 31
0.0
  0
LINE
  5
2473
330
2409
100
AcDbEntity
  8
1
  6
DIVIDE
 62
     7
100
AcDbLine
 10
170.6592106466206
 20
242.2220655370332
 30
0.0
 11
175.8536608769371
 21
242.2220655370332
 31
0.0
  0
LINE
  5
2474
330
2409
100
AcDbEntity
  8
1
 62
     7
100
AcDbLine
 10
172.1082106916916
 20
199.522065537033
 30
0.0
 11
172.1082106916916
 21
192.3370655370328
 31
0.0
  0
LINE
  5
2475
330
2409
100
AcDbEntity
  8
1
 62
     7
100
AcDbLine
 10
172.1082106916916
 20
239.107065537033
 30
0.0
 11
172.1082106916916
 21
231.922065537033
 31
0.0
  0
LINE
  5
2476
330
2409
100
AcDbEntity
  8
1
 62
     7
100
AcDbLine
 10
198.6592106916991
 20
244.9896987799836
 30
0.0
 11
198.6592106916934
 21
241.9535655370331
 31
0.0
  0
LINE
  5
2477
330
2409
100
AcDbEntity
  8
1
 62
     7
100
AcDbLine
 10
188.1592106916915
 20
242.3221910677689
 30
0.0
 11
188.1592106916844
 21
241.9535655370331
 31
0.0
  0
LINE
  5
2478
330
2409
100
AcDbEntity
  8
1
 62
     7
100
AcDbLine
 10
188.5592106917133
 20
242.7220651315634
 30
0.0
 11
188.1592106916999
 21
242.3220651315781
 31
0.0
  0
LINE
  5
2479
330
2409
100
AcDbEntity
  8
1
 62
     7
100
AcDbLine
 10
195.1587532946748
 20
244.9896987799836
 30
0.0
 11
195.1587532946748
 21
248.4896987799833
 31
0.0
  0
LINE
  5
247A
330
2409
100
AcDbEntity
  8
1
 62
     7
100
AcDbLine
 10
195.1587532946748
 20
244.9896987799836
 30
0.0
 11
198.6592106916991
 21
244.9896987799836
 31
0.0
  0
LINE
  5
247B
330
2409
100
AcDbEntity
  8
1
 62
     7
100
AcDbLine
 10
194.8412106466206
 20
245.5396987799835
 30
0.0
 11
195.1587532946748
 21
244.9896987799836
 31
0.0
  0
LINE
  5
247C
330
2409
100
AcDbEntity
  8
1
 62
     7
100
AcDbLine
 10
194.8412106466206
 20
247.9396987799836
 30
0.0
 11
194.8412106466206
 21
245.5396987799835
 31
0.0
  0
LINE
  5
247D
330
2409
100
AcDbEntity
  8
1
 62
     7
100
AcDbLine
 10
194.8412106466206
 20
247.9396987799836
 30
0.0
 11
191.1592106466206
 21
247.9396987799836
 31
0.0
  0
LINE
  5
247E
330
2409
100
AcDbEntity
  8
1
 62
     7
100
AcDbLine
 10
195.1587532946748
 20
248.4896987799833
 30
0.0
 11
198.6592106916991
 21
248.4896987799833
 31
0.0
  0
LINE
  5
247F
330
2409
100
AcDbEntity
  8
1
 62
     7
100
AcDbLine
 10
195.1587532946748
 20
248.4896987799833
 30
0.0
 11
194.8412106466206
 21
247.9396987799836
 31
0.0
  0
LINE
  5
2480
330
2409
100
AcDbEntity
  8
0
 62
     7
100
AcDbLine
 10
198.6592106916991
 20
248.4896987799833
 30
0.0
 11
198.6592106917188
 21
250.3220650173819
 31
0.0
  0
LINE
  5
2481
330
2409
100
AcDbEntity
  8
0
 62
     7
100
AcDbLine
 10
191.1592106466206
 20
248.2396987799833
 30
0.0
 11
191.1592106466206
 21
250.3220650174835
 31
0.0
  0
LINE
  5
2482
330
2409
100
AcDbEntity
  8
0
 62
     7
100
AcDbLine
 10
198.6592106916991
 20
244.9896987799836
 30
0.0
 11
198.6592106916991
 21
248.4896987799833
 31
0.0
  0
LINE
  5
2483
330
2409
100
AcDbEntity
  8
0
 62
     7
100
AcDbLine
 10
191.1592106466206
 20
243.0220651269697
 30
0.0
 11
191.1592106466206
 21
245.2396987799835
 31
0.0
  0
LINE
  5
2484
330
2409
100
AcDbEntity
  8
1
  6
DASHDOT
 62
     3
100
AcDbLine
 10
189.9025395813343
 20
246.7396987799829
 30
0.0
 11
200.1663127499011
 21
246.7396987799829
 31
0.0
  0
LINE
  5
2485
330
2409
100
AcDbEntity
  8
0
 62
     7
100
AcDbLine
 10
191.1592106466206
 20
245.5396987799835
 30
0.0
 11
191.1592106466206
 21
245.2396987799835
 31
0.0
  0
LINE
  5
2486
330
2409
100
AcDbEntity
  8
1
 62
     7
100
AcDbLine
 10
191.1592106466206
 20
245.5396987799835
 30
0.0
 11
194.8412106466206
 21
245.5396987799835
 31
0.0
  0
LINE
  5
2487
330
2409
100
AcDbEntity
  8
0
 62
     7
100
AcDbLine
 10
191.1592106466206
 20
247.9396987799836
 30
0.0
 11
191.1592106466206
 21
245.5396987799835
 31
0.0
  0
LINE
  5
2488
330
2409
100
AcDbEntity
  8
1
 62
     3
100
AcDbLine
 10
195.0071058842141
 20
245.2396987799835
 30
0.0
 11
191.1592106466206
 21
245.2396987799835
 31
0.0
  0
LINE
  5
2489
330
2409
100
AcDbEntity
  8
0
 62
     7
100
AcDbLine
 10
191.1592106466206
 20
248.2396987799833
 30
0.0
 11
191.1592106466206
 21
247.9396987799836
 31
0.0
  0
LINE
  5
248A
330
2409
100
AcDbEntity
  8
1
 62
     3
100
AcDbLine
 10
191.1592106466206
 20
248.2396987799833
 30
0.0
 11
195.0144157273775
 21
248.2396987799833
 31
0.0
  0
LINE
  5
248B
330
2409
100
AcDbEntity
  8
2
  6
DASHDOT
 62
     3
100
AcDbLine
 10
313.421711347737
 20
215.7396987799831
 30
0.0
 11
313.1592113477369
 21
215.7396987799831
 31
0.0
  0
LINE
  5
248C
330
2409
100
AcDbEntity
  8
1
  6
CENTER
 62
     3
100
AcDbLine
 10
90.68647475186613
 20
201.1885961427247
 30
0.0
 11
88.96439930617871
 21
205.3460540390072
 31
0.0
  0
LINE
  5
248D
330
2409
100
AcDbEntity
  8
1
  6
CENTER
 62
     3
100
AcDbLine
 10
78.63194663205381
 20
230.2908014167011
 30
0.0
 11
80.35402207774145
 21
226.1333435204188
 31
0.0
  0
LINE
  5
248E
330
2409
100
AcDbEntity
  8
1
  6
CENTER
 62
     3
100
AcDbLine
 10
96.06130741127131
 20
227.141795499182
 30
0.0
 11
90.22767646648228
 21
221.3081645543929
 31
0.0
  0
LINE
  5
248F
330
2409
100
AcDbEntity
  8
1
  6
CENTER
 62
     3
100
AcDbLine
 10
96.06130741127131
 20
204.3376020607841
 30
0.0
 11
90.22767646648228
 21
210.1712330055732
 31
0.0
  0
LINE
  5
2490
330
2409
100
AcDbEntity
  8
1
  6
CENTER
 62
     3
100
AcDbLine
 10
73.25711397287344
 20
204.3376020607841
 30
0.0
 11
79.09074491766253
 21
210.1712330055732
 31
0.0
  0
LINE
  5
2491
330
2409
100
AcDbEntity
  8
1
  6
CENTER
 62
     3
100
AcDbLine
 10
73.25711397287344
 20
227.141795499182
 30
0.0
 11
79.09074491766244
 21
221.3081645543929
 31
0.0
  0
LINE
  5
2492
330
2409
100
AcDbEntity
  8
1
 62
     7
100
AcDbLine
 10
281.6592113692546
 20
219.9823394024424
 30
0.0
 11
281.6592113692546
 21
221.6396986901058
 31
0.0
  0
LINE
  5
2493
330
2409
100
AcDbEntity
  8
1
 62
     7
100
AcDbLine
 10
281.6592113692546
 20
221.6396986901058
 30
0.0
 11
284.6592113234251
 21
221.6396986901058
 31
0.0
  0
LINE
  5
2494
330
2409
100
AcDbEntity
  8
1
 62
     7
100
AcDbLine
 10
284.6592113234251
 20
221.6396986901058
 30
0.0
 11
284.6592113234251
 21
219.9823394032044
 31
0.0
  0
LINE
  5
2495
330
2409
100
AcDbEntity
  8
0
 62
     7
100
AcDbLine
 10
190.8592106511781
 20
242.7220651314764
 30
0.0
 11
188.5592106917133
 21
242.7220651315634
 31
0.0
  0
LINE
  5
2496
330
2409
100
AcDbEntity
  8
0
 62
     7
100
AcDbLine
 10
191.5592106406878
 20
250.7220650115506
 30
0.0
 11
191.1592106466206
 21
250.3220650174835
 31
0.0
  0
LINE
  5
2497
330
2409
100
AcDbEntity
  8
0
 62
     7
100
AcDbLine
 10
198.2592106976984
 20
250.7220650112713
 30
0.0
 11
191.5592106406878
 21
250.7220650115506
 31
0.0
  0
LINE
  5
2498
330
2409
100
AcDbEntity
  8
0
 62
     7
100
AcDbLine
 10
198.6592106917188
 20
250.3220650173819
 30
0.0
 11
198.2592106976984
 21
250.7220650112713
 31
0.0
  0
LINE
  5
2499
330
2409
100
AcDbEntity
  8
0
 62
     7
100
AcDbLine
 10
200.9592106915389
 20
203.2220657247888
 30
0.0
 11
200.9592106915389
 21
205.2220656947437
 31
0.0
  0
LINE
  5
249A
330
2409
100
AcDbEntity
  8
0
 62
     7
100
AcDbLine
 10
199.6492106136204
 20
203.2220657247888
 30
0.0
 11
200.9592106915389
 21
203.2220657247888
 31
0.0
  0
LINE
  5
249B
330
2409
100
AcDbEntity
  8
0
 62
     7
100
AcDbLine
 10
199.6492106136204
 20
205.2220656947437
 30
0.0
 11
199.6492106136204
 21
203.2220657247888
 31
0.0
  0
LINE
  5
249C
330
2409
100
AcDbEntity
  8
0
 62
     7
100
AcDbLine
 10
199.6492106136204
 20
204.7220657022803
 30
0.0
 11
198.5592106916481
 21
204.7220657022803
 31
0.0
  0
LINE
  5
249D
330
2409
100
AcDbEntity
  8
0
 62
     7
100
AcDbLine
 10
199.6492106136204
 20
201.7220657472971
 30
0.0
 11
199.6492106136204
 21
205.2220656947437
 31
0.0
  0
LINE
  5
249E
330
2409
100
AcDbEntity
  8
0
 62
     7
100
AcDbLine
 10
198.5592106916481
 20
201.7220657472971
 30
0.0
 11
199.6492106136204
 21
201.7220657472971
 31
0.0
  0
LINE
  5
249F
330
2409
100
AcDbEntity
  8
0
 62
     7
100
AcDbLine
 10
198.5592106916481
 20
204.7220657022803
 30
0.0
 11
198.5592106916481
 21
201.7220657472971
 31
0.0
  0
LINE
  5
24A0
330
2409
100
AcDbEntity
  8
0
 62
     7
100
AcDbLine
 10
198.5592106916481
 20
226.7220653718314
 30
0.0
 11
199.6492106136204
 21
226.7220653718314
 31
0.0
  0
LINE
  5
24A1
330
2409
100
AcDbEntity
  8
0
 62
     7
100
AcDbLine
 10
200.9592106915389
 20
228.2220653493053
 30
0.0
 11
199.6492106136204
 21
228.2220653493053
 31
0.0
  0
LINE
  5
24A2
330
2409
100
AcDbEntity
  8
0
 62
     7
100
AcDbLine
 10
200.9592106915389
 20
226.2220653793324
 30
0.0
 11
200.9592106915389
 21
228.2220653493053
 31
0.0
  0
LINE
  5
24A3
330
2409
100
AcDbEntity
  8
0
 62
     7
100
AcDbLine
 10
199.6492106136204
 20
229.7220653267813
 30
0.0
 11
199.6492106136204
 21
226.2220653793324
 31
0.0
  0
LINE
  5
24A4
330
2409
100
AcDbEntity
  8
0
 62
     7
100
AcDbLine
 10
198.5592106916481
 20
229.7220653267813
 30
0.0
 11
199.6492106136204
 21
229.7220653267813
 31
0.0
  0
LINE
  5
24A5
330
2409
100
AcDbEntity
  8
0
 62
     7
100
AcDbLine
 10
198.5592106916481
 20
226.7220653718314
 30
0.0
 11
198.5592106916481
 21
229.7220653267813
 31
0.0
  0
LINE
  5
24A6
330
2409
100
AcDbEntity
  8
0
 62
     7
100
AcDbLine
 10
183.0592106916558
 20
211.2220656046343
 30
0.0
 11
203.1592106916916
 21
211.2220656046343
 31
0.0
  0
LINE
  5
24A7
330
2409
100
AcDbEntity
  8
0
 62
     7
100
AcDbLine
 10
203.1592106916916
 20
220.2220654694444
 30
0.0
 11
183.0592106916558
 21
220.2220654694444
 31
0.0
  0
LINE
  5
24A8
330
2409
100
AcDbEntity
  8
0
 62
     7
100
AcDbLine
 10
183.0592106916558
 20
221.6220654484128
 30
0.0
 11
203.1592106916916
 21
221.6220654484128
 31
0.0
  0
LINE
  5
24A9
330
2409
100
AcDbEntity
  8
0
 62
     7
100
AcDbLine
 10
183.0592106916558
 20
204.9720656984993
 30
0.0
 11
186.4592106916559
 21
204.9720656984993
 31
0.0
  0
LINE
  5
24AA
330
2409
100
AcDbEntity
  8
0
 62
     7
100
AcDbLine
 10
190.7842107482538
 20
233.5020652699764
 30
0.0
 11
198.2742106974214
 21
233.5020652700221
 31
0.0
  0
LINE
  5
24AB
330
2409
100
AcDbEntity
  8
0
 62
     7
100
AcDbLine
 10
198.5592106916431
 20
205.2220656947437
 30
0.0
 11
198.5592106916431
 21
204.7220657022803
 31
0.0
  0
LINE
  5
24AC
330
2409
100
AcDbEntity
  8
0
 62
     7
100
AcDbLine
 10
190.2592106916426
 20
205.2220656947437
 30
0.0
 11
190.2592106916426
 21
204.7220657022803
 31
0.0
  0
LINE
  5
24AD
330
2409
100
AcDbEntity
  8
0
 62
     7
100
AcDbLine
 10
198.5592106916431
 20
226.7220653718314
 30
0.0
 11
198.5592106916431
 21
226.2220653793324
 31
0.0
  0
LINE
  5
24AE
330
2409
100
AcDbEntity
  8
0
 62
     7
100
AcDbLine
 10
190.2592106916426
 20
226.7220653718314
 30
0.0
 11
190.2592106916426
 21
226.2220653793324
 31
0.0
  0
LINE
  5
24AF
330
2409
100
AcDbEntity
  8
0
 62
     7
100
AcDbLine
 10
198.5592106916431
 20
204.7220657022803
 30
0.0
 11
190.2592106916426
 21
204.7220657022803
 31
0.0
  0
LINE
  5
24B0
330
2409
100
AcDbEntity
  8
0
 62
     7
100
AcDbLine
 10
198.5592106916431
 20
197.9420658040618
 30
0.0
 11
198.5592106916431
 21
204.7220657022803
 31
0.0
  0
LINE
  5
24B1
330
2409
100
AcDbEntity
  8
0
 62
     7
100
AcDbLine
 10
190.2592106916426
 20
197.9420658040618
 30
0.0
 11
198.5592106916431
 21
197.9420658040618
 31
0.0
  0
LINE
  5
24B2
330
2409
100
AcDbEntity
  8
0
 62
     7
100
AcDbLine
 10
190.2592106916426
 20
204.7220657022803
 30
0.0
 11
190.2592106916426
 21
197.9420658040618
 31
0.0
  0
LINE
  5
24B3
330
2409
100
AcDbEntity
  8
0
 62
     7
100
AcDbLine
 10
193.599210705973
 20
226.7220653718314
 30
0.0
 11
193.599210705973
 21
233.5020652700221
 31
0.0
  0
LINE
  5
24B4
330
2409
100
AcDbEntity
  8
0
 62
     7
100
AcDbLine
 10
198.5592106916431
 20
226.7220653718314
 30
0.0
 11
190.2592106916426
 21
226.7220653718314
 31
0.0
  0
LINE
  5
24B5
330
2409
100
AcDbEntity
  8
0
 62
     7
100
AcDbLine
 10
198.5592106916431
 20
233.5020652700221
 30
0.0
 11
198.5592106916431
 21
226.7220653718314
 31
0.0
  0
LINE
  5
24B6
330
2409
100
AcDbEntity
  8
0
 62
     7
100
AcDbLine
 10
190.2592106916426
 20
233.5020652700221
 30
0.0
 11
198.5592106916431
 21
233.5020652700221
 31
0.0
  0
LINE
  5
24B7
330
2409
100
AcDbEntity
  8
0
 62
     7
100
AcDbLine
 10
190.2592106916426
 20
226.7220653718314
 30
0.0
 11
190.2592106916426
 21
233.5020652700221
 31
0.0
  0
LINE
  5
24B8
330
2409
100
AcDbEntity
  8
0
 62
     7
100
AcDbLine
 10
190.2592106916559
 20
204.7220657022803
 30
0.0
 11
186.9592106841882
 21
204.7220657022803
 31
0.0
  0
LINE
  5
24B9
330
2409
100
AcDbEntity
  8
0
 62
     7
100
AcDbLine
 10
190.2592106916559
 20
198.8220657908874
 30
0.0
 11
190.2592106916559
 21
204.7220657022803
 31
0.0
  0
LINE
  5
24BA
330
2409
100
AcDbEntity
  8
0
 62
     7
100
AcDbLine
 10
190.1592108193364
 20
198.8220657908874
 30
0.0
 11
190.2592106916559
 21
198.8220657908874
 31
0.0
  0
LINE
  5
24BB
330
2409
100
AcDbEntity
  8
0
 62
     7
100
AcDbLine
 10
190.1592108193364
 20
192.7220658824992
 30
0.0
 11
190.1592108193364
 21
198.8220657908874
 31
0.0
  0
LINE
  5
24BC
330
2409
100
AcDbEntity
  8
0
 62
     7
100
AcDbLine
 10
186.7592108734006
 20
192.7220658824992
 30
0.0
 11
190.1592108193364
 21
192.7220658824992
 31
0.0
  0
LINE
  5
24BD
330
2409
100
AcDbEntity
  8
0
 62
     7
100
AcDbLine
 10
186.7592108734006
 20
198.8220657908874
 30
0.0
 11
186.7592108734006
 21
192.7220658824992
 31
0.0
  0
LINE
  5
24BE
330
2409
100
AcDbEntity
  8
0
 62
     7
100
AcDbLine
 10
183.3992108591922
 20
198.8220657908874
 30
0.0
 11
186.4592106916559
 21
198.8220657908874
 31
0.0
  0
LINE
  5
24BF
330
2409
100
AcDbEntity
  8
0
 62
     7
100
AcDbLine
 10
183.3992108591922
 20
203.9720657135219
 30
0.0
 11
183.3992108591922
 21
198.8220657908874
 31
0.0
  0
LINE
  5
24C0
330
2409
100
AcDbEntity
  8
0
 62
     7
100
AcDbLine
 10
186.4592106916559
 20
203.9720657135219
 30
0.0
 11
183.3992108591922
 21
203.9720657135219
 31
0.0
  0
LINE
  5
24C1
330
2409
100
AcDbEntity
  8
0
 62
     7
100
AcDbLine
 10
186.4592106916559
 20
204.222065709766
 30
0.0
 11
186.4592106916559
 21
203.9720657135219
 31
0.0
  0
LINE
  5
24C2
330
2409
100
AcDbEntity
  8
0
 62
     7
100
AcDbLine
 10
186.9592106841882
 20
204.7220657022803
 30
0.0
 11
186.4592106916559
 21
204.222065709766
 31
0.0
  0
LINE
  5
24C3
330
2409
100
AcDbEntity
  8
0
 62
     7
100
AcDbLine
 10
190.2592106916559
 20
232.6220652832368
 30
0.0
 11
190.2592106916559
 21
227.4720653605466
 31
0.0
  0
LINE
  5
24C4
330
2409
100
AcDbEntity
  8
0
 62
     7
100
AcDbLine
 10
190.2592106916559
 20
226.7220653718314
 30
0.0
 11
186.9592106841579
 21
226.7220653718314
 31
0.0
  0
LINE
  5
24C5
330
2409
100
AcDbEntity
  8
0
 62
     7
100
AcDbLine
 10
190.2592106916559
 20
227.4720653605466
 30
0.0
 11
190.2592106916559
 21
226.7220653718314
 31
0.0
  0
LINE
  5
24C6
330
2409
100
AcDbEntity
  8
0
 62
     7
100
AcDbLine
 10
193.3992107089979
 20
227.4720653605466
 30
0.0
 11
190.2592106916559
 21
227.4720653605466
 31
0.0
  0
LINE
  5
24C7
330
2409
100
AcDbEntity
  8
0
 62
     7
100
AcDbLine
 10
193.3992107089979
 20
232.6220652832368
 30
0.0
 11
193.3992107089979
 21
227.4720653605466
 31
0.0
  0
LINE
  5
24C8
330
2409
100
AcDbEntity
  8
0
 62
     7
100
AcDbLine
 10
190.1592108193364
 20
232.6220652832368
 30
0.0
 11
193.3992107089979
 21
232.6220652832368
 31
0.0
  0
LINE
  5
24C9
330
2409
100
AcDbEntity
  8
0
 62
     7
100
AcDbLine
 10
190.1592108193364
 20
238.7220651915844
 30
0.0
 11
190.1592108193364
 21
232.6220652832368
 31
0.0
  0
LINE
  5
24CA
330
2409
100
AcDbEntity
  8
0
 62
     7
100
AcDbLine
 10
186.7592108734006
 20
238.7220651915844
 30
0.0
 11
190.1592108193364
 21
238.7220651915844
 31
0.0
  0
LINE
  5
24CB
330
2409
100
AcDbEntity
  8
0
 62
     7
100
AcDbLine
 10
186.7592108734006
 20
232.6220652832368
 30
0.0
 11
186.7592108734006
 21
238.7220651915844
 31
0.0
  0
LINE
  5
24CC
330
2409
100
AcDbEntity
  8
0
 62
     7
100
AcDbLine
 10
186.4592106916559
 20
232.6220652832368
 30
0.0
 11
186.7592108734006
 21
232.6220652832368
 31
0.0
  0
LINE
  5
24CD
330
2409
100
AcDbEntity
  8
0
 62
     7
100
AcDbLine
 10
186.9592106841579
 20
226.7220653718314
 30
0.0
 11
186.4592106916559
 21
227.2220653643075
 31
0.0
  0
LINE
  5
24CE
330
2409
100
AcDbEntity
  8
0
 62
     7
100
AcDbLine
 10
203.1592106916916
 20
205.7220656872579
 30
0.0
 11
203.1592106916916
 21
215.7220655370329
 31
0.0
  0
LINE
  5
24CF
330
2409
100
AcDbEntity
  8
0
 62
     7
100
AcDbLine
 10
202.6592106992029
 20
205.2220656947437
 30
0.0
 11
203.1592106916916
 21
205.7220656872579
 31
0.0
  0
LINE
  5
24D0
330
2409
100
AcDbEntity
  8
0
 62
     7
100
AcDbLine
 10
200.9592106915389
 20
205.2220656947437
 30
0.0
 11
202.6592106992029
 21
205.2220656947437
 31
0.0
  0
LINE
  5
24D1
330
2409
100
AcDbEntity
  8
0
 62
     7
100
AcDbLine
 10
200.9592106915389
 20
205.7220656872325
 30
0.0
 11
200.9592106915389
 21
205.2220656947437
 31
0.0
  0
LINE
  5
24D2
330
2409
100
AcDbEntity
  8
0
 62
     7
100
AcDbLine
 10
199.6492106136204
 20
205.7220656872325
 30
0.0
 11
200.9592106915389
 21
205.7220656872325
 31
0.0
  0
LINE
  5
24D3
330
2409
100
AcDbEntity
  8
0
 62
     7
100
AcDbLine
 10
199.6492106136204
 20
205.2220656947437
 30
0.0
 11
199.6492106136204
 21
205.7220656872325
 31
0.0
  0
LINE
  5
24D4
330
2409
100
AcDbEntity
  8
0
 62
     7
100
AcDbLine
 10
186.4592106916559
 20
205.2220656947437
 30
0.0
 11
199.6492106136204
 21
205.2220656947437
 31
0.0
  0
LINE
  5
24D5
330
2409
100
AcDbEntity
  8
0
 62
     7
100
AcDbLine
 10
183.0592106916558
 20
197.722065807387
 30
0.0
 11
186.4592106916559
 21
197.722065807387
 31
0.0
  0
LINE
  5
24D6
330
2409
100
AcDbEntity
  8
0
 62
     7
100
AcDbLine
 10
183.0592106916558
 20
215.7220655370329
 30
0.0
 11
183.0592106916558
 21
197.722065807387
 31
0.0
  0
LINE
  5
24D7
330
2409
100
AcDbEntity
  8
0
 62
     7
100
AcDbLine
 10
203.1592106916916
 20
225.7220653868106
 30
0.0
 11
203.1592106916916
 21
215.7220655370329
 31
0.0
  0
LINE
  5
24D8
330
2409
100
AcDbEntity
  8
0
 62
     7
100
AcDbLine
 10
202.6592106992029
 20
226.2220653793324
 30
0.0
 11
203.1592106916916
 21
225.7220653868106
 31
0.0
  0
LINE
  5
24D9
330
2409
100
AcDbEntity
  8
0
 62
     7
100
AcDbLine
 10
200.9592106915389
 20
226.2220653793324
 30
0.0
 11
202.6592106992029
 21
226.2220653793324
 31
0.0
  0
LINE
  5
24DA
330
2409
100
AcDbEntity
  8
0
 62
     7
100
AcDbLine
 10
200.9592106915389
 20
225.7220653868564
 30
0.0
 11
200.9592106915389
 21
226.2220653793324
 31
0.0
  0
LINE
  5
24DB
330
2409
100
AcDbEntity
  8
0
 62
     7
100
AcDbLine
 10
199.6492106136204
 20
225.7220653868564
 30
0.0
 11
200.9592106915389
 21
225.7220653868564
 31
0.0
  0
LINE
  5
24DC
330
2409
100
AcDbEntity
  8
0
 62
     7
100
AcDbLine
 10
199.6492106136204
 20
226.2220653793324
 30
0.0
 11
199.6492106136204
 21
225.7220653868564
 31
0.0
  0
LINE
  5
24DD
330
2409
100
AcDbEntity
  8
0
 62
     7
100
AcDbLine
 10
186.4592106916559
 20
226.2220653793324
 30
0.0
 11
199.6492106136204
 21
226.2220653793324
 31
0.0
  0
LINE
  5
24DE
330
2409
100
AcDbEntity
  8
0
 62
     7
100
AcDbLine
 10
183.0592106916558
 20
233.7220652666841
 30
0.0
 11
186.4592106916559
 21
233.7220652666841
 31
0.0
  0
LINE
  5
24DF
330
2409
100
AcDbEntity
  8
0
 62
     7
100
AcDbLine
 10
183.0592106916558
 20
215.7220655370329
 30
0.0
 11
183.0592106916558
 21
233.7220652666841
 31
0.0
  0
LINE
  5
24E0
330
2409
100
AcDbEntity
  8
0
 62
     7
100
AcDbLine
 10
279.7992113974649
 20
203.314698966691
 30
0.0
 11
279.7992113974649
 21
204.7389347077499
 31
0.0
  0
LINE
  5
24E1
330
2409
100
AcDbEntity
  8
0
 62
     7
100
AcDbLine
 10
282.809211352234
 20
202.6146989771917
 30
0.0
 11
280.4992113869283
 21
202.6146989771917
 31
0.0
  0
LINE
  5
24E2
330
2409
100
AcDbEntity
  8
0
 62
     7
100
AcDbLine
 10
282.809211352234
 20
205.2809733543439
 30
0.0
 11
282.809211352234
 21
202.6146989771917
 31
0.0
  0
LINE
  5
24E3
330
2409
100
AcDbEntity
  8
0
 62
     7
100
AcDbLine
 10
286.5192112964972
 20
203.314698966691
 30
0.0
 11
286.5192112964972
 21
204.7389347077499
 31
0.0
  0
LINE
  5
24E4
330
2409
100
AcDbEntity
  8
0
 62
     7
100
AcDbLine
 10
283.5092113417168
 20
202.6146989771917
 30
0.0
 11
285.8192113070249
 21
202.6146989771917
 31
0.0
  0
LINE
  5
24E5
330
2409
100
AcDbEntity
  8
0
 62
     7
100
AcDbLine
 10
283.5092113417168
 20
205.2809733543439
 30
0.0
 11
283.5092113417168
 21
202.6146989771917
 31
0.0
  0
LINE
  5
24E6
330
2409
100
AcDbEntity
  8
1
  6
CENTER
 62
     3
100
AcDbLine
 10
44.65921069169143
 20
215.7396987799834
 30
0.0
 11
115.6592106916912
 21
215.739698779984
 31
0.0
  0
LINE
  5
24E7
330
2409
100
AcDbEntity
  8
1
 62
     7
100
AcDbLine
 10
188.1592106916999
 20
189.1220659424878
 30
0.0
 11
188.5592106917133
 21
188.7220659425025
 31
0.0
  0
LINE
  5
24E8
330
2409
100
AcDbEntity
  8
1
 62
     7
100
AcDbLine
 10
198.6592106916991
 20
186.4720655370329
 30
0.0
 11
198.6592106915624
 21
186.4720655370329
 31
0.0
  0
LINE
  5
24E9
330
2409
100
AcDbEntity
  8
1
 62
     7
100
AcDbLine
 10
198.6592106916991
 20
182.9720655370329
 30
0.0
 11
191.1592106466206
 21
182.9720655370329
 31
0.0
  0
LINE
  5
24EA
330
2409
100
AcDbEntity
  8
0
 62
     7
100
AcDbLine
 10
198.6592106917188
 20
181.1220660566841
 30
0.0
 11
198.6592106916991
 21
182.9720655370329
 31
0.0
  0
LINE
  5
24EB
330
2409
100
AcDbEntity
  8
0
 62
     7
100
AcDbLine
 10
198.6592106916991
 20
182.9720655370329
 30
0.0
 11
198.6592106915624
 21
186.4720655370329
 31
0.0
  0
LINE
  5
24EC
330
2409
100
AcDbEntity
  8
0
 62
     7
100
AcDbLine
 10
191.1592106466206
 20
181.1220660565826
 30
0.0
 11
191.1592106466206
 21
188.4220659470963
 31
0.0
  0
LINE
  5
24ED
330
2409
100
AcDbEntity
  8
0
 62
     7
100
AcDbLine
 10
188.5592106917133
 20
188.7220659425025
 30
0.0
 11
190.8592106511781
 21
188.7220659425896
 31
0.0
  0
LINE
  5
24EE
330
2409
100
AcDbEntity
  8
0
 62
     7
100
AcDbLine
 10
191.1592106466206
 20
181.1220660565826
 30
0.0
 11
191.5592106406878
 21
180.7220660625155
 31
0.0
  0
LINE
  5
24EF
330
2409
100
AcDbEntity
  8
0
 62
     7
100
AcDbLine
 10
191.5592106406878
 20
180.7220660625155
 30
0.0
 11
198.2592106976984
 21
180.7220660627945
 31
0.0
  0
LINE
  5
24F0
330
2409
100
AcDbEntity
  8
0
 62
     7
100
AcDbLine
 10
198.2592106976984
 20
180.7220660627945
 30
0.0
 11
198.6592106917188
 21
181.1220660566841
 31
0.0
  0
LINE
  5
24F1
330
2409
100
AcDbEntity
  8
1
  6
DASHDOT
 62
     3
100
AcDbLine
 10
200.1936100189673
 20
184.7220655370328
 30
0.0
 11
189.9025395813343
 21
184.7220655370328
 31
0.0
  0
LINE
  5
24F2
330
2409
100
AcDbEntity
  8
1
 62
     7
100
AcDbLine
 10
188.1592106916844
 20
241.9535655370331
 30
0.0
 11
188.1592106916844
 21
241.322065537033
 31
0.0
  0
LINE
  5
24F3
330
2409
100
AcDbEntity
  8
1
 62
     7
100
AcDbLine
 10
198.6592106916934
 20
241.9535655370331
 30
0.0
 11
198.6592106916934
 21
241.322065537033
 31
0.0
  0
LINE
  5
24F4
330
2409
100
AcDbEntity
  8
1
 62
     7
100
AcDbLine
 10
198.2592106916935
 20
240.8550655370329
 30
0.0
 11
188.5592106916844
 21
240.8550655370329
 31
0.0
  0
LINE
  5
24F5
330
2409
100
AcDbEntity
  8
0
 62
     7
100
AcDbLine
 10
186.4592106916559
 20
198.8220657908874
 30
0.0
 11
186.7592108734006
 21
198.8220657908874
 31
0.0
  0
LINE
  5
24F6
330
2409
100
AcDbEntity
  8
1
 62
     7
100
AcDbLine
 10
186.4592106916559
 20
233.7220652666841
 30
0.0
 11
186.4592106916559
 21
226.2220653793324
 31
0.0
  0
LINE
  5
24F7
330
2409
100
AcDbEntity
  8
1
 62
     7
100
AcDbLine
 10
186.4592106916559
 20
205.2220656947437
 30
0.0
 11
186.4592106916559
 21
204.222065709766
 31
0.0
  0
LINE
  5
24F8
330
2409
100
AcDbEntity
  8
1
 62
     7
100
AcDbLine
 10
186.4592106916559
 20
197.722065807387
 30
0.0
 11
186.4592106916559
 21
203.9720657135219
 31
0.0
  0
LINE
  5
24F9
330
2409
100
AcDbEntity
  8
1
  6
CENTER
 62
     3
100
AcDbLine
 10
84.65921069169159
 20
255.7396987799831
 30
0.0
 11
84.65921069169141
 21
249.3646987799833
 31
0.0
  0
LINE
  5
24FA
330
2409
100
AcDbEntity
  8
1
 62
     7
100
AcDbLine
 10
198.6592106915624
 20
186.4720655370329
 30
0.0
 11
191.1592106466206
 21
186.4720655370329
 31
0.0
  0
LINE
  5
24FB
330
2409
100
AcDbEntity
  8
0
 62
     7
100
AcDbLine
 10
198.6592106915624
 20
186.4720655370329
 30
0.0
 11
198.6592106916991
 21
186.4720655370329
 31
0.0
  0
LINE
  5
24FC
330
2409
100
AcDbEntity
  8
1
 62
     7
100
AcDbLine
 10
198.6592106915624
 20
190.189065537033
 30
0.0
 11
198.6592106915624
 21
190.1220655370328
 31
0.0
  0
LINE
  5
24FD
330
2409
100
AcDbEntity
  8
1
 62
     7
100
AcDbLine
 10
198.6592106915624
 20
190.189065537033
 30
0.0
 11
198.2592106915624
 21
190.589065537033
 31
0.0
  0
LINE
  5
24FE
330
2409
100
AcDbEntity
  8
1
 62
     7
100
AcDbLine
 10
188.1592106916915
 20
190.189065537033
 30
0.0
 11
188.1592106916915
 21
190.1220655370328
 31
0.0
  0
LINE
  5
24FF
330
2409
100
AcDbEntity
  8
1
 62
     7
100
AcDbLine
 10
188.5592106916915
 20
190.589065537033
 30
0.0
 11
198.2592106915624
 21
190.589065537033
 31
0.0
  0
LINE
  5
2500
330
2409
100
AcDbEntity
  8
1
 62
     7
100
AcDbLine
 10
188.5592106916915
 20
190.589065537033
 30
0.0
 11
188.1592106916915
 21
190.189065537033
 31
0.0
  0
LINE
  5
2501
330
2409
100
AcDbEntity
  8
1
 62
     7
100
AcDbLine
 10
188.1592106916915
 20
190.1220655370328
 30
0.0
 11
198.6592106915624
 21
190.1220655370328
 31
0.0
  0
LINE
  5
2502
330
2409
100
AcDbEntity
  8
1
 62
     7
100
AcDbLine
 10
188.1592106916915
 20
190.1220655370328
 30
0.0
 11
188.1592106916915
 21
189.1219400062972
 31
0.0
  0
LINE
  5
2503
330
2409
100
AcDbEntity
  8
1
 62
     7
100
AcDbLine
 10
198.6592106915624
 20
190.1220655370328
 30
0.0
 11
198.6592106915624
 21
189.2220655370329
 31
0.0
  0
LINE
  5
2504
330
2409
100
AcDbEntity
  8
1
 62
     7
100
AcDbLine
 10
188.1592106916844
 20
241.322065537033
 30
0.0
 11
198.6592106916934
 21
241.322065537033
 31
0.0
  0
LINE
  5
2505
330
2409
100
AcDbEntity
  8
1
 62
     7
100
AcDbLine
 10
188.1592106916844
 20
241.322065537033
 30
0.0
 11
188.1592106916844
 21
241.2550655370329
 31
0.0
  0
LINE
  5
2506
330
2409
100
AcDbEntity
  8
1
 62
     7
100
AcDbLine
 10
198.6592106916934
 20
241.322065537033
 30
0.0
 11
198.6592106916934
 21
241.2550655370329
 31
0.0
  0
LINE
  5
2507
330
2409
100
AcDbEntity
  8
1
 62
     7
100
AcDbLine
 10
198.6592106916934
 20
241.2550655370329
 30
0.0
 11
198.2592106916935
 21
240.8550655370329
 31
0.0
  0
LINE
  5
2508
330
2409
100
AcDbEntity
  8
1
 62
     7
100
AcDbLine
 10
188.1592106916844
 20
241.2550655370329
 30
0.0
 11
188.5592106916844
 21
240.8550655370329
 31
0.0
  0
LINE
  5
2509
330
2409
100
AcDbEntity
  8
1
 62
     7
100
AcDbLine
 10
198.6592106916915
 20
194.5919021763648
 30
0.0
 11
198.6592106916915
 21
191.13565775775
 31
0.0
  0
LINE
  5
250A
330
2409
100
AcDbEntity
  8
1
 62
     7
100
AcDbLine
 10
198.0344206077253
 20
190.1972754530664
 30
0.0
 11
198.6592106916915
 21
190.822065537033
 31
0.0
  0
LINE
  5
250B
330
2409
100
AcDbEntity
  8
1
 62
     7
100
AcDbLine
 10
196.0592106916911
 20
190.1220655370328
 30
0.0
 11
198.0344206077253
 21
190.1972754530664
 31
0.0
  0
LINE
  5
250C
330
2409
100
AcDbEntity
  8
1
 62
     7
100
AcDbLine
 10
198.6592106916915
 20
240.6220655370328
 30
0.0
 11
198.0344206077253
 21
241.2468556209995
 31
0.0
  0
LINE
  5
250D
330
2409
100
AcDbEntity
  8
1
 62
     7
100
AcDbLine
 10
184.3472106916916
 20
190.837065537033
 30
0.0
 11
173.6082106916915
 21
190.837065537033
 31
0.0
  0
LINE
  5
250E
330
2409
100
AcDbEntity
  8
1
 62
     7
100
AcDbLine
 10
173.7092106916916
 20
191.188065537033
 30
0.0
 11
197.6592106916915
 21
191.188065537033
 31
0.0
  0
LINE
  5
250F
330
2409
100
AcDbEntity
  8
1
 62
     7
100
AcDbLine
 10
198.6592106916915
 20
191.13565775775
 30
0.0
 11
198.6592106916915
 21
190.822065537033
 31
0.0
  0
LINE
  5
2510
330
2409
100
AcDbEntity
  8
1
 62
     7
100
AcDbLine
 10
198.6592106916915
 20
191.13565775775
 30
0.0
 11
197.6592106916915
 21
191.188065537033
 31
0.0
  0
LINE
  5
2511
330
2409
100
AcDbEntity
  8
1
 62
     7
100
AcDbLine
 10
189.6492106916916
 20
190.171065537033
 30
0.0
 11
189.650803300872
 21
190.1710460762226
 31
0.0
  0
LINE
  5
2512
330
2409
100
AcDbEntity
  8
1
 62
     7
100
AcDbLine
 10
189.650803300872
 20
190.1710460762226
 30
0.0
 11
193.6592106916915
 21
190.1220655370328
 31
0.0
  0
LINE
  5
2513
330
2409
100
AcDbEntity
  8
1
 62
     7
100
AcDbLine
 10
193.6592106916915
 20
190.1220655370328
 30
0.0
 11
196.0592106916911
 21
190.1220655370328
 31
0.0
  0
LINE
  5
2514
330
2409
100
AcDbEntity
  8
1
 62
     7
100
AcDbLine
 10
172.1592106916915
 20
207.7220655370329
 30
0.0
 11
170.1592106916915
 21
207.7220655370329
 31
0.0
  0
LINE
  5
2515
330
2409
100
AcDbEntity
  8
1
 62
     7
100
AcDbLine
 10
170.1592106916915
 20
199.7220655370329
 30
0.0
 11
169.6592106916915
 21
200.2220655370329
 31
0.0
  0
LINE
  5
2516
330
2409
100
AcDbEntity
  8
1
 62
     7
100
AcDbLine
 10
171.9382106916914
 20
199.7220655370329
 30
0.0
 11
170.1592106916915
 21
199.7220655370329
 31
0.0
  0
LINE
  5
2517
330
2409
100
AcDbEntity
  8
1
 62
     7
100
AcDbLine
 10
198.6592106916915
 20
240.3084733163161
 30
0.0
 11
198.6592106916915
 21
240.6220655370328
 31
0.0
  0
LINE
  5
2518
330
2409
100
AcDbEntity
  8
1
 62
     7
100
AcDbLine
 10
198.0344206077253
 20
241.2468556209995
 30
0.0
 11
196.0592106916911
 21
241.322065537033
 31
0.0
  0
LINE
  5
2519
330
2409
100
AcDbEntity
  8
1
 62
     7
100
AcDbLine
 10
198.6592106916915
 20
240.3084733163161
 30
0.0
 11
198.6592106916915
 21
236.9237952981399
 31
0.0
  0
LINE
  5
251A
330
2409
100
AcDbEntity
  8
1
 62
     7
100
AcDbLine
 10
197.6592106916915
 20
240.2560655370331
 30
0.0
 11
173.7092106916916
 21
240.2560655370331
 31
0.0
  0
LINE
  5
251B
330
2409
100
AcDbEntity
  8
1
 62
     7
100
AcDbLine
 10
197.6592106916915
 20
240.2560655370331
 30
0.0
 11
198.6592106916915
 21
240.3084733163161
 31
0.0
  0
LINE
  5
251C
330
2409
100
AcDbEntity
  8
1
 62
     7
100
AcDbLine
 10
172.6592106916915
 20
239.006065537033
 30
0.0
 11
172.6592106916915
 21
230.4720655370329
 31
0.0
  0
LINE
  5
251D
330
2409
100
AcDbEntity
  8
1
 62
     7
100
AcDbLine
 10
170.1592106916915
 20
223.7220655370328
 30
0.0
 11
172.1592106916915
 21
223.7220655370328
 31
0.0
  0
LINE
  5
251E
330
2409
100
AcDbEntity
  8
1
  6
CENTER
 62
     3
100
AcDbLine
 10
172.6592106916915
 20
215.7220655370329
 30
0.0
 11
206.8957852026039
 21
215.7220655370329
 31
0.0
  0
LINE
  5
251F
330
2409
100
AcDbEntity
  8
1
 62
     7
100
AcDbLine
 10
169.6592106916915
 20
231.2220655370329
 30
0.0
 11
170.1592106916915
 21
231.7220655370328
 31
0.0
  0
LINE
  5
2520
330
2409
100
AcDbEntity
  8
1
 62
     7
100
AcDbLine
 10
169.6592106916915
 20
231.2220655370329
 30
0.0
 11
169.6592106916915
 21
230.4720655370329
 31
0.0
  0
LINE
  5
2521
330
2409
100
AcDbEntity
  8
1
 62
     7
100
AcDbLine
 10
170.1592106916915
 20
231.7220655370328
 30
0.0
 11
171.9082106916914
 21
231.7220655370328
 31
0.0
  0
LINE
  5
2522
330
2409
100
AcDbEntity
  8
1
 62
     7
100
AcDbLine
 10
173.6082106916915
 20
240.6070655370331
 30
0.0
 11
184.3472106916916
 21
240.6070655370331
 31
0.0
  0
LINE
  5
2523
330
2409
100
AcDbEntity
  8
1
 62
     7
100
AcDbLine
 10
189.650803300872
 20
241.2730849978435
 30
0.0
 11
189.6492106916916
 21
241.2730655370331
 31
0.0
  0
LINE
  5
2524
330
2409
100
AcDbEntity
  8
1
 62
     7
100
AcDbLine
 10
193.6592106916915
 20
241.322065537033
 30
0.0
 11
189.650803300872
 21
241.2730849978435
 31
0.0
  0
LINE
  5
2525
330
2409
100
AcDbEntity
  8
1
 62
     7
100
AcDbLine
 10
196.0592106916911
 20
241.322065537033
 30
0.0
 11
193.6592106916915
 21
241.322065537033
 31
0.0
  0
LINE
  5
2526
330
2409
100
AcDbEntity
  8
1
  6
CENTER
 62
     3
100
AcDbLine
 10
166.7802010535224
 20
215.7220655370329
 30
0.0
 11
172.6592106916915
 21
215.7220655370329
 31
0.0
  0
LINE
  5
2527
330
2409
100
AcDbEntity
  8
1
  6
CENTER
 62
     3
100
AcDbLine
 10
323.1592106916913
 20
215.7427125018111
 30
0.0
 11
243.1592106916913
 21
215.7427125018111
 31
0.0
  0
LINE
  5
2528
330
2409
100
AcDbEntity
  8
1
  6
CENTER
 62
     3
100
AcDbLine
 10
283.1592106916916
 20
175.7427125018109
 30
0.0
 11
283.1592106916916
 21
255.7427125018104
 31
0.0
  0
LINE
  5
2529
330
2409
100
AcDbEntity
  8
1
  6
DASHDOT
 62
     3
100
AcDbLine
 10
266.3482175526051
 20
244.8602067444001
 30
0.0
 11
268.973217552605
 21
240.3135733745318
 31
0.0
  0
LINE
  5
252A
330
2409
100
AcDbEntity
  8
1
  6
DASHDOT
 62
     3
100
AcDbLine
 10
254.0417164491024
 20
232.5537056408971
 30
0.0
 11
258.5883498189707
 21
229.928705640897
 31
0.0
  0
LINE
  5
252B
330
2409
100
AcDbEntity
  8
1
  6
DASHDOT
 62
     3
100
AcDbLine
 10
254.0417164491024
 20
198.9317193627248
 30
0.0
 11
258.5883498189709
 21
201.5567193627247
 31
0.0
  0
LINE
  5
252C
330
2409
100
AcDbEntity
  8
1
  6
DASHDOT
 62
     3
100
AcDbLine
 10
266.3482175526055
 20
186.6252182592219
 30
0.0
 11
268.973217552605
 21
191.17185162909
 31
0.0
  0
LINE
  5
252D
330
2409
100
AcDbEntity
  8
1
  6
DASHDOT
 62
     3
100
AcDbLine
 10
299.9702038307779
 20
186.6252182592219
 30
0.0
 11
297.3452038307779
 21
191.1718516290904
 31
0.0
  0
LINE
  5
252E
330
2409
100
AcDbEntity
  8
1
  6
DASHDOT
 62
     3
100
AcDbLine
 10
312.2767049342807
 20
198.9317193627251
 30
0.0
 11
307.7300715644123
 21
201.5567193627251
 31
0.0
  0
LINE
  5
252F
330
2409
100
AcDbEntity
  8
1
  6
DASHDOT
 62
     3
100
AcDbLine
 10
312.2767049342805
 20
232.5537056408973
 30
0.0
 11
307.7300715644121
 21
229.9287056408973
 31
0.0
  0
LINE
  5
2530
330
2409
100
AcDbEntity
  8
1
  6
DASHDOT
 62
     3
100
AcDbLine
 10
299.9702038307777
 20
244.8602067444001
 30
0.0
 11
297.3452038307775
 21
240.3135733745318
 31
0.0
  0
LINE
  5
2531
330
2409
100
AcDbEntity
  8
1
  6
DASHDOT
 62
     3
100
AcDbLine
 10
291.8612210746582
 20
183.2663676245875
 30
0.0
 11
290.5024210878696
 21
188.3374782126053
 31
0.0
  0
LINE
  5
2532
330
2409
100
AcDbEntity
  8
1
  6
DASHDOT
 62
     3
100
AcDbLine
 10
274.4572003087248
 20
248.2190573790346
 30
0.0
 11
275.8160002955128
 21
243.1479467910171
 31
0.0
  0
LINE
  5
2533
330
2409
100
AcDbEntity
  8
1
  6
CENTER
 62
     3
100
AcDbLine
 10
115.6592106916912
 20
215.739698779984
 30
0.0
 11
124.6592106916913
 21
215.7396987799834
 31
0.0
  0
LINE
  5
2534
330
2409
100
AcDbEntity
  8
1
  6
DASHDOT
 62
     3
100
AcDbLine
 10
84.65921069169141
 20
249.3646987799833
 30
0.0
 11
84.65921069169141
 21
244.1146987799835
 31
0.0
  0
LINE
  5
2535
330
2409
100
AcDbEntity
  8
1
  6
CENTER
 62
     3
100
AcDbLine
 10
84.65921069169141
 20
249.3646987799833
 30
0.0
 11
84.65921069169141
 21
244.1146987799835
 31
0.0
  0
LINE
  5
2536
330
2409
100
AcDbEntity
  8
1
  6
CENTER
 62
     3
100
AcDbLine
 10
84.65921069169141
 20
244.1146987799835
 30
0.0
 11
84.65921069169159
 21
175.7396987799831
 31
0.0
  0
LINE
  5
2537
330
2409
100
AcDbEntity
  8
1
  6
DASHDOT
 62
     3
100
AcDbLine
 10
67.84671069169164
 20
244.8598029822349
 30
0.0
 11
70.47171069169166
 21
240.3131696123668
 31
0.0
  0
LINE
  5
2538
330
2409
100
AcDbEntity
  8
1
  6
DASHDOT
 62
     3
100
AcDbLine
 10
55.53910648944015
 20
232.5521987799834
 30
0.0
 11
60.08573985930843
 21
229.9271987799836
 31
0.0
  0
LINE
  5
2539
330
2409
100
AcDbEntity
  8
1
  6
DASHDOT
 62
     3
100
AcDbLine
 10
51.03421069169204
 20
215.7396987799836
 30
0.0
 11
56.28421069169204
 21
215.7396987799838
 31
0.0
  0
LINE
  5
253A
330
2409
100
AcDbEntity
  8
1
  6
DASHDOT
 62
     3
100
AcDbLine
 10
55.53910648944036
 20
198.927198779984
 30
0.0
 11
60.08573985930853
 21
201.552198779984
 31
0.0
  0
LINE
  5
253B
330
2409
100
AcDbEntity
  8
1
  6
DASHDOT
 62
     3
100
AcDbLine
 10
67.84671069169204
 20
186.6195945777323
 30
0.0
 11
70.47171069169205
 21
191.1662279476008
 31
0.0
  0
LINE
  5
253C
330
2409
100
AcDbEntity
  8
1
  6
DASHDOT
 62
     3
100
AcDbLine
 10
84.65921069169196
 20
182.1146987799844
 30
0.0
 11
84.65921069169182
 21
187.3646987799844
 31
0.0
  0
LINE
  5
253D
330
2409
100
AcDbEntity
  8
1
  6
DASHDOT
 62
     3
100
AcDbLine
 10
101.4717106916914
 20
186.6195945777323
 30
0.0
 11
98.84671069169158
 21
191.1662279476009
 31
0.0
  0
LINE
  5
253E
330
2409
100
AcDbEntity
  8
1
  6
DASHDOT
 62
     3
100
AcDbLine
 10
113.779314893943
 20
198.9271987799843
 30
0.0
 11
109.2326815240748
 21
201.552198779984
 31
0.0
  0
LINE
  5
253F
330
2409
100
AcDbEntity
  8
1
  6
DASHDOT
 62
     3
100
AcDbLine
 10
118.2842106916912
 20
215.7396987799843
 30
0.0
 11
113.0342106916912
 21
215.739698779984
 31
0.0
  0
LINE
  5
2540
330
2409
100
AcDbEntity
  8
1
  6
DASHDOT
 62
     3
100
AcDbLine
 10
113.7793148939427
 20
232.552198779984
 30
0.0
 11
109.2326815240744
 21
229.927198779984
 31
0.0
  0
LINE
  5
2541
330
2409
100
AcDbEntity
  8
1
  6
DASHDOT
 62
     3
100
AcDbLine
 10
101.471710691691
 20
244.8598029822353
 30
0.0
 11
98.84671069169122
 21
240.3131696123668
 31
0.0
  0
LINE
  5
2542
330
2409
100
AcDbEntity
  8
1
  6
DASHDOT
 62
     3
100
AcDbLine
 10
93.36200108326377
 20
248.2189546889534
 30
0.0
 11
92.00320109647552
 21
243.1478441009358
 31
0.0
  0
LINE
  5
2543
330
2409
100
AcDbEntity
  8
1
  6
DASHDOT
 62
     3
100
AcDbLine
 10
75.95642030011923
 20
183.2604428710141
 30
0.0
 11
77.31522028690754
 21
188.3315534590316
 31
0.0
  0
LINE
  5
2544
330
2409
100
AcDbEntity
  8
1
  6
DIVIDE
 62
     7
100
AcDbLine
 10
198.6592106915624
 20
189.2220655370329
 30
0.0
 11
200.1592106915624
 21
189.2220655370329
 31
0.0
  0
LINE
  5
2545
330
2409
100
AcDbEntity
  8
1
 62
     7
100
AcDbLine
 10
198.6592106915624
 20
189.2220655370329
 30
0.0
 11
198.6592106915624
 21
186.4720655370329
 31
0.0
  0
LINE
  5
2546
330
2409
100
AcDbEntity
  8
1
  6
DIVIDE
 62
     7
100
AcDbLine
 10
200.1592106915624
 20
189.2220655370329
 30
0.0
 11
200.1592106915624
 21
196.1049283255949
 31
0.0
  0
LINE
  5
2547
330
2409
100
AcDbEntity
  8
1
  6
DIVIDE
 62
     7
100
AcDbLine
 10
175.8536608769371
 20
189.2220655370329
 30
0.0
 11
170.6592106466206
 21
189.2220655370329
 31
0.0
  0
LINE
  5
2548
330
2409
100
AcDbEntity
  8
1
  6
DIVIDE
 62
     7
100
AcDbLine
 10
170.6592106466206
 20
189.2220655370329
 30
0.0
 11
170.6592106466206
 21
195.6443698847649
 31
0.0
  0
LINE
  5
2549
330
2409
100
AcDbEntity
  8
1
 62
     7
100
AcDbLine
 10
170.1592106916915
 20
223.7220655370328
 30
0.0
 11
169.6592106916915
 21
224.2220655370329
 31
0.0
  0
LINE
  5
254A
330
2409
100
AcDbEntity
  8
1
 62
     7
100
AcDbLine
 10
169.6592106916915
 20
207.2220655370329
 30
0.0
 11
169.6592106916915
 21
203.7220655370329
 31
0.0
  0
LINE
  5
254B
330
2409
100
AcDbEntity
  8
1
 62
     7
100
AcDbLine
 10
172.1592106916915
 20
223.7220655370328
 30
0.0
 11
172.6592106916915
 21
224.2220655370329
 31
0.0
  0
LINE
  5
254C
330
2409
100
AcDbEntity
  8
1
 62
     7
100
AcDbLine
 10
172.6592106916915
 20
207.2220655370329
 30
0.0
 11
172.6592106916915
 21
203.7220655370329
 31
0.0
  0
LINE
  5
254D
330
2409
100
AcDbEntity
  8
1
 62
     7
100
AcDbLine
 10
170.1592106916915
 20
207.7220655370329
 30
0.0
 11
169.6592106916915
 21
207.2220655370329
 31
0.0
  0
LINE
  5
254E
330
2409
100
AcDbEntity
  8
1
 62
     7
100
AcDbLine
 10
169.6592106916915
 20
207.2220655370329
 30
0.0
 11
169.6592106916915
 21
224.2220655370329
 31
0.0
  0
LINE
  5
254F
330
2409
100
AcDbEntity
  8
1
 62
     7
100
AcDbLine
 10
172.1592106916915
 20
207.7220655370329
 30
0.0
 11
172.6592106916915
 21
207.2220655370329
 31
0.0
  0
LINE
  5
2550
330
2409
100
AcDbEntity
  8
1
 62
     7
100
AcDbLine
 10
172.6592106916915
 20
207.2220655370329
 30
0.0
 11
172.6592106916915
 21
224.2220655370329
 31
0.0
  0
LINE
  5
2551
330
2409
100
AcDbEntity
  8
1
 62
     7
100
AcDbLine
 10
169.6592106916915
 20
230.4720655370329
 30
0.0
 11
172.6592106916915
 21
230.4720655370329
 31
0.0
  0
LINE
  5
2552
330
2409
100
AcDbEntity
  8
1
 62
     7
100
AcDbLine
 10
169.6592106916915
 20
230.4720655370329
 30
0.0
 11
169.6592106916915
 21
224.9720655370329
 31
0.0
  0
LINE
  5
2553
330
2409
100
AcDbEntity
  8
1
 62
     7
100
AcDbLine
 10
172.6592106916915
 20
230.4720655370329
 30
0.0
 11
172.6592106916915
 21
224.9720655370329
 31
0.0
  0
LINE
  5
2554
330
2409
100
AcDbEntity
  8
1
 62
     7
100
AcDbLine
 10
169.6592106916915
 20
224.9720655370329
 30
0.0
 11
172.6592106916915
 21
224.9720655370329
 31
0.0
  0
LINE
  5
2555
330
2409
100
AcDbEntity
  8
1
 62
     7
100
AcDbLine
 10
169.6592106916915
 20
224.9720655370329
 30
0.0
 11
169.6592106916915
 21
224.2220655370329
 31
0.0
  0
LINE
  5
2556
330
2409
100
AcDbEntity
  8
1
 62
     7
100
AcDbLine
 10
172.6592106916915
 20
224.9720655370329
 30
0.0
 11
172.6592106916915
 21
224.2220655370329
 31
0.0
  0
LINE
  5
2557
330
2409
100
AcDbEntity
  8
1
  6
CENTER
 62
     3
100
AcDbLine
 10
168.8061688171293
 20
227.7220655370328
 30
0.0
 11
173.4571107375573
 21
227.7220655370328
 31
0.0
  0
LINE
  5
2558
330
2409
100
AcDbEntity
  8
1
 62
     3
100
AcDbLine
 10
169.6592106916915
 20
200.7220655370328
 30
0.0
 11
172.6592106916915
 21
200.7220655370328
 31
0.0
  0
LINE
  5
2559
330
2409
100
AcDbEntity
  8
1
 62
     7
100
AcDbLine
 10
169.6592106916915
 20
200.7220655370328
 30
0.0
 11
169.6592106916915
 21
200.2220655370329
 31
0.0
  0
LINE
  5
255A
330
2409
100
AcDbEntity
  8
1
 62
     7
100
AcDbLine
 10
172.6592106916915
 20
200.7220655370328
 30
0.0
 11
172.6592106916915
 21
192.4380655370328
 31
0.0
  0
LINE
  5
255B
330
2409
100
AcDbEntity
  8
1
 62
     3
100
AcDbLine
 10
169.6592106916915
 20
203.7220655370329
 30
0.0
 11
172.6592106916915
 21
203.7220655370329
 31
0.0
  0
LINE
  5
255C
330
2409
100
AcDbEntity
  8
1
 62
     7
100
AcDbLine
 10
169.6592106916915
 20
203.7220655370329
 30
0.0
 11
169.6592106916915
 21
203.4220655370329
 31
0.0
  0
LINE
  5
255D
330
2409
100
AcDbEntity
  8
1
 62
     7
100
AcDbLine
 10
172.6592106916915
 20
203.7220655370329
 30
0.0
 11
172.6592106916915
 21
203.4220655370329
 31
0.0
  0
LINE
  5
255E
330
2409
100
AcDbEntity
  8
1
  6
CENTER
 62
     3
100
AcDbLine
 10
169.0592106916913
 20
202.2220655370329
 30
0.0
 11
173.2592106916914
 21
202.2220655370329
 31
0.0
  0
LINE
  5
255F
330
2409
100
AcDbEntity
  8
1
 62
     7
100
AcDbLine
 10
169.6592106916915
 20
201.0220655370329
 30
0.0
 11
172.6592106916915
 21
201.0220655370329
 31
0.0
  0
LINE
  5
2560
330
2409
100
AcDbEntity
  8
1
 62
     7
100
AcDbLine
 10
169.6592106916915
 20
201.0220655370329
 30
0.0
 11
169.6592106916915
 21
200.7220655370328
 31
0.0
  0
LINE
  5
2561
330
2409
100
AcDbEntity
  8
1
 62
     7
100
AcDbLine
 10
172.6592106916915
 20
201.0220655370329
 30
0.0
 11
172.6592106916915
 21
200.7220655370328
 31
0.0
  0
LINE
  5
2562
330
2409
100
AcDbEntity
  8
1
 62
     7
100
AcDbLine
 10
169.6592106916915
 20
203.4220655370329
 30
0.0
 11
172.6592106916915
 21
203.4220655370329
 31
0.0
  0
LINE
  5
2563
330
2409
100
AcDbEntity
  8
1
 62
     7
100
AcDbLine
 10
169.6592106916915
 20
203.4220655370329
 30
0.0
 11
169.6592106916915
 21
201.0220655370329
 31
0.0
  0
LINE
  5
2564
330
2409
100
AcDbEntity
  8
1
 62
     7
100
AcDbLine
 10
172.6592106916915
 20
203.4220655370329
 30
0.0
 11
172.6592106916915
 21
201.0220655370329
 31
0.0
  0
ARC
  5
2565
330
2409
100
AcDbEntity
  8
1
 62
     7
100
AcDbCircle
 10
283.1592106916916
 20
215.7427125018111
 30
0.0
 40
22.79499999999998
100
AcDbArc
 50
79.73895468522622
 51
84.60887140173012
  0
ARC
  5
2566
330
2409
100
AcDbEntity
  8
1
 62
     7
100
AcDbCircle
 10
283.1592106916916
 20
236.9277125018111
 30
0.0
 40
2.619999999999985
100
AcDbArc
 50
317.2040421973706
 51
35.17094663346417
  0
ARC
  5
2567
330
2409
100
AcDbEntity
  8
1
 62
     7
100
AcDbCircle
 10
283.1592106916916
 20
215.7427125018111
 30
0.0
 40
19.5
100
AcDbArc
 50
80.00578710323829
 51
84.34203898371881
  0
ARC
  5
2568
330
2409
100
AcDbEntity
  8
1
 62
     7
100
AcDbCircle
 10
288.8748552886531
 20
236.1421152342741
 30
0.0
 40
2.619999999999993
100
AcDbArc
 50
129.1768794534918
 51
207.1437838895856
  0
ARC
  5
2569
330
2409
100
AcDbEntity
  8
1
 62
     7
100
AcDbCircle
 10
283.1592106916916
 20
215.7427125018111
 30
0.0
 40
22.79499999999994
100
AcDbArc
 50
64.08678077218282
 51
68.95669748868745
  0
ARC
  5
256A
330
2409
100
AcDbEntity
  8
1
 62
     7
100
AcDbCircle
 10
288.8748552886531
 20
236.1421152342741
 30
0.0
 40
2.620000000000039
100
AcDbArc
 50
301.5518682843272
 51
19.51877272042192
  0
ARC
  5
256B
330
2409
100
AcDbEntity
  8
1
 62
     7
100
AcDbCircle
 10
283.1592106916916
 20
215.7427125018111
 30
0.0
 40
19.49999999999996
100
AcDbArc
 50
64.35361319019445
 51
68.68986507067503
  0
ARC
  5
256C
330
2409
100
AcDbEntity
  8
1
 62
     7
100
AcDbCircle
 10
294.1665966731921
 20
233.8435875871283
 30
0.0
 40
2.619999999999961
100
AcDbArc
 50
113.5247055404501
 51
191.4916099765441
  0
ARC
  5
256D
330
2409
100
AcDbEntity
  8
1
 62
     7
100
AcDbCircle
 10
283.1592106916916
 20
215.7427125018111
 30
0.0
 40
22.79499999999994
100
AcDbArc
 50
48.43460685913888
 51
53.30452357564381
  0
ARC
  5
256E
330
2409
100
AcDbEntity
  8
1
 62
     7
100
AcDbCircle
 10
294.1665966731921
 20
233.8435875871283
 30
0.0
 40
2.620000000000009
100
AcDbArc
 50
285.8996943712817
 51
3.866598807376727
  0
ARC
  5
256F
330
2409
100
AcDbEntity
  8
1
 62
     7
100
AcDbCircle
 10
283.1592106916916
 20
215.7427125018111
 30
0.0
 40
19.5
100
AcDbArc
 50
48.70143927715062
 51
53.03769115763241
  0
ARC
  5
2570
330
2409
100
AcDbEntity
  8
1
 62
     7
100
AcDbCircle
 10
298.6419705949236
 20
230.2026008408983
 30
0.0
 40
2.619999999999999
100
AcDbArc
 50
97.87253162740565
 51
175.8394360634986
  0
ARC
  5
2571
330
2409
100
AcDbEntity
  8
1
 62
     7
100
AcDbCircle
 10
283.1592106916916
 20
215.7427125018111
 30
0.0
 40
22.79499999999992
100
AcDbArc
 50
32.78243294609544
 51
37.65234966260008
  0
ARC
  5
2572
330
2409
100
AcDbEntity
  8
1
 62
     7
100
AcDbCircle
 10
298.6419705949236
 20
230.2026008408983
 30
0.0
 40
2.620000000000019
100
AcDbArc
 50
270.2475204582414
 51
348.214424894335
  0
ARC
  5
2573
330
2409
100
AcDbEntity
  8
1
 62
     7
100
AcDbCircle
 10
283.1592106916916
 20
215.7427125018111
 30
0.0
 40
19.49999999999996
100
AcDbArc
 50
33.04926536410778
 51
37.38551724458821
  0
ARC
  5
2574
330
2409
100
AcDbEntity
  8
1
 62
     7
100
AcDbCircle
 10
301.9690590435458
 20
225.4891903261456
 30
0.0
 40
2.619999999999984
100
AcDbArc
 50
82.22035771436392
 51
160.187262150456
  0
ARC
  5
2575
330
2409
100
AcDbEntity
  8
1
 62
     7
100
AcDbCircle
 10
283.1592106916916
 20
215.7427125018111
 30
0.0
 40
22.79499999999989
100
AcDbArc
 50
17.13025903305279
 51
22.00017574955734
  0
ARC
  5
2576
330
2409
100
AcDbEntity
  8
1
 62
     7
100
AcDbCircle
 10
301.9690590435458
 20
225.4891903261456
 30
0.0
 40
2.620000000000039
100
AcDbArc
 50
254.5953465451953
 51
332.5622509812902
  0
ARC
  5
2577
330
2409
100
AcDbEntity
  8
1
 62
     7
100
AcDbCircle
 10
283.1592106916916
 20
215.7427125018111
 30
0.0
 40
19.49999999999996
100
AcDbArc
 50
17.39709145106427
 51
21.7333433315449
  0
ARC
  5
2578
330
2409
100
AcDbEntity
  8
1
 62
     7
100
AcDbCircle
 10
303.9011070892411
 20
220.0529281383312
 30
0.0
 40
2.619999999999981
100
AcDbArc
 50
66.56818380131821
 51
144.5350882374116
  0
ARC
  5
2579
330
2409
100
AcDbEntity
  8
1
 62
     7
100
AcDbCircle
 10
283.1592106916916
 20
215.7427125018111
 30
0.0
 40
22.79499999999994
100
AcDbArc
 50
1.47808512000806
 51
6.348001836512684
  0
ARC
  5
257A
330
2409
100
AcDbEntity
  8
1
 62
     7
100
AcDbCircle
 10
303.9011070892411
 20
220.0529281383312
 30
0.0
 40
2.620000000000088
100
AcDbArc
 50
238.9431726321531
 51
316.9100770682483
  0
ARC
  5
257B
330
2409
100
AcDbEntity
  8
1
 62
     7
100
AcDbCircle
 10
283.1592106916916
 20
215.7427125018111
 30
0.0
 40
19.49999999999996
100
AcDbArc
 50
1.744917538020549
 51
6.081169418500807
  0
ARC
  5
257C
330
2409
100
AcDbEntity
  8
1
 62
     7
100
AcDbCircle
 10
304.2948235669931
 20
214.2969969746804
 30
0.0
 40
2.620000000000029
100
AcDbArc
 50
50.91600988827444
 51
128.8829143243684
  0
ARC
  5
257D
330
2409
100
AcDbEntity
  8
1
 62
     7
100
AcDbCircle
 10
283.1592106916916
 20
215.7427125018111
 30
0.0
 40
22.79499999999994
100
AcDbArc
 50
345.8259112069645
 51
350.6958279234698
  0
ARC
  5
257E
330
2409
100
AcDbEntity
  8
1
 62
     7
100
AcDbCircle
 10
304.2948235669931
 20
214.2969969746804
 30
0.0
 40
2.619999999999941
100
AcDbArc
 50
223.2909987191109
 51
301.2579031552056
  0
ARC
  5
257F
330
2409
100
AcDbEntity
  8
1
 62
     7
100
AcDbCircle
 10
283.1592106916916
 20
215.7427125018111
 30
0.0
 40
19.49999999999992
100
AcDbArc
 50
346.0927436249763
 51
350.4289955054571
  0
ARC
  5
2580
330
2409
100
AcDbEntity
  8
1
 62
     7
100
AcDbCircle
 10
303.1210083267788
 20
208.6482879179688
 30
0.0
 40
2.619999999999989
100
AcDbArc
 50
35.2638359752315
 51
113.2307404113249
  0
ARC
  5
2581
330
2409
100
AcDbEntity
  8
1
 62
     7
100
AcDbCircle
 10
283.1592106916916
 20
215.7427125018111
 30
0.0
 40
22.79499999999992
100
AcDbArc
 50
330.1737372939212
 51
335.0436540104256
  0
ARC
  5
2582
330
2409
100
AcDbEntity
  8
1
 62
     7
100
AcDbCircle
 10
303.1210083267788
 20
208.6482879179688
 30
0.0
 40
2.620000000000068
100
AcDbArc
 50
207.6388248060661
 51
285.6057292421599
  0
ARC
  5
2583
330
2409
100
AcDbEntity
  8
1
 62
     7
100
AcDbCircle
 10
283.1592106916916
 20
215.7427125018111
 30
0.0
 40
19.49999999999992
100
AcDbArc
 50
330.440569711934
 51
334.7768215924152
  0
ARC
  5
2584
330
2409
100
AcDbEntity
  8
1
 62
     7
100
AcDbCircle
 10
300.4667178751178
 20
203.5257398778075
 30
0.0
 40
2.619999999999928
100
AcDbArc
 50
19.61166206218766
 51
97.57856649828381
  0
ARC
  5
2585
330
2409
100
AcDbEntity
  8
1
 62
     7
100
AcDbCircle
 10
283.1592106916916
 20
215.7427125018111
 30
0.0
 40
22.79499999999992
100
AcDbArc
 50
314.5215633808783
 51
319.3914800973828
  0
ARC
  5
2586
330
2409
100
AcDbEntity
  8
1
 62
     7
100
AcDbCircle
 10
300.4667178751178
 20
203.5257398778075
 30
0.0
 40
2.620000000000022
100
AcDbArc
 50
191.9866508930238
 51
269.9535553291168
  0
ARC
  5
2587
330
2409
100
AcDbEntity
  8
1
 62
     7
100
AcDbCircle
 10
283.1592106916916
 20
215.7427125018111
 30
0.0
 40
19.49999999999985
100
AcDbArc
 50
314.7883957988888
 51
319.1246476793711
  0
ARC
  5
2588
330
2409
100
AcDbEntity
  8
1
 62
     7
100
AcDbCircle
 10
296.5288087922388
 20
199.3092688082379
 30
0.0
 40
2.620000000000048
100
AcDbArc
 50
3.959488149146208
 51
81.92639258523948
  0
ARC
  5
2589
330
2409
100
AcDbEntity
  8
1
 62
     7
100
AcDbCircle
 10
283.1592106916916
 20
215.7427125018111
 30
0.0
 40
22.795
100
AcDbArc
 50
298.8693894678338
 51
303.7393061843396
  0
ARC
  5
258A
330
2409
100
AcDbEntity
  8
1
 62
     7
100
AcDbCircle
 10
296.5288087922388
 20
199.3092688082379
 30
0.0
 40
2.619999999999989
100
AcDbArc
 50
176.3344769799805
 51
254.301381416074
  0
ARC
  5
258B
330
2409
100
AcDbEntity
  8
1
 62
     7
100
AcDbCircle
 10
283.1592106916916
 20
215.7427125018111
 30
0.0
 40
19.49999999999996
100
AcDbArc
 50
299.1362218858459
 51
303.4724737663278
  0
ARC
  5
258C
330
2409
100
AcDbEntity
  8
1
 62
     7
100
AcDbCircle
 10
291.599337780084
 20
196.3115910794178
 30
0.0
 40
2.620000000000042
100
AcDbArc
 50
348.3073142361014
 51
66.2742186721957
  0
ARC
  5
258D
330
2409
100
AcDbEntity
  8
1
 62
     7
100
AcDbCircle
 10
283.1592106916916
 20
215.7427125018111
 30
0.0
 40
22.79499999999992
100
AcDbArc
 50
283.2172155547912
 51
288.0871322712962
  0
ARC
  5
258E
330
2409
100
AcDbEntity
  8
1
 62
     7
100
AcDbCircle
 10
291.599337780084
 20
196.3115910794178
 30
0.0
 40
2.620000000000029
100
AcDbArc
 50
160.6823030669358
 51
238.6492075030291
  0
ARC
  5
258F
330
2409
100
AcDbEntity
  8
1
 62
     7
100
AcDbCircle
 10
283.1592106916916
 20
215.7427125018111
 30
0.0
 40
19.49999999999999
100
AcDbArc
 50
283.4840479728025
 51
287.8202998532833
  0
ARC
  5
2590
330
2409
100
AcDbEntity
  8
1
 62
     7
100
AcDbCircle
 10
286.0439011527954
 20
194.7550307350315
 30
0.0
 40
2.62000000000004
100
AcDbArc
 50
332.6551403230582
 51
50.62204475914946
  0
ARC
  5
2591
330
2409
100
AcDbEntity
  8
1
 62
     7
100
AcDbCircle
 10
283.1592106916916
 20
215.7427125018111
 30
0.0
 40
22.79499999999996
100
AcDbArc
 50
267.5650416417468
 51
272.4349583582528
  0
ARC
  5
2592
330
2409
100
AcDbEntity
  8
1
 62
     7
100
AcDbCircle
 10
286.0439011527954
 20
194.7550307350315
 30
0.0
 40
2.619999999999949
100
AcDbArc
 50
145.0301291538905
 51
222.9970335899881
  0
ARC
  5
2593
330
2409
100
AcDbEntity
  8
1
 62
     7
100
AcDbCircle
 10
283.1592106916916
 20
215.7427125018111
 30
0.0
 40
19.49999999999995
100
AcDbArc
 50
267.8318740597589
 51
272.168125940241
  0
ARC
  5
2594
330
2409
100
AcDbEntity
  8
1
 62
     7
100
AcDbCircle
 10
280.2745202305874
 20
194.7550307350315
 30
0.0
 40
2.619999999999973
100
AcDbArc
 50
317.002966410013
 51
34.96987084610935
  0
ARC
  5
2595
330
2409
100
AcDbEntity
  8
1
 62
     7
100
AcDbCircle
 10
283.1592106916916
 20
215.7427125018111
 30
0.0
 40
22.79500000000003
100
AcDbArc
 50
251.9128677287037
 51
256.7827844452088
  0
ARC
  5
2596
330
2409
100
AcDbEntity
  8
1
 62
     7
100
AcDbCircle
 10
280.2745202305874
 20
194.7550307350315
 30
0.0
 40
2.620000000000009
100
AcDbArc
 50
129.3779552408504
 51
207.3448596769438
  0
ARC
  5
2597
330
2409
100
AcDbEntity
  8
1
 62
     7
100
AcDbCircle
 10
283.1592106916916
 20
215.7427125018111
 30
0.0
 40
19.5
100
AcDbArc
 50
252.1797001467164
 51
256.5159520271973
  0
ARC
  5
2598
330
2409
100
AcDbEntity
  8
1
 62
     7
100
AcDbCircle
 10
274.719083603299
 20
196.3115910794178
 30
0.0
 40
2.620000000000016
100
AcDbArc
 50
301.3507924969685
 51
19.31769693306596
  0
ARC
  5
2599
330
2409
100
AcDbEntity
  8
1
 62
     7
100
AcDbCircle
 10
283.1592106916916
 20
215.7427125018111
 30
0.0
 40
22.795
100
AcDbArc
 50
236.2606938156602
 51
241.1306105321661
  0
ARC
  5
259A
330
2409
100
AcDbEntity
  8
1
 62
     7
100
AcDbCircle
 10
274.719083603299
 20
196.3115910794178
 30
0.0
 40
2.62000000000004
100
AcDbArc
 50
113.7257813278077
 51
191.6926857638983
  0
ARC
  5
259B
330
2409
100
AcDbEntity
  8
1
 62
     7
100
AcDbCircle
 10
283.1592106916916
 20
215.7427125018111
 30
0.0
 40
19.5
100
AcDbArc
 50
236.5275262336718
 51
240.8637781141532
  0
ARC
  5
259C
330
2409
100
AcDbEntity
  8
1
 62
     7
100
AcDbCircle
 10
269.7896125911439
 20
199.3092688082379
 30
0.0
 40
2.620000000000019
100
AcDbArc
 50
285.6986185839255
 51
3.66552302002095
  0
ARC
  5
259D
330
2409
100
AcDbEntity
  8
1
 62
     7
100
AcDbCircle
 10
283.1592106916916
 20
215.7427125018111
 30
0.0
 40
22.795
100
AcDbArc
 50
220.6085199026168
 51
225.4784366191214
  0
ARC
  5
259E
330
2409
100
AcDbEntity
  8
1
 62
     7
100
AcDbCircle
 10
269.7896125911439
 20
199.3092688082379
 30
0.0
 40
2.620000000000035
100
AcDbArc
 50
98.07360741476212
 51
176.040511850857
  0
ARC
  5
259F
330
2409
100
AcDbEntity
  8
1
 62
     7
100
AcDbCircle
 10
283.1592106916916
 20
215.7427125018111
 30
0.0
 40
19.5
100
AcDbArc
 50
220.8753523206288
 51
225.2116042011097
  0
ARC
  5
25A0
330
2409
100
AcDbEntity
  8
1
 62
     7
100
AcDbCircle
 10
265.8517035082654
 20
203.5257398778075
 30
0.0
 40
2.620000000000056
100
AcDbArc
 50
270.0464446708831
 51
348.013349106976
  0
ARC
  5
25A1
330
2409
100
AcDbEntity
  8
1
 62
     7
100
AcDbCircle
 10
283.1592106916916
 20
215.7427125018111
 30
0.0
 40
22.79500000000007
100
AcDbArc
 50
204.9563459895741
 51
209.8262627060786
  0
ARC
  5
25A2
330
2409
100
AcDbEntity
  8
1
 62
     7
100
AcDbCircle
 10
265.8517035082654
 20
203.5257398778075
 30
0.0
 40
2.619999999999918
100
AcDbArc
 50
82.42143350171785
 51
160.3883379378123
  0
ARC
  5
25A3
330
2409
100
AcDbEntity
  8
1
 62
     7
100
AcDbCircle
 10
283.1592106916916
 20
215.7427125018111
 30
0.0
 40
19.5
100
AcDbArc
 50
205.2231784075845
 51
209.5594302880656
  0
ARC
  5
25A4
330
2409
100
AcDbEntity
  8
1
 62
     7
100
AcDbCircle
 10
263.1974130566044
 20
208.6482879179688
 30
0.0
 40
2.62000000000004
100
AcDbArc
 50
254.3942707578378
 51
332.3611751939322
  0
ARC
  5
25A5
330
2409
100
AcDbEntity
  8
1
 62
     7
100
AcDbCircle
 10
283.1592106916916
 20
215.7427125018111
 30
0.0
 40
22.79499999999996
100
AcDbArc
 50
189.30417207653
 51
194.1740887930354
  0
ARC
  5
25A6
330
2409
100
AcDbEntity
  8
1
 62
     7
100
AcDbCircle
 10
263.1974130566044
 20
208.6482879179688
 30
0.0
 40
2.620000000000009
100
AcDbArc
 50
66.76925958867503
 51
144.7361640247721
  0
ARC
  5
25A7
330
2409
100
AcDbEntity
  8
1
 62
     7
100
AcDbCircle
 10
283.1592106916916
 20
215.7427125018111
 30
0.0
 40
19.5
100
AcDbArc
 50
189.5710044945426
 51
193.9072563750235
  0
ARC
  5
25A8
330
2409
100
AcDbEntity
  8
1
 62
     7
100
AcDbCircle
 10
262.02359781639
 20
214.2969969746804
 30
0.0
 40
2.619999999999945
100
AcDbArc
 50
238.7420968447956
 51
316.70900128089
  0
ARC
  5
25A9
330
2409
100
AcDbEntity
  8
1
 62
     7
100
AcDbCircle
 10
283.1592106916916
 20
215.7427125018111
 30
0.0
 40
22.7950000000001
100
AcDbArc
 50
173.6519981634872
 51
178.5219148799919
  0
ARC
  5
25AA
330
2409
100
AcDbEntity
  8
1
 62
     7
100
AcDbCircle
 10
262.02359781639
 20
214.2969969746804
 30
0.0
 40
2.62000000000008
100
AcDbArc
 50
51.11708567563154
 51
129.0839901117277
  0
ARC
  5
25AB
330
2409
100
AcDbEntity
  8
1
 62
     7
100
AcDbCircle
 10
283.1592106916916
 20
215.7427125018111
 30
0.0
 40
19.50000000000006
100
AcDbArc
 50
173.9188305814991
 51
178.2550824619794
  0
ARC
  5
25AC
330
2409
100
AcDbEntity
  8
1
 62
     7
100
AcDbCircle
 10
262.4173142941415
 20
220.0529281383312
 30
0.0
 40
2.620000000000108
100
AcDbArc
 50
223.0899229317516
 51
301.0568273678444
  0
ARC
  5
25AD
330
2409
100
AcDbEntity
  8
1
 62
     7
100
AcDbCircle
 10
283.1592106916916
 20
215.7427125018111
 30
0.0
 40
22.79500000000007
100
AcDbArc
 50
157.9998242504426
 51
162.8697409669471
  0
ARC
  5
25AE
330
2409
100
AcDbEntity
  8
1
 62
     7
100
AcDbCircle
 10
262.4173142941415
 20
220.0529281383312
 30
0.0
 40
2.619999999999898
100
AcDbArc
 50
35.46491176258827
 51
113.4318161986847
  0
ARC
  5
25AF
330
2409
100
AcDbEntity
  8
1
 62
     7
100
AcDbCircle
 10
283.1592106916916
 20
215.7427125018111
 30
0.0
 40
19.5
100
AcDbArc
 50
158.266656668455
 51
162.6029085489354
  0
ARC
  5
25B0
330
2409
100
AcDbEntity
  8
1
 62
     7
100
AcDbCircle
 10
264.3493623398371
 20
225.4891903261456
 30
0.0
 40
2.619999999999957
100
AcDbArc
 50
207.4377490187095
 51
285.4046534548043
  0
ARC
  5
25B1
330
2409
100
AcDbEntity
  8
1
 62
     7
100
AcDbCircle
 10
283.1592106916916
 20
215.7427125018111
 30
0.0
 40
22.79500000000007
100
AcDbArc
 50
142.3476503373999
 51
147.2175670539041
  0
ARC
  5
25B2
330
2409
100
AcDbEntity
  8
1
 62
     7
100
AcDbCircle
 10
264.3493623398371
 20
225.4891903261456
 30
0.0
 40
2.620000000000139
100
AcDbArc
 50
19.8127378495436
 51
97.77964228563609
  0
ARC
  5
25B3
330
2409
100
AcDbEntity
  8
1
 62
     7
100
AcDbCircle
 10
283.1592106916916
 20
215.7427125018111
 30
0.0
 40
19.50000000000006
100
AcDbArc
 50
142.6144827554115
 51
146.9507346358918
  0
ARC
  5
25B4
330
2409
100
AcDbEntity
  8
1
 62
     7
100
AcDbCircle
 10
267.6764507884594
 20
230.2026008408983
 30
0.0
 40
2.620000000000095
100
AcDbArc
 50
191.7855751056664
 51
269.7524795417601
  0
ARC
  5
25B5
330
2409
100
AcDbEntity
  8
1
 62
     7
100
AcDbCircle
 10
283.1592106916916
 20
215.7427125018111
 30
0.0
 40
22.79500000000005
100
AcDbArc
 50
126.6954764243561
 51
131.5653931408606
  0
ARC
  5
25B6
330
2409
100
AcDbEntity
  8
1
 62
     7
100
AcDbCircle
 10
267.6764507884594
 20
230.2026008408983
 30
0.0
 40
2.620000000000055
100
AcDbArc
 50
4.16056393650135
 51
82.12746837259619
  0
ARC
  5
25B7
330
2409
100
AcDbEntity
  8
1
 62
     7
100
AcDbCircle
 10
283.1592106916916
 20
215.7427125018111
 30
0.0
 40
19.5
100
AcDbArc
 50
126.9623088423676
 51
131.2985607228492
  0
ARC
  5
25B8
330
2409
100
AcDbEntity
  8
1
 62
     7
100
AcDbCircle
 10
272.1518247101909
 20
233.8435875871283
 30
0.0
 40
2.62000000000004
100
AcDbArc
 50
176.1334011926232
 51
254.1003056287164
  0
ARC
  5
25B9
330
2409
100
AcDbEntity
  8
1
 62
     7
100
AcDbCircle
 10
283.1592106916916
 20
215.7427125018111
 30
0.0
 40
22.79500000000007
100
AcDbArc
 50
111.0433025113125
 51
115.9132192278169
  0
ARC
  5
25BA
330
2409
100
AcDbEntity
  8
1
 62
     7
100
AcDbCircle
 10
272.1518247101909
 20
233.8435875871283
 30
0.0
 40
2.620000000000064
100
AcDbArc
 50
348.5083900234556
 51
66.4752944595528
  0
ARC
  5
25BB
330
2409
100
AcDbEntity
  8
1
 62
     7
100
AcDbCircle
 10
283.1592106916916
 20
215.7427125018111
 30
0.0
 40
19.50000000000006
100
AcDbArc
 50
111.3101349293249
 51
115.6463868098055
  0
ARC
  5
25BC
330
2409
100
AcDbEntity
  8
1
 62
     7
100
AcDbCircle
 10
277.4435660947298
 20
236.1421152342743
 30
0.0
 40
2.62000000000006
100
AcDbArc
 50
160.4812272795796
 51
238.448131715674
  0
ARC
  5
25BD
330
2409
100
AcDbEntity
  8
1
 62
     7
100
AcDbCircle
 10
283.1592106916916
 20
236.9277125018111
 30
0.0
 40
2.620000000000076
100
AcDbArc
 50
144.8290533665343
 51
222.7959578026291
  0
ARC
  5
25BE
330
2409
100
AcDbEntity
  8
1
 62
     7
100
AcDbCircle
 10
283.1592106916916
 20
215.7427125018111
 30
0.0
 40
19.5
100
AcDbArc
 50
95.65796101628121
 51
99.9942128967633
  0
ARC
  5
25BF
330
2409
100
AcDbEntity
  8
1
 62
     7
100
AcDbCircle
 10
277.4435660947298
 20
236.1421152342743
 30
0.0
 40
2.620000000000002
100
AcDbArc
 50
332.8562161104128
 51
50.82312054650817
  0
ARC
  5
25C0
330
2409
100
AcDbEntity
  8
1
 62
     7
100
AcDbCircle
 10
283.1592106916916
 20
215.7427125018111
 30
0.0
 40
22.79500000000007
100
AcDbArc
 50
95.39112859826991
 51
100.2610453147736
  0
ARC
  5
25C1
330
2409
100
AcDbEntity
  8
1
 62
     7
100
AcDbCircle
 10
194.5492106916915
 20
236.9045655370328
 30
0.0
 40
2.381249999999965
100
AcDbArc
 50
63.57762546118863
 51
90.0
  0
ARC
  5
25C2
330
2409
100
AcDbEntity
  8
1
 62
     7
100
AcDbCircle
 10
194.5492106916915
 20
236.9045655370328
 30
0.0
 40
2.381249999999961
100
AcDbArc
 50
297.6141371293877
 51
63.57762546118863
  0
ARC
  5
25C3
330
2409
100
AcDbEntity
  8
1
 62
     7
100
AcDbCircle
 10
194.5492106916915
 20
236.9045655370328
 30
0.0
 40
2.38125
100
AcDbArc
 50
270.0
 51
297.6141371293877
  0
ARC
  5
25C4
330
2409
100
AcDbEntity
  8
1
 62
     7
100
AcDbCircle
 10
194.5492106916915
 20
236.9045655370328
 30
0.0
 40
2.381249999999989
100
AcDbArc
 50
242.3858628706107
 51
270.0
  0
ARC
  5
25C5
330
2409
100
AcDbEntity
  8
1
 62
     7
100
AcDbCircle
 10
194.5492106916915
 20
236.9045655370328
 30
0.0
 40
2.38125000000002
100
AcDbArc
 50
116.4223745388135
 51
242.3858628706107
  0
ARC
  5
25C6
330
2409
100
AcDbEntity
  8
1
 62
     7
100
AcDbCircle
 10
194.5492106916915
 20
236.9045655370328
 30
0.0
 40
2.381250000000019
100
AcDbArc
 50
90.0
 51
116.4223745388135
  0
ARC
  5
25C7
330
2409
100
AcDbEntity
  8
1
 62
     7
100
AcDbCircle
 10
194.5492106916915
 20
194.5345655370329
 30
0.0
 40
2.381249999999995
100
AcDbArc
 50
243.5776254611865
 51
270.0
  0
ARC
  5
25C8
330
2409
100
AcDbEntity
  8
1
 62
     7
100
AcDbCircle
 10
194.5492106916915
 20
194.5345655370329
 30
0.0
 40
2.381250000000004
100
AcDbArc
 50
117.6141371293889
 51
243.5776254611865
  0
ARC
  5
25C9
330
2409
100
AcDbEntity
  8
1
 62
     7
100
AcDbCircle
 10
194.5492106916915
 20
194.5345655370329
 30
0.0
 40
2.381250000000019
100
AcDbArc
 50
90.0
 51
117.6141371293889
  0
ARC
  5
25CA
330
2409
100
AcDbEntity
  8
1
 62
     7
100
AcDbCircle
 10
194.5492106916915
 20
194.5345655370329
 30
0.0
 40
2.381249999999976
100
AcDbArc
 50
62.3858628706122
 51
90.0
  0
ARC
  5
25CB
330
2409
100
AcDbEntity
  8
1
 62
     7
100
AcDbCircle
 10
194.5492106916915
 20
194.5345655370329
 30
0.0
 40
2.381249999999941
100
AcDbArc
 50
296.4223745388114
 51
62.3858628706122
  0
ARC
  5
25CC
330
2409
100
AcDbEntity
  8
1
 62
     7
100
AcDbCircle
 10
194.5492106916915
 20
194.5345655370329
 30
0.0
 40
2.381249999999989
100
AcDbArc
 50
270.0
 51
296.4223745388114
  0
ARC
  5
25CD
330
2409
100
AcDbEntity
  8
1
 62
     7
100
AcDbCircle
 10
283.1592106916916
 20
236.9277125018111
 30
0.0
 40
2.381250000000035
100
AcDbArc
 50
117.8210529528959
 51
243.9177547106354
  0
ARC
  5
25CE
330
2409
100
AcDbEntity
  8
1
 62
     7
100
AcDbCircle
 10
283.1592106916916
 20
236.9277125018111
 30
0.0
 40
2.381249999999961
100
AcDbArc
 50
296.0822452893643
 51
62.17894704710404
  0
ARC
  5
25CF
330
2409
100
AcDbEntity
  8
1
 62
     7
100
AcDbCircle
 10
277.4435660947298
 20
236.1421152342743
 30
0.0
 40
2.381249999999969
100
AcDbArc
 50
133.4732268659384
 51
259.5699286236807
  0
ARC
  5
25D0
330
2409
100
AcDbEntity
  8
1
 62
     7
100
AcDbCircle
 10
272.1518247101909
 20
233.8435875871283
 30
0.0
 40
2.381249999999976
100
AcDbArc
 50
149.1254007789813
 51
275.2221025367215
  0
ARC
  5
25D1
330
2409
100
AcDbEntity
  8
1
 62
     7
100
AcDbCircle
 10
267.6764507884594
 20
230.2026008408983
 30
0.0
 40
2.381249999999912
100
AcDbArc
 50
164.7775746920244
 51
290.8742764497665
  0
ARC
  5
25D2
330
2409
100
AcDbEntity
  8
1
 62
     7
100
AcDbCircle
 10
264.3493623398371
 20
225.4891903261456
 30
0.0
 40
2.381249999999965
100
AcDbArc
 50
180.4297486050695
 51
306.5264503628128
  0
ARC
  5
25D3
330
2409
100
AcDbEntity
  8
1
 62
     7
100
AcDbCircle
 10
262.4173142941415
 20
220.0529281383312
 30
0.0
 40
2.381250000000021
100
AcDbArc
 50
196.0819225181148
 51
322.1786242758511
  0
ARC
  5
25D4
330
2409
100
AcDbEntity
  8
1
 62
     7
100
AcDbCircle
 10
262.02359781639
 20
214.2969969746804
 30
0.0
 40
2.381250000000004
100
AcDbArc
 50
211.7340964311559
 51
337.8307981888968
  0
ARC
  5
25D5
330
2409
100
AcDbEntity
  8
1
 62
     7
100
AcDbCircle
 10
263.1974130566044
 20
208.6482879179688
 30
0.0
 40
2.381250000000004
100
AcDbArc
 50
227.3862703442003
 51
353.482972101941
  0
ARC
  5
25D6
330
2409
100
AcDbEntity
  8
1
 62
     7
100
AcDbCircle
 10
265.8517035082654
 20
203.5257398778075
 30
0.0
 40
2.381249999999968
100
AcDbArc
 50
243.0384442572413
 51
9.135146014983579
  0
ARC
  5
25D7
330
2409
100
AcDbEntity
  8
1
 62
     7
100
AcDbCircle
 10
269.7896125911439
 20
199.3092688082379
 30
0.0
 40
2.381249999999957
100
AcDbArc
 50
258.6906181702851
 51
24.78731992802858
  0
ARC
  5
25D8
330
2409
100
AcDbEntity
  8
1
 62
     7
100
AcDbCircle
 10
274.719083603299
 20
196.3115910794178
 30
0.0
 40
2.381249999999925
100
AcDbArc
 50
274.3427920833295
 51
40.4394938410726
  0
ARC
  5
25D9
330
2409
100
AcDbEntity
  8
1
 62
     7
100
AcDbCircle
 10
280.2745202305874
 20
194.7550307350315
 30
0.0
 40
2.381249999999989
100
AcDbArc
 50
289.9949659963738
 51
56.09166775411676
  0
ARC
  5
25DA
330
2409
100
AcDbEntity
  8
1
 62
     7
100
AcDbCircle
 10
286.0439011527954
 20
194.7550307350315
 30
0.0
 40
2.381250000000004
100
AcDbArc
 50
305.6471399094192
 51
71.74384166715634
  0
ARC
  5
25DB
330
2409
100
AcDbEntity
  8
1
 62
     7
100
AcDbCircle
 10
291.599337780084
 20
196.3115910794178
 30
0.0
 40
2.381249999999976
100
AcDbArc
 50
321.2993138224603
 51
87.39601558020416
  0
ARC
  5
25DC
330
2409
100
AcDbEntity
  8
1
 62
     7
100
AcDbCircle
 10
296.5288087922388
 20
199.3092688082379
 30
0.0
 40
2.381249999999996
100
AcDbArc
 50
336.9514877355042
 51
103.0481894932439
  0
ARC
  5
25DD
330
2409
100
AcDbEntity
  8
1
 62
     7
100
AcDbCircle
 10
300.4667178751178
 20
203.5257398778075
 30
0.0
 40
2.381249999999929
100
AcDbArc
 50
352.6036616485469
 51
118.7003634062902
  0
ARC
  5
25DE
330
2409
100
AcDbEntity
  8
1
 62
     7
100
AcDbCircle
 10
303.1210083267788
 20
208.6482879179688
 30
0.0
 40
2.381249999999929
100
AcDbArc
 50
8.255835561593338
 51
134.3525373193312
  0
ARC
  5
25DF
330
2409
100
AcDbEntity
  8
1
 62
     7
100
AcDbCircle
 10
304.2948235669931
 20
214.2969969746804
 30
0.0
 40
2.381250000000022
100
AcDbArc
 50
23.90800947463361
 51
150.0047112323773
  0
ARC
  5
25E0
330
2409
100
AcDbEntity
  8
1
 62
     7
100
AcDbCircle
 10
303.9011070892411
 20
220.0529281383312
 30
0.0
 40
2.381250000000022
100
AcDbArc
 50
39.56018338767589
 51
165.6568851454184
  0
ARC
  5
25E1
330
2409
100
AcDbEntity
  8
1
 62
     7
100
AcDbCircle
 10
301.9690590435458
 20
225.4891903261456
 30
0.0
 40
2.381249999999941
100
AcDbArc
 50
55.21235730072106
 51
181.3090590584603
  0
ARC
  5
25E2
330
2409
100
AcDbEntity
  8
1
 62
     7
100
AcDbCircle
 10
298.6419705949236
 20
230.2026008408983
 30
0.0
 40
2.381250000000029
100
AcDbArc
 50
70.86453121376455
 51
196.9612329715053
  0
ARC
  5
25E3
330
2409
100
AcDbEntity
  8
1
 62
     7
100
AcDbCircle
 10
294.1665966731921
 20
233.8435875871283
 30
0.0
 40
2.381249999999964
100
AcDbArc
 50
86.51670512681009
 51
212.6134068845512
  0
ARC
  5
25E4
330
2409
100
AcDbEntity
  8
1
 62
     7
100
AcDbCircle
 10
288.8748552886531
 20
236.1421152342741
 30
0.0
 40
2.381250000000042
100
AcDbArc
 50
102.1688790398518
 51
228.265580797591
  0
ARC
  5
25E5
330
2409
100
AcDbEntity
  8
1
 62
     7
100
AcDbCircle
 10
277.4435660947298
 20
236.1421152342743
 30
0.0
 40
2.38125000000004
100
AcDbArc
 50
311.7344192024066
 51
77.83112096014813
  0
ARC
  5
25E6
330
2409
100
AcDbEntity
  8
1
 62
     7
100
AcDbCircle
 10
272.1518247101909
 20
233.8435875871283
 30
0.0
 40
2.381249999999949
100
AcDbArc
 50
327.3865931154507
 51
93.4832948731899
  0
ARC
  5
25E7
330
2409
100
AcDbEntity
  8
1
 62
     7
100
AcDbCircle
 10
267.6764507884594
 20
230.2026008408983
 30
0.0
 40
2.381250000000064
100
AcDbArc
 50
343.0387670284963
 51
109.1354687862318
  0
ARC
  5
25E8
330
2409
100
AcDbEntity
  8
1
 62
     7
100
AcDbCircle
 10
264.3493623398371
 20
225.4891903261456
 30
0.0
 40
2.381250000000029
100
AcDbArc
 50
358.6909409415391
 51
124.7876426992766
  0
ARC
  5
25E9
330
2409
100
AcDbEntity
  8
1
 62
     7
100
AcDbCircle
 10
262.4173142941415
 20
220.0529281383312
 30
0.0
 40
2.381249999999904
100
AcDbArc
 50
14.34311485458152
 51
140.4398166123218
  0
ARC
  5
25EA
330
2409
100
AcDbEntity
  8
1
 62
     7
100
AcDbCircle
 10
262.02359781639
 20
214.2969969746804
 30
0.0
 40
2.38124999999999
100
AcDbArc
 50
29.99528876762346
 51
156.0919905253664
  0
ARC
  5
25EB
330
2409
100
AcDbEntity
  8
1
 62
     7
100
AcDbCircle
 10
263.1974130566044
 20
208.6482879179688
 30
0.0
 40
2.381249999999976
100
AcDbArc
 50
45.64746268066866
 51
171.7441644384098
  0
ARC
  5
25EC
330
2409
100
AcDbEntity
  8
1
 62
     7
100
AcDbCircle
 10
265.8517035082654
 20
203.5257398778075
 30
0.0
 40
2.38124999999997
100
AcDbArc
 50
61.29963659371163
 51
187.3963383514531
  0
ARC
  5
25ED
330
2409
100
AcDbEntity
  8
1
 62
     7
100
AcDbCircle
 10
269.7896125911439
 20
199.3092688082379
 30
0.0
 40
2.38125000000001
100
AcDbArc
 50
76.95181050675593
 51
203.0485122644955
  0
ARC
  5
25EE
330
2409
100
AcDbEntity
  8
1
 62
     7
100
AcDbCircle
 10
274.719083603299
 20
196.3115910794178
 30
0.0
 40
2.381250000000083
100
AcDbArc
 50
92.6039844197991
 51
218.7006861775384
  0
ARC
  5
25EF
330
2409
100
AcDbEntity
  8
1
 62
     7
100
AcDbCircle
 10
280.2745202305874
 20
194.7550307350315
 30
0.0
 40
2.381250000000009
100
AcDbArc
 50
108.2561583328421
 51
234.3528600905818
  0
ARC
  5
25F0
330
2409
100
AcDbEntity
  8
1
 62
     7
100
AcDbCircle
 10
286.0439011527954
 20
194.7550307350315
 30
0.0
 40
2.381250000000004
100
AcDbArc
 50
123.9083322458846
 51
250.0050340036275
  0
ARC
  5
25F1
330
2409
100
AcDbEntity
  8
1
 62
     7
100
AcDbCircle
 10
291.599337780084
 20
196.3115910794178
 30
0.0
 40
2.381250000000004
100
AcDbArc
 50
139.5605061589297
 51
265.6572079166687
  0
ARC
  5
25F2
330
2409
100
AcDbEntity
  8
1
 62
     7
100
AcDbCircle
 10
296.5288087922388
 20
199.3092688082379
 30
0.0
 40
2.381250000000052
100
AcDbArc
 50
155.2126800719734
 51
281.3093818297147
  0
ARC
  5
25F3
330
2409
100
AcDbEntity
  8
1
 62
     7
100
AcDbCircle
 10
300.4667178751178
 20
203.5257398778075
 30
0.0
 40
2.381250000000099
100
AcDbArc
 50
170.8648539850164
 51
296.9615557427565
  0
ARC
  5
25F4
330
2409
100
AcDbEntity
  8
1
 62
     7
100
AcDbCircle
 10
303.1210083267788
 20
208.6482879179688
 30
0.0
 40
2.381250000000022
100
AcDbArc
 50
186.5170278980589
 51
312.6137296557996
  0
ARC
  5
25F5
330
2409
100
AcDbEntity
  8
1
 62
     7
100
AcDbCircle
 10
304.2948235669931
 20
214.2969969746804
 30
0.0
 40
2.381249999999949
100
AcDbArc
 50
202.1692018111031
 51
328.2659035688435
  0
ARC
  5
25F6
330
2409
100
AcDbEntity
  8
1
 62
     7
100
AcDbCircle
 10
303.9011070892411
 20
220.0529281383312
 30
0.0
 40
2.381249999999989
100
AcDbArc
 50
217.8213757241488
 51
343.9180774818865
  0
ARC
  5
25F7
330
2409
100
AcDbEntity
  8
1
 62
     7
100
AcDbCircle
 10
301.9690590435458
 20
225.4891903261456
 30
0.0
 40
2.381250000000016
100
AcDbArc
 50
233.473549637189
 51
359.5702513949305
  0
ARC
  5
25F8
330
2409
100
AcDbEntity
  8
1
 62
     7
100
AcDbCircle
 10
298.6419705949236
 20
230.2026008408983
 30
0.0
 40
2.381250000000021
100
AcDbArc
 50
249.1257235502334
 51
15.22242530797401
  0
ARC
  5
25F9
330
2409
100
AcDbEntity
  8
1
 62
     7
100
AcDbCircle
 10
294.1665966731921
 20
233.8435875871283
 30
0.0
 40
2.38125000000008
100
AcDbArc
 50
264.7778974632764
 51
30.87459922101821
  0
ARC
  5
25FA
330
2409
100
AcDbEntity
  8
1
 62
     7
100
AcDbCircle
 10
288.8748552886531
 20
236.1421152342741
 30
0.0
 40
2.381249999999996
100
AcDbArc
 50
280.4300713763208
 51
46.52677313405907
  0
ARC
  5
25FB
330
2409
100
AcDbEntity
  8
1
  6
DIVIDE
 62
     3
100
AcDbCircle
 10
84.65921069195998
 20
215.739698779713
 30
0.0
 40
13.49999999999998
100
AcDbArc
 50
276.026071622122
 51
308.884515226029
  0
ARC
  5
25FC
330
2409
100
AcDbEntity
  8
1
  6
DIVIDE
 62
     3
100
AcDbCircle
 10
84.65921069195998
 20
215.739698779713
 30
0.0
 40
13.49999999999984
100
AcDbArc
 50
95.24471217416081
 51
131.567321615441
  0
ARC
  5
25FD
330
2409
100
AcDbEntity
  8
1
 62
     7
100
AcDbCircle
 10
283.15921134713
 20
215.7396987792465
 30
0.0
 40
4.499999932549273
100
AcDbArc
 50
109.4712206393395
 51
270.000000008818
  0
ARC
  5
25FE
330
2409
100
AcDbEntity
  8
1
 62
     7
100
AcDbCircle
 10
283.15921134713
 20
215.7396987792465
 30
0.0
 40
4.4999999325492
100
AcDbArc
 50
270.000000008818
 51
70.5287793820039
  0
ARC
  5
25FF
330
2409
100
AcDbEntity
  8
0
 62
     7
100
AcDbCircle
 10
190.8592106511274
 20
243.0220651269697
 30
0.0
 40
0.2999999954933017
100
AcDbArc
 50
270.0000000096939
 51
0.0
  0
ARC
  5
2600
330
2409
100
AcDbEntity
  8
0
 62
     7
100
AcDbCircle
 10
283.159211346976
 20
216.3521987708033
 30
0.0
 40
11.60249982567589
100
AcDbArc
 50
90.00000000000651
 51
250.730361122028
  0
ARC
  5
2601
330
2409
100
AcDbEntity
  8
0
 62
     7
100
AcDbCircle
 10
279.0992114079704
 20
204.7389347077432
 30
0.0
 40
0.6999999894944155
100
AcDbArc
 50
0.000000000539015
 51
70.73036112249055
  0
ARC
  5
2602
330
2409
100
AcDbEntity
  8
0
 62
     7
100
AcDbCircle
 10
280.4992113869461
 20
203.314698966691
 30
0.0
 40
0.6999999894989628
100
AcDbArc
 50
180.0
 51
269.9999999985442
  0
ARC
  5
2603
330
2409
100
AcDbEntity
  8
0
 62
     7
100
AcDbCircle
 10
283.1592113469736
 20
216.3521987708033
 30
0.0
 40
11.60249982567574
100
AcDbArc
 50
289.2696388779717
 51
89.99999999999348
  0
ARC
  5
2604
330
2409
100
AcDbEntity
  8
0
 62
     7
100
AcDbCircle
 10
287.2192112859838
 20
204.7389347077499
 30
0.0
 40
0.6999999894872823
100
AcDbArc
 50
109.269638877511
 51
180.0
  0
ARC
  5
2605
330
2409
100
AcDbEntity
  8
0
 62
     7
100
AcDbCircle
 10
285.8192113070151
 20
203.3146989666898
 30
0.0
 40
0.6999999894981901
100
AcDbArc
 50
270.0000000008011
 51
0.0000000000749084
  0
ARC
  5
2606
330
2409
100
AcDbEntity
  8
0
 62
     7
100
AcDbCircle
 10
190.8592106511274
 20
188.4220659470963
 30
0.0
 40
0.2999999954931809
100
AcDbArc
 50
0.0
 51
89.99999999030588
  0
ARC
  5
2607
330
2409
100
AcDbEntity
  8
1
 62
     7
100
AcDbCircle
 10
184.532386964805
 20
170.862065537033
 30
0.0
 40
19.97585831077404
100
AcDbArc
 50
75.1535129354525
 51
90.53113967428636
  0
ARC
  5
2608
330
2409
100
AcDbEntity
  8
1
 62
     7
100
AcDbCircle
 10
184.532386964805
 20
260.5820655370329
 30
0.0
 40
19.97585831077413
100
AcDbArc
 50
269.4688603257134
 51
284.8464870645456
  0
CIRCLE
  5
2609
330
2409
100
AcDbEntity
  8
1
 62
     7
100
AcDbCircle
 10
283.1592106916916
 20
215.7427125018111
 30
0.0
 40
24.53649999999999
  0
CIRCLE
  5
260A
330
2409
100
AcDbEntity
  8
1
 62
     7
100
AcDbCircle
 10
283.1592106916916
 20
215.7427125018111
 30
0.0
 40
23.31749999999999
  0
CIRCLE
  5
260B
330
2409
100
AcDbEntity
  8
1
 62
     7
100
AcDbCircle
 10
283.1592106916916
 20
215.7427125018111
 30
0.0
 40
17.77999999999996
  0
CIRCLE
  5
260C
330
2409
100
AcDbEntity
  8
1
 62
     7
100
AcDbCircle
 10
283.1592106916916
 20
215.7427125018111
 30
0.0
 40
19.07499999999998
  0
CIRCLE
  5
260D
330
2409
100
AcDbEntity
  8
1
 62
     3
100
AcDbCircle
 10
89.82543702902253
 20
203.267325090866
 30
0.0
 40
1.5
  0
CIRCLE
  5
260E
330
2409
100
AcDbEntity
  8
1
 62
     7
100
AcDbCircle
 10
89.82543702902253
 20
203.267325090866
 30
0.0
 40
1.200000000000102
  0
CIRCLE
  5
260F
330
2409
100
AcDbEntity
  8
1
 62
     7
100
AcDbCircle
 10
79.49298435489755
 20
228.21207246856
 30
0.0
 40
1.200000000000003
  0
CIRCLE
  5
2610
330
2409
100
AcDbEntity
  8
1
 62
     3
100
AcDbCircle
 10
79.49298435489755
 20
228.21207246856
 30
0.0
 40
1.5
  0
CIRCLE
  5
2611
330
2409
100
AcDbEntity
  8
1
 62
     7
100
AcDbCircle
 10
93.1444919388768
 20
224.2249800267877
 30
0.0
 40
2.75
  0
CIRCLE
  5
2612
330
2409
100
AcDbEntity
  8
1
 62
     7
100
AcDbCircle
 10
96.65921051185328
 20
215.7396987799831
 30
0.0
 40
2.749999999999912
  0
CIRCLE
  5
2613
330
2409
100
AcDbEntity
  8
1
 62
     7
100
AcDbCircle
 10
93.1444919388768
 20
207.2544175331788
 30
0.0
 40
2.750000000000063
  0
CIRCLE
  5
2614
330
2409
100
AcDbEntity
  8
1
 62
     7
100
AcDbCircle
 10
84.65921069207238
 20
203.7396989602023
 30
0.0
 40
2.749999999999956
  0
CIRCLE
  5
2615
330
2409
100
AcDbEntity
  8
1
 62
     7
100
AcDbCircle
 10
76.17392944526788
 20
207.2544175331788
 30
0.0
 40
2.749999999999841
  0
CIRCLE
  5
2616
330
2409
100
AcDbEntity
  8
1
 62
     7
100
AcDbCircle
 10
72.65921087229145
 20
215.7396987799831
 30
0.0
 40
2.75
  0
CIRCLE
  5
2617
330
2409
100
AcDbEntity
  8
1
 62
     7
100
AcDbCircle
 10
76.17392944526788
 20
224.2249800267877
 30
0.0
 40
2.750000000000079
  0
CIRCLE
  5
2618
330
2409
100
AcDbEntity
  8
1
 62
     7
100
AcDbCircle
 10
84.65921069207229
 20
227.7396985997639
 30
0.0
 40
2.75
  0
CIRCLE
  5
2619
330
2409
100
AcDbEntity
  8
1
  6
CENTER
 62
     3
100
AcDbCircle
 10
84.65921069207238
 20
215.7396987799831
 30
0.0
 40
11.99999981978088
  0
CIRCLE
  5
261A
330
2409
100
AcDbEntity
  8
1
 62
     7
100
AcDbCircle
 10
84.65921069169141
 20
215.7396987799831
 30
0.0
 40
26.99999959446889
  0
CIRCLE
  5
261B
330
2409
100
AcDbEntity
  8
1
 62
     7
100
AcDbCircle
 10
84.65921069169141
 20
215.7396987799831
 30
0.0
 40
25.7999996125213
  0
CIRCLE
  5
261C
330
2409
100
AcDbEntity
  8
1
 62
     7
100
AcDbCircle
 10
84.65921069169141
 20
215.7396987799831
 30
0.0
 40
7.999999879870897
  0
CIRCLE
  5
261D
330
2409
100
AcDbEntity
  8
1
 62
     7
100
AcDbCircle
 10
283.1592113469748
 20
215.7396987799831
 30
0.0
 40
34.99999947446672
  0
CIRCLE
  5
261E
330
2409
100
AcDbEntity
  8
1
 62
     7
100
AcDbCircle
 10
283.1592113469748
 20
215.7396987799831
 30
0.0
 40
25.79999961262281
  0
CIRCLE
  5
261F
330
2409
100
AcDbEntity
  8
1
 62
     7
100
AcDbCircle
 10
283.1592113469748
 20
215.7396987799831
 30
0.0
 40
24.8509996267334
  0
CIRCLE
  5
2620
330
2409
100
AcDbEntity
  8
1
 62
     7
100
AcDbCircle
 10
283.1592113469748
 20
215.7396987799831
 30
0.0
 40
10.49999984251771
  0
CIRCLE
  5
2621
330
2409
100
AcDbEntity
  8
1
 62
     7
100
AcDbCircle
 10
84.65921069169141
 20
215.7396987799831
 30
0.0
 40
34.99999947436521
  0
CIRCLE
  5
2622
330
2409
100
AcDbEntity
  8
1
 62
     7
100
AcDbCircle
 10
283.1592113469748
 20
215.7396987799831
 30
0.0
 40
13.99999978993911
  0
CIRCLE
  5
2623
330
2409
100
AcDbEntity
  8
0
 62
     7
100
AcDbCircle
 10
281.3042113748492
 20
204.2946989519291
 30
0.0
 40
0.6999999894794087
  0
CIRCLE
  5
2624
330
2409
100
AcDbEntity
  8
0
 62
     7
100
AcDbCircle
 10
285.0142113191052
 20
204.2946989519291
 30
0.0
 40
0.6999999894830893
  0
CIRCLE
  5
2625
330
2409
100
AcDbEntity
  8
1
 62
     7
100
AcDbCircle
 10
84.65921069169141
 20
215.7396987799831
 30
0.0
 40
15.98236675704987
  0
CIRCLE
  5
2626
330
2409
100
AcDbEntity
  8
1
 62
     7
100
AcDbCircle
 10
84.65921069169141
 20
215.7396987799831
 30
0.0
 40
24.81736675704989
  0
CIRCLE
  5
2627
330
2409
100
AcDbEntity
  8
1
  6
CENTER
 62
     3
100
AcDbCircle
 10
283.1592106916916
 20
215.7427125018111
 30
0.0
 40
30.9969862781724
  0
CIRCLE
  5
2628
330
2409
100
AcDbEntity
  8
1
 62
     7
100
AcDbCircle
 10
283.1592106916914
 20
246.7396987799829
 30
0.0
 40
1.75
  0
CIRCLE
  5
2629
330
2409
100
AcDbEntity
  8
1
 62
     7
100
AcDbCircle
 10
267.660717552605
 20
242.586890059466
 30
0.0
 40
1.750000000000045
  0
CIRCLE
  5
262A
330
2409
100
AcDbEntity
  8
1
 62
     7
100
AcDbCircle
 10
256.3150331340366
 20
231.241205640897
 30
0.0
 40
1.750000000000019
  0
CIRCLE
  5
262B
330
2409
100
AcDbEntity
  8
1
 62
     7
100
AcDbCircle
 10
252.1622244135189
 20
215.7427125018108
 30
0.0
 40
1.75
  0
CIRCLE
  5
262C
330
2409
100
AcDbEntity
  8
1
 62
     7
100
AcDbCircle
 10
256.3150331340366
 20
200.2442193627248
 30
0.0
 40
1.749999999999938
  0
CIRCLE
  5
262D
330
2409
100
AcDbEntity
  8
1
 62
     7
100
AcDbCircle
 10
267.660717552605
 20
188.8985349441561
 30
0.0
 40
1.750000000000045
  0
CIRCLE
  5
262E
330
2409
100
AcDbEntity
  8
1
 62
     7
100
AcDbCircle
 10
283.1592106916917
 20
184.7457262236386
 30
0.0
 40
1.750000000000025
  0
CIRCLE
  5
262F
330
2409
100
AcDbEntity
  8
1
 62
     7
100
AcDbCircle
 10
298.6577038307779
 20
188.8985349441561
 30
0.0
 40
1.750000000000033
  0
CIRCLE
  5
2630
330
2409
100
AcDbEntity
  8
1
 62
     7
100
AcDbCircle
 10
310.0033882493466
 20
200.2442193627251
 30
0.0
 40
1.750000000000019
  0
CIRCLE
  5
2631
330
2409
100
AcDbEntity
  8
1
 62
     7
100
AcDbCircle
 10
314.156196969864
 20
215.7427125018111
 30
0.0
 40
1.749999999999799
  0
CIRCLE
  5
2632
330
2409
100
AcDbEntity
  8
1
 62
     7
100
AcDbCircle
 10
310.0033882493463
 20
231.2412056408973
 30
0.0
 40
1.74999999999995
  0
CIRCLE
  5
2633
330
2409
100
AcDbEntity
  8
1
 62
     7
100
AcDbCircle
 10
298.6577038307775
 20
242.586890059466
 30
0.0
 40
1.750000000000033
  0
CIRCLE
  5
2634
330
2409
100
AcDbEntity
  8
1
 62
     3
100
AcDbCircle
 10
291.181821081264
 20
185.8019229185964
 30
0.0
 40
1.5
  0
CIRCLE
  5
2635
330
2409
100
AcDbEntity
  8
1
 62
     7
100
AcDbCircle
 10
291.181821081264
 20
185.8019229185964
 30
0.0
 40
1.75
  0
CIRCLE
  5
2636
330
2409
100
AcDbEntity
  8
1
 62
     7
100
AcDbCircle
 10
291.181821081264
 20
185.8019229185964
 30
0.0
 40
1.200000000000003
  0
CIRCLE
  5
2637
330
2409
100
AcDbEntity
  8
1
 62
     3
100
AcDbCircle
 10
275.1366003021189
 20
245.6835020850259
 30
0.0
 40
1.5
  0
CIRCLE
  5
2638
330
2409
100
AcDbEntity
  8
1
 62
     7
100
AcDbCircle
 10
275.1366003021189
 20
245.6835020850259
 30
0.0
 40
1.75
  0
CIRCLE
  5
2639
330
2409
100
AcDbEntity
  8
1
 62
     7
100
AcDbCircle
 10
275.1366003021189
 20
245.6835020850259
 30
0.0
 40
1.200000000000041
  0
CIRCLE
  5
263A
330
2409
100
AcDbEntity
  8
1
  6
CENTER
 62
     3
100
AcDbCircle
 10
84.65921069169141
 20
215.7396987799831
 30
0.0
 40
30.9999999999998
  0
CIRCLE
  5
263B
330
2409
100
AcDbEntity
  8
1
 62
     7
100
AcDbCircle
 10
84.65921069169141
 20
246.7396987799829
 30
0.0
 40
1.75
  0
CIRCLE
  5
263C
330
2409
100
AcDbEntity
  8
1
 62
     7
100
AcDbCircle
 10
69.15921069169164
 20
242.5864862973011
 30
0.0
 40
1.749999999999934
  0
CIRCLE
  5
263D
330
2409
100
AcDbEntity
  8
1
 62
     7
100
AcDbCircle
 10
57.81242317437436
 20
231.2396987799834
 30
0.0
 40
1.749999999999924
  0
CIRCLE
  5
263E
330
2409
100
AcDbEntity
  8
1
 62
     7
100
AcDbCircle
 10
53.65921069169203
 20
215.7396987799836
 30
0.0
 40
1.75
  0
CIRCLE
  5
263F
330
2409
100
AcDbEntity
  8
1
 62
     7
100
AcDbCircle
 10
57.81242317437454
 20
200.239698779984
 30
0.0
 40
1.749999999999924
  0
CIRCLE
  5
2640
330
2409
100
AcDbEntity
  8
1
 62
     7
100
AcDbCircle
 10
69.15921069169204
 20
188.8929112626663
 30
0.0
 40
1.750000000000033
  0
CIRCLE
  5
2641
330
2409
100
AcDbEntity
  8
1
 62
     7
100
AcDbCircle
 10
84.65921069169196
 20
184.7396987799843
 30
0.0
 40
1.749999999999972
  0
CIRCLE
  5
2642
330
2409
100
AcDbEntity
  8
1
 62
     7
100
AcDbCircle
 10
100.1592106916914
 20
188.8929112626668
 30
0.0
 40
1.750000000000019
  0
CIRCLE
  5
2643
330
2409
100
AcDbEntity
  8
1
 62
     7
100
AcDbCircle
 10
111.5059982090087
 20
200.2396987799843
 30
0.0
 40
1.750000000000045
  0
CIRCLE
  5
2644
330
2409
100
AcDbEntity
  8
1
 62
     7
100
AcDbCircle
 10
115.6592106916912
 20
215.739698779984
 30
0.0
 40
1.749999999999799
  0
CIRCLE
  5
2645
330
2409
100
AcDbEntity
  8
1
 62
     7
100
AcDbCircle
 10
111.5059982090087
 20
231.239698779984
 30
0.0
 40
1.750000000000045
  0
CIRCLE
  5
2646
330
2409
100
AcDbEntity
  8
1
 62
     7
100
AcDbCircle
 10
100.1592106916912
 20
242.5864862973011
 30
0.0
 40
1.749999999999944
  0
CIRCLE
  5
2647
330
2409
100
AcDbEntity
  8
1
 62
     3
100
AcDbCircle
 10
92.68260108986963
 20
245.6833993949447
 30
0.0
 40
1.5
  0
CIRCLE
  5
2648
330
2409
100
AcDbEntity
  8
1
 62
     7
100
AcDbCircle
 10
92.68260108986963
 20
245.6833993949447
 30
0.0
 40
1.199999999999989
  0
CIRCLE
  5
2649
330
2409
100
AcDbEntity
  8
1
 62
     3
100
AcDbCircle
 10
76.63582029351345
 20
185.7959981650228
 30
0.0
 40
1.5
  0
CIRCLE
  5
264A
330
2409
100
AcDbEntity
  8
1
 62
     7
100
AcDbCircle
 10
76.63582029351345
 20
185.7959981650228
 30
0.0
 40
1.200000000000003
  0
ARC
  5
264B
330
2409
100
AcDbEntity
  8
1
 62
     7
100
AcDbCircle
 10
191.0850098273503
 20
235.4195655370331
 30
0.0
 40
0.1999999999999799
100
AcDbArc
 50
172.7514957686508
 51
270.0
  0
ARC
  5
264C
330
2409
100
AcDbEntity
  8
1
 62
     7
100
AcDbCircle
 10
191.2579606916914
 20
238.3145655370328
 30
0.0
 40
0.2000000000000206
100
AcDbArc
 50
90.0
 51
180.0
  0
ARC
  5
264D
330
2409
100
AcDbEntity
  8
1
 62
     7
100
AcDbCircle
 10
191.2579606916914
 20
193.1245655370328
 30
0.0
 40
0.2000000000001014
100
AcDbArc
 50
180.0
 51
270.0
  0
ARC
  5
264E
330
2409
100
AcDbEntity
  8
1
 62
     7
100
AcDbCircle
 10
191.0850098273503
 20
196.0195655370331
 30
0.0
 40
0.1999999999999886
100
AcDbArc
 50
90.0
 51
187.2485042313456
  0
ARC
  5
2653
330
2409
100
AcDbEntity
  8
1
 62
     7
100
AcDbCircle
 10
171.9082106916914
 20
199.522065537033
 30
0.0
 40
0.1999999999999904
100
AcDbArc
 50
0.0
 51
90.0
  0
ARC
  5
2654
330
2409
100
AcDbEntity
  8
1
 62
     7
100
AcDbCircle
 10
171.9082106916914
 20
231.922065537033
 30
0.0
 40
0.2000000000000206
100
AcDbArc
 50
270.0
 51
0.0
  0
ARC
  5
2655
330
2409
100
AcDbEntity
  8
1
 62
     7
100
AcDbCircle
 10
173.8092106916916
 20
192.338065537033
 30
0.0
 40
1.15433963806152
100
AcDbArc
 50
175.0302592718901
 51
265.0302592718903
  0
ARC
  5
2656
330
2409
100
AcDbEntity
  8
1
 62
     7
100
AcDbCircle
 10
173.8092106916916
 20
239.1060655370329
 30
0.0
 40
1.154339638061518
100
AcDbArc
 50
94.96974072810965
 51
184.9697407281096
  0
ARC
  5
2657
330
2409
100
AcDbEntity
  8
1
 62
     7
100
AcDbCircle
 10
173.6082106916915
 20
239.107065537033
 30
0.0
 40
1.499999999999988
100
AcDbArc
 50
90.0
 51
180.0
  0
ARC
  5
2658
330
2409
100
AcDbEntity
  8
1
 62
     7
100
AcDbCircle
 10
173.6082106916915
 20
192.3370655370328
 30
0.0
 40
1.499999999999984
100
AcDbArc
 50
180.0
 51
270.0
  0
TEXT
  5
2659
330
2409
100
AcDbEntity
  8
1
 62
     0
100
AcDbText
 10
257.1543556981251
 20
147.2213470108235
 30
0.0
 40
5.058623806918347
  1
CSF-20-XXX-2A-GR.dxf
 41
0.9
100
AcDbText
  0
TEXT
  5
265A
330
2409
100
AcDbEntity
  8
1
 62
     0
100
AcDbText
 10
140.5258619866041
 20
145.5254099878924
 30
0.0
 40
3.359999999999997
  1
REMARKS:  M.H.C = MINIMUM HOUSING CLEARANCE
 41
0.9
 72
     1
 11
184.381421986604
 21
147.2054099878924
 31
0.0
100
AcDbText
 73
     2
  0
TEXT
  5
265E
330
2409
100
AcDbEntity
  8
1
 62
     3
100
AcDbText
 10
57.92800286577003
 20
83.80605877378282
 30
0.0
 40
2.1
  1
 
 41
0.9
100
AcDbText
  0
TEXT
  5
2665
330
2409
100
AcDbEntity
  8
1
 62
     0
100
AcDbText
 10
275.117001168046
 20
136.3770537347376
 30
0.0
 40
5.058623806918347
  1
2002/3
 41
0.9
 72
     1
 11
284.7142852088643
 21
138.9063656381968
 31
0.0
100
AcDbText
 73
     2
  0
INSERT
  5
26DA
330
2409
100
AcDbEntity
  8
AM_0
100
AcDbBlockReference
  2
HD Logo
 10
223.8581688275559
 20
82.82585923677077
 30
0.0
 41
0.85
 42
0.85
 43
0.85
  0
INSERT
  5
2703
330
2409
100
AcDbEntity
  8
AM_0
100
AcDbBlockReference
  2
HD LLC
 10
303.3849039676523
 20
84.52545553661614
 30
0.0
  0
INSERT
  5
2710
330
2409
100
AcDbEntity
  8
AM_0
100
AcDbBlockReference
  2
NTC
 10
29.09172051642224
 20
113.8024828370827
 30
0.0
 41
0.5
 42
0.5
 43
0.5
  0
ENDSEC
  0
SECTION
  2
OBJECTS
  0
DICTIONARY
  5
23F7
330
0
100
AcDbDictionary
281
     1
  3
ACAD_GROUP
350
23F8
  3
ACAD_LAYOUT
350
2404
  3
ACAD_MLINESTYLE
350
2401
  3
ACAD_PLOTSETTINGS
350
2403
  3
ACAD_PLOTSTYLENAME
350
23F9
  3
AcDbVariableDictionary
350
26F2
  0
DICTIONARY
  5
23F8
102
{ACAD_REACTORS
330
23F7
102
}
330
23F7
100
AcDbDictionary
281
     1
  0
DICTIONARY
  5
2404
102
{ACAD_REACTORS
330
23F7
102
}
330
23F7
100
AcDbDictionary
281
     1
  3
Layout1
350
2408
  3
Model
350
240C
  0
DICTIONARY
  5
2401
102
{ACAD_REACTORS
330
23F7
102
}
330
23F7
100
AcDbDictionary
281
     1
  3
Standard
350
2402
  0
DICTIONARY
  5
2403
102
{ACAD_REACTORS
330
23F7
102
}
330
23F7
100
AcDbDictionary
281
     1
  0
ACDBDICTIONARYWDFLT
  5
23F9
102
{ACAD_REACTORS
330
23F7
102
}
330
23F7
100
AcDbDictionary
281
     1
  3
Normal
350
23FA
100
AcDbDictionaryWithDefault
340
23FA
  0
DICTIONARY
  5
26F2
102
{ACAD_REACTORS
330
23F7
102
}
330
23F7
100
AcDbDictionary
281
     1
  3
DIMASSOC
350
26F3
  0
LAYOUT
  5
2408
102
{ACAD_REACTORS
330
2404
102
}
330
2404
100
AcDbPlotSettings
  1

  2
\\SERVER9\HP LaserJet 5100 PCL 5e
  4

  6

 40
0.0
 41
0.0
 42
0.0
 43
0.0
 44
0.0
 45
0.0
 46
0.0
 47
0.0
 48
0.0
 49
0.0
140
0.0
141
0.0
142
1.0
143
1.0
 70
   688
 72
     0
 73
     0
 74
     5
  7

 75
    16
147
1.0
148
0.0
149
0.0
100
AcDbLayout
  1
Layout1
 70
     1
 71
     1
 10
0.0
 20
0.0
 11
420.0
 21
297.0
 12
0.0
 22
0.0
 32
0.0
 14
1.000000000000000E+20
 24
1.000000000000000E+20
 34
1.000000000000000E+20
 15
-1.000000000000000E+20
 25
-1.000000000000000E+20
 35
-1.000000000000000E+20
146
0.0
 13
0.0
 23
0.0
 33
0.0
 16
1.0
 26
0.0
 36
0.0
 17
0.0
 27
1.0
 37
0.0
 76
     0
330
2405
  0
LAYOUT
  5
240C
102
{ACAD_REACTORS
330
2404
102
}
330
2404
100
AcDbPlotSettings
  1

  2
\\SERVER9\HP LaserJet 5100 PCL 5e
  4

  6

 40
0.0
 41
0.0
 42
0.0
 43
0.0
 44
0.0
 45
0.0
 46
0.0
 47
0.0
 48
0.0
 49
0.0
140
0.0
141
0.0
142
1.0
143
1.0
 70
  1712
 72
     0
 73
     0
 74
     0
  7

 75
     0
147
1.0
148
0.0
149
0.0
100
AcDbLayout
  1
Model
 70
     1
 71
     0
 10
0.0
 20
0.0
 11
12.0
 21
9.0
 12
0.0
 22
0.0
 32
0.0
 14
0.0
 24
0.0
 34
0.0
 15
0.0
 25
0.0
 35
0.0
146
0.0
 13
0.0
 23
0.0
 33
0.0
 16
1.0
 26
0.0
 36
0.0
 17
0.0
 27
1.0
 37
0.0
 76
     0
330
2409
  0
MLINESTYLE
  5
2402
102
{ACAD_REACTORS
330
2401
102
}
330
2401
100
AcDbMlineStyle
  2
STANDARD
 70
     0
  3

 62
   256
 51
90.0
 52
90.0
 71
     2
 49
0.5
 62
   256
  6
BYLAYER
 49
-0.5
 62
   256
  6
BYLAYER
  0
ACDBPLACEHOLDER
  5
23FA
102
{ACAD_REACTORS
330
23F9
102
}
330
23F9
  0
DICTIONARYVAR
  5
26F3
102
{ACAD_REACTORS
330
26F2
102
}
330
26F2
100
DictionaryVariables
280
     0
  1
1
  0
ENDSEC
  0
EOF
