  0
SECTION
  2
HEADER
  9
$ACADVER
  1
AC1015
  9
$ACADMAINTVER
 70
    13
  9
$DWGCODEPAGE
  3
ANSI_1252
  9
$INSBASE
 10
0.0
 20
0.0
 30
0.0
  9
$EXTMIN
 10
33.46454154691322
 20
-35.30264758366455
 30
0.0
  9
$EXTMAX
 10
421.5932359436041
 20
232.1200905133349
 30
0.0
  9
$LIMMIN
 10
0.0
 20
0.0
  9
$LIMMAX
 10
420.0
 20
297.0
  9
$ORTHOMODE
 70
     0
  9
$REGENMODE
 70
     1
  9
$FILLMODE
 70
     1
  9
$QTEXTMODE
 70
     0
  9
$MIRRTEXT
 70
     1
  9
$LTSCALE
 40
1.0
  9
$ATTMODE
 70
     1
  9
$TEXTSIZE
 40
2.5
  9
$TRACEWID
 40
1.0
  9
$TEXTSTYLE
  7
STANDARD
  9
$CLAYER
  8
AM_0
  9
$CELTYPE
  6
ByLayer
  9
$CECOLOR
 62
   256
  9
$CELTSCALE
 40
1.0
  9
$DISPSILH
 70
     0
  9
$DIMSCALE
 40
1.0
  9
$DIMASZ
 40
2.5
  9
$DIMEXO
 40
0.625
  9
$DIMDLI
 40
3.75
  9
$DIMRND
 40
0.0
  9
$DIMDLE
 40
0.0
  9
$DIMEXE
 40
1.25
  9
$DIMTP
 40
0.0
  9
$DIMTM
 40
0.0
  9
$DIMTXT
 40
2.5
  9
$DIMCEN
 40
2.5
  9
$DIMTSZ
 40
0.0
  9
$DIMTOL
 70
     0
  9
$DIMLIM
 70
     0
  9
$DIMTIH
 70
     0
  9
$DIMTOH
 70
     0
  9
$DIMSE1
 70
     0
  9
$DIMSE2
 70
     0
  9
$DIMTAD
 70
     1
  9
$DIMZIN
 70
     8
  9
$DIMBLK
  1

  9
$DIMASO
 70
     1
  9
$DIMSHO
 70
     1
  9
$DIMPOST
  1

  9
$DIMAPOST
  1

  9
$DIMALT
 70
     0
  9
$DIMALTD
 70
     3
  9
$DIMALTF
 40
0.03937007874016
  9
$DIMLFAC
 40
1.0
  9
$DIMTOFL
 70
     1
  9
$DIMTVP
 40
0.0
  9
$DIMTIX
 70
     0
  9
$DIMSOXD
 70
     0
  9
$DIMSAH
 70
     0
  9
$DIMBLK1
  1

  9
$DIMBLK2
  1

  9
$DIMSTYLE
  2
ISO-25
  9
$DIMCLRD
 70
     0
  9
$DIMCLRE
 70
     0
  9
$DIMCLRT
 70
     0
  9
$DIMTFAC
 40
1.0
  9
$DIMGAP
 40
0.625
  9
$DIMJUST
 70
     0
  9
$DIMSD1
 70
     0
  9
$DIMSD2
 70
     0
  9
$DIMTOLJ
 70
     1
  9
$DIMTZIN
 70
     0
  9
$DIMALTZ
 70
     0
  9
$DIMALTTZ
 70
     0
  9
$DIMUPT
 70
     0
  9
$DIMDEC
 70
     4
  9
$DIMTDEC
 70
     4
  9
$DIMALTU
 70
     2
  9
$DIMALTTD
 70
     2
  9
$DIMTXSTY
  7
STANDARD
  9
$DIMAUNIT
 70
     0
  9
$DIMADEC
 70
     0
  9
$DIMALTRND
 40
0.0
  9
$DIMAZIN
 70
     0
  9
$DIMDSEP
 70
    46
  9
$DIMATFIT
 70
     3
  9
$DIMFRAC
 70
     0
  9
$DIMLDRBLK
  1

  9
$DIMLUNIT
 70
     2
  9
$DIMLWD
 70
    -2
  9
$DIMLWE
 70
    -2
  9
$DIMTMOVE
 70
     0
  9
$LUNITS
 70
     2
  9
$LUPREC
 70
     2
  9
$SKETCHINC
 40
1.0
  9
$FILLETRAD
 40
2.5
  9
$AUNITS
 70
     0
  9
$AUPREC
 70
     0
  9
$MENU
  1
.
  9
$ELEVATION
 40
0.0
  9
$PELEVATION
 40
0.0
  9
$THICKNESS
 40
0.0
  9
$LIMCHECK
 70
     0
  9
$CHAMFERA
 40
2.5
  9
$CHAMFERB
 40
2.5
  9
$CHAMFERC
 40
0.0
  9
$CHAMFERD
 40
0.0
  9
$SKPOLY
 70
     0
  9
$TDCREATE
 40
2452802.633413079
  9
$TDUCREATE
 40
2452802.800079745
  9
$TDUPDATE
 40
2453865.487828044
  9
$TDUUPDATE
 40
2453865.654494710
  9
$TDINDWG
 40
0.1048833449
  9
$TDUSRTIMER
 40
0.1048829977
  9
$USRTIMER
 70
     1
  9
$ANGBASE
 50
0.0
  9
$ANGDIR
 70
     0
  9
$PDMODE
 70
     0
  9
$PDSIZE
 40
0.0
  9
$PLINEWID
 40
0.0
  9
$SPLFRAME
 70
     0
  9
$SPLINETYPE
 70
     6
  9
$SPLINESEGS
 70
     8
  9
$HANDSEED
  5
2463
  9
$SURFTAB1
 70
     6
  9
$SURFTAB2
 70
     6
  9
$SURFTYPE
 70
     6
  9
$SURFU
 70
     6
  9
$SURFV
 70
     6
  9
$UCSBASE
  2

  9
$UCSNAME
  2

  9
$UCSORG
 10
0.0
 20
0.0
 30
0.0
  9
$UCSXDIR
 10
1.0
 20
0.0
 30
0.0
  9
$UCSYDIR
 10
0.0
 20
1.0
 30
0.0
  9
$UCSORTHOREF
  2

  9
$UCSORTHOVIEW
 70
     0
  9
$UCSORGTOP
 10
0.0
 20
0.0
 30
0.0
  9
$UCSORGBOTTOM
 10
0.0
 20
0.0
 30
0.0
  9
$UCSORGLEFT
 10
0.0
 20
0.0
 30
0.0
  9
$UCSORGRIGHT
 10
0.0
 20
0.0
 30
0.0
  9
$UCSORGFRONT
 10
0.0
 20
0.0
 30
0.0
  9
$UCSORGBACK
 10
0.0
 20
0.0
 30
0.0
  9
$PUCSBASE
  2

  9
$PUCSNAME
  2

  9
$PUCSORG
 10
0.0
 20
0.0
 30
0.0
  9
$PUCSXDIR
 10
1.0
 20
0.0
 30
0.0
  9
$PUCSYDIR
 10
0.0
 20
1.0
 30
0.0
  9
$PUCSORTHOREF
  2

  9
$PUCSORTHOVIEW
 70
     0
  9
$PUCSORGTOP
 10
0.0
 20
0.0
 30
0.0
  9
$PUCSORGBOTTOM
 10
0.0
 20
0.0
 30
0.0
  9
$PUCSORGLEFT
 10
0.0
 20
0.0
 30
0.0
  9
$PUCSORGRIGHT
 10
0.0
 20
0.0
 30
0.0
  9
$PUCSORGFRONT
 10
0.0
 20
0.0
 30
0.0
  9
$PUCSORGBACK
 10
0.0
 20
0.0
 30
0.0
  9
$USERI1
 70
     0
  9
$USERI2
 70
     0
  9
$USERI3
 70
     0
  9
$USERI4
 70
     0
  9
$USERI5
 70
     0
  9
$USERR1
 40
0.0
  9
$USERR2
 40
0.0
  9
$USERR3
 40
0.0
  9
$USERR4
 40
0.0
  9
$USERR5
 40
0.0
  9
$WORLDVIEW
 70
     1
  9
$SHADEDGE
 70
     3
  9
$SHADEDIF
 70
    70
  9
$TILEMODE
 70
     1
  9
$MAXACTVP
 70
    64
  9
$PINSBASE
 10
0.0
 20
0.0
 30
0.0
  9
$PLIMCHECK
 70
     0
  9
$PEXTMIN
 10
1.000000000000000E+20
 20
1.000000000000000E+20
 30
1.000000000000000E+20
  9
$PEXTMAX
 10
-1.000000000000000E+20
 20
-1.000000000000000E+20
 30
-1.000000000000000E+20
  9
$PLIMMIN
 10
0.0
 20
0.0
  9
$PLIMMAX
 10
420.0
 20
297.0
  9
$UNITMODE
 70
     0
  9
$VISRETAIN
 70
     1
  9
$PLINEGEN
 70
     0
  9
$PSLTSCALE
 70
     1
  9
$TREEDEPTH
 70
  3020
  9
$CMLSTYLE
  2
Standard
  9
$CMLJUST
 70
     0
  9
$CMLSCALE
 40
1.0
  9
$PROXYGRAPHICS
 70
     1
  9
$MEASUREMENT
 70
     0
  9
$CELWEIGHT
370
    -1
  9
$ENDCAPS
280
     0
  9
$JOINSTYLE
280
     0
  9
$LWDISPLAY
290
     0
  9
$INSUNITS
 70
     0
  9
$HYPERLINKBASE
  1

  9
$STYLESHEET
  1

  9
$XEDIT
290
     1
  9
$CEPSNTYPE
380
     0
  9
$PSTYLEMODE
290
     1
  9
$FINGERPRINTGUID
  2
{302A22B7-1072-4205-9D74-BF06CA52183A}
  9
$VERSIONGUID
  2
{3B55B07D-8967-4538-9553-1EEB982B9FC8}
  9
$EXTNAMES
290
     1
  9
$PSVPSCALE
 40
0.0
  9
$OLESTARTUP
290
     0
  0
ENDSEC
  0
SECTION
  2
CLASSES
  0
CLASS
  1
ACDBDICTIONARYWDFLT
  2
AcDbDictionaryWithDefault
  3
AutoCAD 2000
 90
        0
280
     0
281
     0
  0
CLASS
  1
ACDBPLACEHOLDER
  2
AcDbPlaceHolder
  3
AutoCAD 2000
 90
        0
280
     0
281
     0
  0
CLASS
  1
LAYOUT
  2
AcDbLayout
  3
AutoCAD 2000
 90
        0
280
     0
281
     0
  0
CLASS
  1
DICTIONARYVAR
  2
AcDbDictionaryVar
  3
AutoCAD 2000
 90
        0
280
     0
281
     0
  0
ENDSEC
  0
SECTION
  2
TABLES
  0
TABLE
  2
VPORT
  5
2120
330
0
100
AcDbSymbolTable
 70
     2
  0
VPORT
  5
2462
330
2120
100
AcDbSymbolTableRecord
100
AcDbViewportTableRecord
  2
*Active
 70
     0
 10
0.0
 20
0.0
 11
1.0
 21
1.0
 12
233.4561554794801
 22
120.4551372914901
 13
0.0
 23
0.0
 14
2.5
 24
2.5
 15
10.0
 25
10.0
 16
0.0
 26
0.0
 36
1.0
 17
0.0
 27
0.0
 37
0.0
 40
354.3798775772802
 41
1.182835820895522
 42
50.0
 43
0.0
 44
0.0
 50
0.0
 51
0.0
 71
     0
 72
   100
 73
     1
 74
     3
 75
     0
 76
     0
 77
     0
 78
     0
281
     0
 65
     1
110
0.0
120
0.0
130
0.0
111
1.0
121
0.0
131
0.0
112
0.0
122
1.0
132
0.0
 79
     0
146
0.0
  0
ENDTAB
  0
TABLE
  2
LTYPE
  5
211D
330
0
100
AcDbSymbolTable
 70
     5
  0
LTYPE
  5
212B
330
211D
100
AcDbSymbolTableRecord
100
AcDbLinetypeTableRecord
  2
ByBlock
 70
     0
  3

 72
    65
 73
     0
 40
0.0
  0
LTYPE
  5
212C
330
211D
100
AcDbSymbolTableRecord
100
AcDbLinetypeTableRecord
  2
ByLayer
 70
     0
  3

 72
    65
 73
     0
 40
0.0
  0
LTYPE
  5
212D
330
211D
100
AcDbSymbolTableRecord
100
AcDbLinetypeTableRecord
  2
CONTINUOUS
 70
     0
  3
Solid line
 72
    65
 73
     0
 40
0.0
  0
LTYPE
  5
213C
330
211D
100
AcDbSymbolTableRecord
100
AcDbLinetypeTableRecord
  2
CENTER
 70
     0
  3
Center ____ _ ____ _ ____ _ ____ _ ____ _ ____
 72
    65
 73
     4
 40
50.8
 49
31.75
 74
     0
 49
-6.349999999999997
 74
     0
 49
6.349999999999997
 74
     0
 49
-6.349999999999997
 74
     0
  0
LTYPE
  5
213D
330
211D
100
AcDbSymbolTableRecord
100
AcDbLinetypeTableRecord
  2
DASHDOT
 70
     0
  3
__ . __ . __ .
 72
    65
 73
     4
 40
8.473684210527482
 49
4.236842105263741
 74
     0
 49
-2.11842105263187
 74
     0
 49
0.0
 74
     0
 49
-2.11842105263187
 74
     0
  0
LTYPE
  5
213E
330
211D
100
AcDbSymbolTableRecord
100
AcDbLinetypeTableRecord
  2
DIVIDE
 70
     0
  3
__ . . __ . . 
 72
    65
 73
     6
 40
10.59210526315935
 49
4.236842105263741
 74
     0
 49
-2.11842105263187
 74
     0
 49
0.0
 74
     0
 49
-2.11842105263187
 74
     0
 49
0.0
 74
     0
 49
-2.11842105263187
 74
     0
  0
LTYPE
  5
213F
330
211D
100
AcDbSymbolTableRecord
100
AcDbLinetypeTableRecord
  2
PHANTOM
 70
     0
  3
_____ _ _ _____ _ _ 
 72
    65
 73
     6
 40
21.1842105263187
 49
10.59210526315935
 74
     0
 49
-2.11842105263187
 74
     0
 49
2.11842105263187
 74
     0
 49
-2.11842105263187
 74
     0
 49
2.11842105263187
 74
     0
 49
-2.11842105263187
 74
     0
  0
ENDTAB
  0
TABLE
  2
LAYER
  5
211A
330
0
100
AcDbSymbolTable
 70
     5
  0
LAYER
  5
2128
330
211A
100
AcDbSymbolTableRecord
100
AcDbLayerTableRecord
  2
0
 70
     0
 62
     7
  6
CONTINUOUS
370
    -3
390
2127
  0
LAYER
  5
213A
330
211A
100
AcDbSymbolTableRecord
100
AcDbLayerTableRecord
  2
AM_0
 70
     0
 62
     7
  6
CONTINUOUS
370
    -3
390
2127
  0
LAYER
  5
2140
330
211A
100
AcDbSymbolTableRecord
100
AcDbLayerTableRecord
  2
1
 70
     0
 62
     7
  6
CONTINUOUS
370
    -3
390
2127
  0
LAYER
  5
2141
330
211A
100
AcDbSymbolTableRecord
100
AcDbLayerTableRecord
  2
2
 70
     0
 62
     7
  6
CONTINUOUS
370
    -3
390
2127
  0
LAYER
  5
242E
330
211A
100
AcDbSymbolTableRecord
100
AcDbLayerTableRecord
  2
LAYER_1
 70
     0
 62
     5
  6
CONTINUOUS
370
    -3
390
2127
  0
ENDTAB
  0
TABLE
  2
STYLE
  5
211B
330
0
100
AcDbSymbolTable
 70
     1
  0
STYLE
  5
2129
330
211B
100
AcDbSymbolTableRecord
100
AcDbTextStyleTableRecord
  2
STANDARD
 70
     0
 40
0.0
 41
1.0
 50
0.0
 71
     0
 42
2.5
  3
ISOCP.SHX
  4

  0
ENDTAB
  0
TABLE
  2
VIEW
  5
211E
330
0
100
AcDbSymbolTable
 70
     0
  0
ENDTAB
  0
TABLE
  2
UCS
  5
211F
330
0
100
AcDbSymbolTable
 70
     0
  0
ENDTAB
  0
TABLE
  2
APPID
  5
2121
330
0
100
AcDbSymbolTable
 70
    13
  0
APPID
  5
212A
330
2121
100
AcDbSymbolTableRecord
100
AcDbRegAppTableRecord
  2
ACAD
 70
     0
  0
APPID
  5
2142
330
2121
100
AcDbSymbolTableRecord
100
AcDbRegAppTableRecord
  2
GENIUS_GENDIM_13
 70
     0
  0
APPID
  5
2143
330
2121
100
AcDbSymbolTableRecord
100
AcDbRegAppTableRecord
  2
GENIUS_GENDTOL_13
 70
     0
  0
APPID
  5
2144
330
2121
100
AcDbSymbolTableRecord
100
AcDbRegAppTableRecord
  2
GENIUS_GE3DTOL_13
 70
     0
  0
APPID
  5
2145
330
2121
100
AcDbSymbolTableRecord
100
AcDbRegAppTableRecord
  2
MCAD_NO_VIS
 70
     0
  0
APPID
  5
2146
330
2121
100
AcDbSymbolTableRecord
100
AcDbRegAppTableRecord
  2
ACAD_TEMP_GRAPHIC
 70
     0
  0
APPID
  5
2147
330
2121
100
AcDbSymbolTableRecord
100
AcDbRegAppTableRecord
  2
AD_DRAW
 70
     0
  0
APPID
  5
2148
330
2121
100
AcDbSymbolTableRecord
100
AcDbRegAppTableRecord
  2
ACATTRIBSERVICES
 70
     0
  0
APPID
  5
2149
330
2121
100
AcDbSymbolTableRecord
100
AcDbRegAppTableRecord
  2
ASURF_PCURVE_APPNAME
 70
     0
  0
APPID
  5
214A
330
2121
100
AcDbSymbolTableRecord
100
AcDbRegAppTableRecord
  2
DESIGNERASSEMBLIES
 70
     0
  0
APPID
  5
214B
330
2121
100
AcDbSymbolTableRecord
100
AcDbRegAppTableRecord
  2
ACADM_DIM_EDIT
 70
     0
  0
APPID
  5
214C
330
2121
100
AcDbSymbolTableRecord
100
AcDbRegAppTableRecord
  2
G3V_ENTHND
 70
     0
  0
APPID
  5
214D
330
2121
100
AcDbSymbolTableRecord
100
AcDbRegAppTableRecord
  2
GENIUS_GENDIMSH_14
 70
     0
  0
ENDTAB
  0
TABLE
  2
DIMSTYLE
  5
2122
330
0
100
AcDbSymbolTable
 70
     2
100
AcDbDimStyleTable
 71
     0
  0
DIMSTYLE
105
214E
330
2122
100
AcDbSymbolTableRecord
100
AcDbDimStyleTableRecord
  2
ISO-25
 70
     0
 41
2.5
 42
0.625
 43
3.75
 44
1.25
 73
     0
 74
     0
 77
     1
 78
     8
140
2.5
141
2.5
143
0.03937007874016
147
0.625
171
     3
172
     1
271
     2
272
     2
274
     3
279
     2
284
     8
285
     8
286
     8
340
2129
  0
DIMSTYLE
105
242F
330
2122
100
AcDbSymbolTableRecord
100
AcDbDimStyleTableRecord
  2
Standard
 70
     0
340
2129
  0
ENDTAB
  0
TABLE
  2
BLOCK_RECORD
  5
2119
330
0
100
AcDbSymbolTable
 70
    21
  0
BLOCK_RECORD
  5
2136
330
2119
100
AcDbSymbolTableRecord
100
AcDbBlockTableRecord
  2
*Model_Space
340
2139
  0
BLOCK_RECORD
  5
2132
330
2119
100
AcDbSymbolTableRecord
100
AcDbBlockTableRecord
  2
*Paper_Space
340
2135
  0
BLOCK_RECORD
  5
2150
330
2119
100
AcDbSymbolTableRecord
100
AcDbBlockTableRecord
  2
$MODEL_SPACE
340
0
  0
BLOCK_RECORD
  5
2153
330
2119
100
AcDbSymbolTableRecord
100
AcDbBlockTableRecord
  2
$PAPER_SPACE
340
0
  0
BLOCK_RECORD
  5
23C2
330
2119
100
AcDbSymbolTableRecord
100
AcDbBlockTableRecord
  2
AI9-BLK14
340
0
310
2800000020000000200000000100080000000000000400000000000000000000000000000000000000000000000080000080000000808000800000008000800080800000C0C0C000C0DCC000F0CAA6000020400000206000002080000020A0000020C0000020E00000400000004020000040400000406000004080000040A0
310
000040C0000040E00000600000006020000060400000606000006080000060A0000060C0000060E00000800000008020000080400000806000008080000080A0000080C0000080E00000A0000000A0200000A0400000A0600000A0800000A0A00000A0C00000A0E00000C0000000C0200000C0400000C0600000C0800000C0
310
A00000C0C00000C0E00000E0000000E0200000E0400000E0600000E0800000E0A00000E0C00000E0E00040000000400020004000400040006000400080004000A0004000C0004000E00040200000402020004020400040206000402080004020A0004020C0004020E000404000004040200040404000404060004040800040
310
40A0004040C0004040E00040600000406020004060400040606000406080004060A0004060C0004060E00040800000408020004080400040806000408080004080A0004080C0004080E00040A0000040A0200040A0400040A0600040A0800040A0A00040A0C00040A0E00040C0000040C0200040C0400040C0600040C08000
310
40C0A00040C0C00040C0E00040E0000040E0200040E0400040E0600040E0800040E0A00040E0C00040E0E00080000000800020008000400080006000800080008000A0008000C0008000E00080200000802020008020400080206000802080008020A0008020C0008020E00080400000804020008040400080406000804080
310
008040A0008040C0008040E00080600000806020008060400080606000806080008060A0008060C0008060E00080800000808020008080400080806000808080008080A0008080C0008080E00080A0000080A0200080A0400080A0600080A0800080A0A00080A0C00080A0E00080C0000080C0200080C0400080C0600080C0
310
800080C0A00080C0C00080C0E00080E0000080E0200080E0400080E0600080E0800080E0A00080E0C00080E0E000C0000000C0002000C0004000C0006000C0008000C000A000C000C000C000E000C0200000C0202000C0204000C0206000C0208000C020A000C020C000C020E000C0400000C0402000C0404000C0406000C0
310
408000C040A000C040C000C040E000C0600000C0602000C0604000C0606000C0608000C060A000C060C000C060E000C0800000C0802000C0804000C0806000C0808000C080A000C080C000C080E000C0A00000C0A02000C0A04000C0A06000C0A08000C0A0A000C0A0C000C0A0E000C0C00000C0C02000C0C04000C0C06000
310
C0C08000C0C0A000F0FBFF00A4A0A000808080000000FF0000FF000000FFFF00FF000000FF00FF00FFFF0000FFFFFF00FF00FFFFFFFF00FFFFFFFFFFFFFFFFFFFFFFFFFFFFFFFFFFFFFFFFFFFFFFFFFFFF00FFFFFFFF00FFFFFFFFFFFFFFFFFFFFFFFFFFFFFFFFFFFFFFFFFFFFFFFFFFFF00FFFFFFFF00FFFFFFFFFFFFFFFF
310
FFFFFFFFFFFFFFFFFFFFFFFFFFFFFFFFFFFF00FFFFFFFF00FFFFFFFFFFFFFFFFFFFFFFFFFFFFFFFFFFFFFFFFFFFFFFFFFFFF00FFFFFFFF00FFFFFFFFFFFFFFFFFFFFFFFFFFFFFFFFFFFFFFFFFFFFFFFFFFFF00FFFFFFFF00FFFFFFFFFFFFFFFFFFFFFFFFFFFFFFFFFFFFFFFFFFFFFFFFFFFF00FFFFFFFF00FFFFFFFFFFFFFF
310
FFFFFFFFFFFFFFFFFFFFFFFFFFFFFFFFFFFFFF00FFFFFFFF00FFFFFFFFFFFFFFFFFFFFFFFFFFFFFFFFFFFFFFFFFFFFFFFFFFFF00FFFFFFFF00FFFFFFFFFFFFFFFFFFFFFFFFFFFFFFFFFFFFFFFFFFFFFFFFFFFF00FFFFFFFF00FFFFFFFFFFFFFFFFFFFFFFFFFFFFFFFFFFFFFFFFFFFFFFFFFFFF00FFFFFFFF00FFFFFFFFFFFF
310
FFFFFFFFFFFFFFFFFFFFFFFFFFFFFFFFFFFFFFFF00FFFFFFFF00FFFFFFFFFFFFFFFFFFFFFFFFFFFFFFFFFFFFFFFFFFFFFFFFFFFF00FFFFFFFF00FFFFFFFFFFFFFFFFFFFFFFFFFFFFFFFFFFFFFFFFFFFFFFFFFFFF00FFFFFFFF0000000000000000000000000000000000000000000000000000FF00FFFFFFFFFFFFFFFFFFFF
310
FFFFFFFFFFFFFFFFFFFFFFFFFFFFFFFFFFFFFFFFFF00FFFFFFFFFFFFFFFFFFFFFFFFFFFFFFFFFFFFFFFFFFFFFFFFFFFFFFFFFFFFFF00FFFFFFFFFFFFFFFFFFFFFFFFFFFFFFFFFFFFFFFFFFFFFFFFFFFFFFFFFFFFFF00FFFFFFFFFFFFFFFFFFFFFFFFFFFFFFFFFFFFFFFFFFFFFFFFFFFFFFFFFF00FF00000000000000000000
310
0000000000000000000000000000000000000000FFFFFFFFFFFFFFFFFFFFFFFFFFFFFFFFFFFFFFFFFFFFFFFFFFFFFFFFFFFFFFFFFFFFFFFFFFFFFFFFFFFFFFFFFFFFFFFFFFFFFFFFFFFFFFFFFFFFFFFFFFFFFFFFFFFFFFFFFFFFFFFFFFFFFFFFFFFFFFFFFFFFFFFFFFFFFFFFFFFFFFFFFFFFFFFFFFFFFFFFFFFFFFFFFFFFFF
310
FFFFFFFFFFFFFFFFFFFFFFFFFFFFFFFFFFFFFFFFFFFFFFFFFFFFFFFFFFFFFFFFFFFFFFFFFFFFFFFFFFFFFFFFFFFFFFFFFFFFFFFFFFFFFFFFFFFFFFFFFFFFFFFFFFFFFFFFFFFFFFFFFFFFFFFFFFFFFFFFFFFFFFFFFFFFFFFFFFFFFFFFFFFFFFFFFFFFFFFFFFFFFFFFFFFFFFFFFFFFFFFFFFFFFFFFFFFFFFFFFFFFFFFFFFFFFF
310
FFFFFFFFFFFFFFFFFFFFFFFFFFFFFFFFFFFFFFFFFFFFFFFFFFFFFFFFFFFFFFFFFFFFFFFFFFFFFFFFFFFFFFFFFFFFFFFFFFFFFFFFFFFFFFFFFFFFFFFFFFFFFFFFFFFFFFFFFFFFFFFFFFFFFFFFFFFFFFFFFFFFFFFFFFFFFFFFFFFFFFFFFFFFFFFFFFFFFFFFFFFFFFFFFFFFFFFFFFFFFFFFFFFFFFFFFFFFFFFFFFFFFFFFFFFFFF
310
FFFFFFFFFFFFFFFFFFFFFFFFFFFFFFFFFFFFFFFFFFFFFFFFFFFFFFFFFFFFFFFFFFFFFFFFFFFFFFFFFFFFFFFFFFFFFFFFFFFFFFFFFFFFFFFF
102
{BLKREFS
331
2403
102
}
  0
BLOCK_RECORD
  5
23C7
330
2119
100
AcDbSymbolTableRecord
100
AcDbBlockTableRecord
  2
AI9-BLK13
340
0
310
2800000020000000200000000100080000000000000400000000000000000000000000000000000000000000000080000080000000808000800000008000800080800000C0C0C000C0DCC000F0CAA6000020400000206000002080000020A0000020C0000020E00000400000004020000040400000406000004080000040A0
310
000040C0000040E00000600000006020000060400000606000006080000060A0000060C0000060E00000800000008020000080400000806000008080000080A0000080C0000080E00000A0000000A0200000A0400000A0600000A0800000A0A00000A0C00000A0E00000C0000000C0200000C0400000C0600000C0800000C0
310
A00000C0C00000C0E00000E0000000E0200000E0400000E0600000E0800000E0A00000E0C00000E0E00040000000400020004000400040006000400080004000A0004000C0004000E00040200000402020004020400040206000402080004020A0004020C0004020E000404000004040200040404000404060004040800040
310
40A0004040C0004040E00040600000406020004060400040606000406080004060A0004060C0004060E00040800000408020004080400040806000408080004080A0004080C0004080E00040A0000040A0200040A0400040A0600040A0800040A0A00040A0C00040A0E00040C0000040C0200040C0400040C0600040C08000
310
40C0A00040C0C00040C0E00040E0000040E0200040E0400040E0600040E0800040E0A00040E0C00040E0E00080000000800020008000400080006000800080008000A0008000C0008000E00080200000802020008020400080206000802080008020A0008020C0008020E00080400000804020008040400080406000804080
310
008040A0008040C0008040E00080600000806020008060400080606000806080008060A0008060C0008060E00080800000808020008080400080806000808080008080A0008080C0008080E00080A0000080A0200080A0400080A0600080A0800080A0A00080A0C00080A0E00080C0000080C0200080C0400080C0600080C0
310
800080C0A00080C0C00080C0E00080E0000080E0200080E0400080E0600080E0800080E0A00080E0C00080E0E000C0000000C0002000C0004000C0006000C0008000C000A000C000C000C000E000C0200000C0202000C0204000C0206000C0208000C020A000C020C000C020E000C0400000C0402000C0404000C0406000C0
310
408000C040A000C040C000C040E000C0600000C0602000C0604000C0606000C0608000C060A000C060C000C060E000C0800000C0802000C0804000C0806000C0808000C080A000C080C000C080E000C0A00000C0A02000C0A04000C0A06000C0A08000C0A0A000C0A0C000C0A0E000C0C00000C0C02000C0C04000C0C06000
310
C0C08000C0C0A000F0FBFF00A4A0A000808080000000FF0000FF000000FFFF00FF000000FF00FF00FFFF0000FFFFFF00FFFFFFFFFFFFFFFFFFFFFFFFFFFFFFFFFFFFFFFFFFFFFFFFFFFFFFFFFFFFFFFFFFFFFFFFFFFFFFFFFFFFFF0000FFFFFFFFFFFF0000FFFFFFFFFFFFFFFFFFFFFFFFFFFFFFFFFFFFFFFFFFFF0000FFFF
310
FFFFFFFF0000FFFFFFFFFFFFFFFFFFFFFFFFFFFFFFFFFFFFFFFFFFFF0000FFFFFFFFFFFF0000FFFFFFFFFFFFFFFFFFFFFFFFFFFFFFFFFFFFFFFFFFFF0000FFFFFFFFFFFF0000FFFFFFFFFFFFFFFFFFFFFFFFFFFFFFFFFFFFFFFFFFFF0000FFFFFFFFFFFF0000FFFFFFFFFFFFFFFFFFFFFFFFFFFFFFFFFFFFFFFFFFFF0000FF
310
FFFFFFFFFF0000FFFFFFFFFFFFFFFFFFFFFFFFFFFFFFFFFFFFFFFFFFFF0000FFFFFFFFFFFF0000FFFFFFFFFFFFFFFFFFFFFFFFFFFFFFFFFFFFFFFFFFFF0000FFFFFFFFFFFF0000FFFFFFFFFFFFFFFFFFFFFFFFFFFFFFFFFFFFFFFFFFFF0000FFFFFFFFFFFF0000FFFFFFFFFFFFFFFFFFFFFFFFFFFFFFFFFFFFFFFFFFFF0000
310
FFFFFFFFFFFF0000FFFFFFFFFFFFFFFFFFFFFFFFFFFFFFFFFFFFFFFFFFFF0000FFFFFFFFFFFF0000FFFFFFFFFFFFFFFFFFFFFFFFFFFFFFFFFFFFFFFFFFFF0000FFFFFFFFFFFF0000FFFFFFFFFFFFFFFFFFFFFFFFFFFFFFFFFFFFFFFFFFFF0000FFFFFFFFFFFF0000FFFFFFFFFFFFFFFFFFFFFFFFFFFFFFFFFFFFFFFFFFFF00
310
00FFFFFFFFFFFF0000FFFFFFFFFFFFFFFFFFFFFFFFFFFFFFFFFFFFFFFFFFFF00000000000000000000FFFFFFFFFFFFFFFFFFFFFFFFFFFFFFFFFFFFFFFFFFFF00FFFFFFFFFFFFFFFF00FFFFFFFFFFFFFFFFFFFFFFFFFFFFFFFFFFFFFFFFFFFF00FFFFFFFFFFFFFFFF00FFFFFFFFFFFFFFFFFFFFFFFFFFFFFFFFFFFFFFFFFFFF
310
00000000000000000000FFFFFFFFFFFFFFFFFFFFFFFFFFFFFFFFFFFFFFFFFFFF0000FFFFFFFFFFFF0000FFFFFFFFFFFFFFFFFFFFFFFFFFFFFFFFFFFFFFFFFFFF0000FFFFFFFFFFFF0000FFFFFFFFFFFFFFFFFFFFFFFFFFFFFFFFFFFFFFFFFFFF0000FFFFFFFFFFFF0000FFFFFFFFFFFFFFFFFFFFFFFFFFFFFFFFFFFFFFFFFF
310
FF0000FFFFFFFFFFFF0000FFFFFFFFFFFFFFFFFFFFFFFFFFFFFFFFFFFFFFFFFFFF0000FFFFFFFFFFFF0000FFFFFFFFFFFFFFFFFFFFFFFFFFFFFFFFFFFFFFFFFFFF0000FFFFFFFFFFFF0000FFFFFFFFFFFFFFFFFFFFFFFFFFFFFFFFFFFFFFFFFFFF0000FFFFFFFFFFFF0000FFFFFFFFFFFFFFFFFFFFFFFFFFFFFFFFFFFFFFFF
310
FFFF0000FFFFFFFFFFFF0000FFFFFFFFFFFFFFFFFFFFFFFFFFFFFFFFFFFFFFFFFFFF0000FFFFFFFFFFFF0000FFFFFFFFFFFFFFFFFFFFFFFFFFFFFFFFFFFFFFFFFFFF0000FFFFFFFFFFFF0000FFFFFFFFFFFFFFFFFFFFFFFFFFFFFFFFFFFFFFFFFFFF0000FFFFFFFFFFFF0000FFFFFFFFFFFFFFFFFFFFFFFFFFFFFFFFFFFFFF
310
FFFFFF0000FFFFFFFFFFFF0000FFFFFFFFFFFFFFFFFFFFFFFFFFFFFFFFFFFFFFFFFFFFFFFFFFFFFFFFFFFFFFFFFFFFFFFFFFFFFFFFFFFFFF
102
{BLKREFS
331
2404
102
}
  0
BLOCK_RECORD
  5
23CC
330
2119
100
AcDbSymbolTableRecord
100
AcDbBlockTableRecord
  2
AI9-BLK11
340
0
310
2800000020000000200000000100080000000000000400000000000000000000000000000000000000000000000080000080000000808000800000008000800080800000C0C0C000C0DCC000F0CAA6000020400000206000002080000020A0000020C0000020E00000400000004020000040400000406000004080000040A0
310
000040C0000040E00000600000006020000060400000606000006080000060A0000060C0000060E00000800000008020000080400000806000008080000080A0000080C0000080E00000A0000000A0200000A0400000A0600000A0800000A0A00000A0C00000A0E00000C0000000C0200000C0400000C0600000C0800000C0
310
A00000C0C00000C0E00000E0000000E0200000E0400000E0600000E0800000E0A00000E0C00000E0E00040000000400020004000400040006000400080004000A0004000C0004000E00040200000402020004020400040206000402080004020A0004020C0004020E000404000004040200040404000404060004040800040
310
40A0004040C0004040E00040600000406020004060400040606000406080004060A0004060C0004060E00040800000408020004080400040806000408080004080A0004080C0004080E00040A0000040A0200040A0400040A0600040A0800040A0A00040A0C00040A0E00040C0000040C0200040C0400040C0600040C08000
310
40C0A00040C0C00040C0E00040E0000040E0200040E0400040E0600040E0800040E0A00040E0C00040E0E00080000000800020008000400080006000800080008000A0008000C0008000E00080200000802020008020400080206000802080008020A0008020C0008020E00080400000804020008040400080406000804080
310
008040A0008040C0008040E00080600000806020008060400080606000806080008060A0008060C0008060E00080800000808020008080400080806000808080008080A0008080C0008080E00080A0000080A0200080A0400080A0600080A0800080A0A00080A0C00080A0E00080C0000080C0200080C0400080C0600080C0
310
800080C0A00080C0C00080C0E00080E0000080E0200080E0400080E0600080E0800080E0A00080E0C00080E0E000C0000000C0002000C0004000C0006000C0008000C000A000C000C000C000E000C0200000C0202000C0204000C0206000C0208000C020A000C020C000C020E000C0400000C0402000C0404000C0406000C0
310
408000C040A000C040C000C040E000C0600000C0602000C0604000C0606000C0608000C060A000C060C000C060E000C0800000C0802000C0804000C0806000C0808000C080A000C080C000C080E000C0A00000C0A02000C0A04000C0A06000C0A08000C0A0A000C0A0C000C0A0E000C0C00000C0C02000C0C04000C0C06000
310
C0C08000C0C0A000F0FBFF00A4A0A000808080000000FF0000FF000000FFFF00FF000000FF00FF00FFFF0000FFFFFF00FFFFFFFFFFFFFFFFFFFFFFFFFFFFFFFFFFFFFFFFFFFFFFFFFFFFFFFFFFFFFFFFFFFFFFFFFFFFFFFFFFFFFFFFFFFF00000000FFFFFFFFFFFFFFFFFFFFFF000000FFFFFFFFFFFFFFFFFFFFFFFFFFFF00
310
FFFF00FFFFFFFFFFFFFFFFFFFFFF00FFFFFFFFFFFFFFFFFFFFFFFFFFFFFFFF00FFFF00FFFFFFFFFFFFFFFFFFFFFF00FFFFFFFFFFFFFFFFFFFFFFFFFFFFFFFF00FFFF00FFFFFFFFFFFFFFFFFFFFFF00FFFFFFFFFFFFFFFFFFFFFFFFFFFFFFFF00FFFF00FFFFFFFFFFFFFFFFFFFFFF00FFFFFFFFFFFFFFFFFFFFFFFFFFFFFFFF
310
00FFFF00FFFFFFFFFFFFFFFFFFFFFF00FFFFFFFFFFFFFFFFFFFFFFFFFFFFFFFF00FFFF00FFFFFFFFFFFFFFFFFFFFFF00FFFFFFFFFFFFFFFFFFFFFFFFFFFFFFFF00FFFF00FFFFFFFFFFFFFFFFFFFFFF00FFFFFFFFFFFFFFFFFFFFFFFFFFFFFFFF00FFFF00FFFFFFFFFFFFFFFFFFFFFF00FFFFFFFFFFFFFFFFFFFFFFFFFFFFFF
310
FF00FFFF00FFFFFFFFFFFFFFFFFFFFFF00FFFFFFFFFFFFFFFFFFFFFFFFFFFFFFFF00FFFF00FFFFFFFFFFFFFFFFFFFFFF00FFFFFFFFFFFFFFFFFFFFFFFFFFFFFFFF00FFFF00FFFFFFFFFFFFFFFFFFFFFF00FFFFFFFFFFFFFFFFFFFFFFFFFFFFFFFF00FFFF00FFFFFFFFFFFFFFFFFFFFFF00FFFFFFFFFFFFFFFFFFFFFFFFFFFF
310
FFFF00FFFF00FFFFFFFFFFFFFFFFFFFFFF00FFFFFFFFFFFFFFFFFFFFFFFFFFFFFFFF00FFFF00FFFFFFFFFFFFFFFFFFFFFF00FFFFFFFFFFFFFFFFFFFFFFFFFFFFFFFF00FFFF00FFFFFFFFFFFFFFFFFFFFFF00FFFFFFFFFFFFFFFFFFFFFFFFFFFFFFFF00FFFF00FFFFFFFFFFFFFFFFFFFF00FFFFFFFFFFFFFFFFFFFFFFFFFFFF
310
FFFFFF00FFFF00FFFFFFFFFFFFFFFFFFFF00FFFFFFFFFFFFFFFFFFFFFFFFFFFFFFFFFF00FFFF00FFFFFFFFFFFFFFFFFFFF00FFFFFFFFFFFFFFFFFFFFFFFFFFFFFFFFFF00FFFF00FFFFFFFFFFFFFFFFFFFF00FFFFFFFFFFFFFFFFFFFFFFFFFFFFFFFFFF00FFFF00FFFFFFFFFFFFFFFFFFFF00FFFFFFFFFFFFFFFFFFFFFFFFFF
310
FFFFFFFF00FFFF00FFFFFFFFFFFFFFFFFF0000FFFF00FFFFFFFFFFFFFFFFFFFFFFFFFFFF00FFFF00FFFFFFFFFFFFFFFF0000FFFFFF00FFFFFFFFFFFFFFFFFFFFFFFFFFFF00FFFF00000000000000000000FFFFFFFF00FFFFFFFFFFFFFFFFFFFFFFFFFFFF00FFFFFFFFFFFFFFFFFFFFFFFFFFFFFF00FFFFFFFFFFFFFFFFFFFF
310
FFFFFFFFFF00FFFFFFFFFFFFFFFFFFFFFFFFFFFF00FFFFFFFFFFFFFFFFFFFFFFFFFFFFFFFF00FFFFFFFFFFFFFFFFFFFFFFFFFFFF00FFFFFFFFFFFFFFFFFFFFFFFFFFFFFFFF00FFFFFFFFFFFFFFFFFFFFFFFFFFFFFF00FFFFFFFFFFFFFFFFFFFFFFFFFFFFFF00FFFFFFFFFFFFFFFFFFFFFFFFFFFFFF00FFFFFFFFFFFFFFFFFF
310
FFFFFFFFFFFF00FFFF00000000000000000000FFFFFFFF00FFFFFFFFFFFFFFFFFFFFFFFFFFFF00FFFF00FFFFFFFFFFFFFFFFFF0000FFFF00
102
{BLKREFS
331
2405
102
}
  0
BLOCK_RECORD
  5
23D1
330
2119
100
AcDbSymbolTableRecord
100
AcDbBlockTableRecord
  2
AI9-BLK10
340
0
310
2800000020000000200000000100080000000000000400000000000000000000000000000000000000000000000080000080000000808000800000008000800080800000C0C0C000C0DCC000F0CAA6000020400000206000002080000020A0000020C0000020E00000400000004020000040400000406000004080000040A0
310
000040C0000040E00000600000006020000060400000606000006080000060A0000060C0000060E00000800000008020000080400000806000008080000080A0000080C0000080E00000A0000000A0200000A0400000A0600000A0800000A0A00000A0C00000A0E00000C0000000C0200000C0400000C0600000C0800000C0
310
A00000C0C00000C0E00000E0000000E0200000E0400000E0600000E0800000E0A00000E0C00000E0E00040000000400020004000400040006000400080004000A0004000C0004000E00040200000402020004020400040206000402080004020A0004020C0004020E000404000004040200040404000404060004040800040
310
40A0004040C0004040E00040600000406020004060400040606000406080004060A0004060C0004060E00040800000408020004080400040806000408080004080A0004080C0004080E00040A0000040A0200040A0400040A0600040A0800040A0A00040A0C00040A0E00040C0000040C0200040C0400040C0600040C08000
310
40C0A00040C0C00040C0E00040E0000040E0200040E0400040E0600040E0800040E0A00040E0C00040E0E00080000000800020008000400080006000800080008000A0008000C0008000E00080200000802020008020400080206000802080008020A0008020C0008020E00080400000804020008040400080406000804080
310
008040A0008040C0008040E00080600000806020008060400080606000806080008060A0008060C0008060E00080800000808020008080400080806000808080008080A0008080C0008080E00080A0000080A0200080A0400080A0600080A0800080A0A00080A0C00080A0E00080C0000080C0200080C0400080C0600080C0
310
800080C0A00080C0C00080C0E00080E0000080E0200080E0400080E0600080E0800080E0A00080E0C00080E0E000C0000000C0002000C0004000C0006000C0008000C000A000C000C000C000E000C0200000C0202000C0204000C0206000C0208000C020A000C020C000C020E000C0400000C0402000C0404000C0406000C0
310
408000C040A000C040C000C040E000C0600000C0602000C0604000C0606000C0608000C060A000C060C000C060E000C0800000C0802000C0804000C0806000C0808000C080A000C080C000C080E000C0A00000C0A02000C0A04000C0A06000C0A08000C0A0A000C0A0C000C0A0E000C0C00000C0C02000C0C04000C0C06000
310
C0C08000C0C0A000F0FBFF00A4A0A000808080000000FF0000FF000000FFFF00FF000000FF00FF00FFFF0000FFFFFF00FFFFFFFFFFFFFFFFFFFFFFFFFFFFFFFF00FFFFFFFFFFFFFFFFFFFFFFFF00FFFFFFFFFFFFFFFFFFFFFFFFFFFFFFFFFFFF00FFFFFFFFFFFFFFFFFFFFFF00FFFFFFFFFFFFFFFFFFFFFFFFFFFFFFFFFFFF
310
FF00FFFFFFFFFFFFFFFFFFFFFF00FFFFFFFFFFFFFFFFFFFFFFFFFFFFFFFFFFFFFF00FFFFFFFFFFFFFFFFFFFFFF00FFFFFFFFFFFFFFFFFFFFFFFFFFFFFFFFFFFFFF00FFFFFFFFFFFFFFFFFFFFFF00FFFFFFFFFFFFFFFFFFFFFFFFFFFFFFFFFFFFFF00FFFFFFFFFFFFFFFFFFFFFF00FFFFFFFFFFFFFFFFFFFFFFFFFFFFFFFFFF
310
FFFF00FFFFFFFFFFFFFFFFFFFFFF00FFFFFFFFFFFFFFFFFFFFFFFFFFFFFFFFFFFFFF00FFFFFFFFFFFFFFFFFFFF00FFFFFFFFFFFFFFFFFFFFFFFFFFFFFFFFFFFFFFFF00FFFFFFFFFFFFFFFFFFFF00FFFFFFFFFFFFFFFFFFFFFFFFFFFFFFFFFFFFFFFF00FFFFFFFFFFFFFFFFFFFF00FFFFFFFFFFFFFFFFFFFFFFFFFFFFFFFFFF
310
FFFFFF00FFFFFFFFFFFFFFFFFFFF00FFFFFFFFFFFFFFFFFFFFFFFFFFFFFFFFFFFFFFFF00FFFFFFFFFFFFFFFFFFFF00FFFFFFFFFFFFFFFFFFFFFFFFFFFFFFFFFFFFFFFF00FFFFFFFFFFFFFFFFFFFF00FFFFFFFFFFFFFFFFFFFFFFFFFFFFFFFFFFFFFFFF00FFFFFFFFFFFFFFFFFF00FFFFFFFFFFFFFFFFFFFFFFFFFFFFFFFFFF
310
FFFFFFFF00FFFFFFFFFFFFFFFFFF00FFFFFFFFFFFFFFFFFFFFFFFFFFFFFFFFFFFFFFFFFF00FFFFFFFFFFFFFFFFFF00FFFFFFFFFFFFFFFFFFFFFFFFFFFFFFFFFFFFFFFFFF0000000000000000000000FFFFFFFFFFFFFFFFFFFFFFFFFFFFFFFFFFFFFFFFFFFFFFFFFFFFFFFFFFFFFFFFFFFFFFFFFFFFFFFFFFFFFFFFFFFFFFFF
310
FFFFFFFFFFFFFFFFFFFFFFFFFFFFFFFFFFFFFFFFFFFFFFFFFFFFFFFFFFFFFFFFFFFFFFFFFFFFFFFFFFFFFFFFFFFFFFFFFFFFFFFFFFFFFFFFFFFFFFFFFFFFFFFFFFFFFFFFFFFFFFFFFFFFFFFFFFFFFFFFFFFFFFFFFFFFFFFFFFFFFFFFFFFFFFFFFFFFFFFFFFFFFFFFFFFFFFFFFFFFFFFFFFFFFFFFFFFFFFFFFFFFFFFFFFFFFF
310
FFFFFFFFFFFFFFFFFFFFFFFFFFFFFFFFFFFFFFFFFFFFFFFFFFFFFFFFFFFFFFFFFFFFFFFFFFFFFFFFFFFFFFFFFFFFFFFFFFFFFFFFFFFFFFFFFFFFFFFFFFFFFFFFFFFFFFFFFFFFFFFFFFFFFFFFFFFFFFFFFFFFFFFFFFFFFFFFFFFFFFFFFFFFFFFFFFFFFFFFFFFFFFFFFFFFFFFFFFFFFFFFFFFFFFFFFFFFFFFFFFFFFFFFFFFFFF
310
FFFFFFFFFFFFFFFFFFFFFFFFFFFFFFFFFFFFFFFFFFFFFFFFFFFFFFFFFFFFFFFFFFFFFFFFFFFFFFFFFFFFFFFFFFFFFFFFFFFFFFFFFFFFFFFFFFFFFFFFFFFFFFFFFFFFFFFFFFFFFFFFFFFFFFFFFFFFFFFFFFFFFFFFFFFFFFFFFFFFFFFFFFFFFFFFFFFFFFFFFFFFFFFFFFFFFFFFFFFFFFFFFFFFFFFFFFFFFFFFFFFFFFFFFFFFFF
310
FFFFFFFFFFFFFFFFFFFFFFFFFFFFFFFFFFFFFFFFFFFFFFFFFFFFFFFFFFFFFFFFFFFFFFFFFFFFFFFFFFFFFFFFFFFFFFFFFFFFFFFFFFFFFFFF
102
{BLKREFS
331
2406
102
}
  0
BLOCK_RECORD
  5
23D5
330
2119
100
AcDbSymbolTableRecord
100
AcDbBlockTableRecord
  2
AI9-BLK9
340
0
310
2800000020000000200000000100080000000000000400000000000000000000000000000000000000000000000080000080000000808000800000008000800080800000C0C0C000C0DCC000F0CAA6000020400000206000002080000020A0000020C0000020E00000400000004020000040400000406000004080000040A0
310
000040C0000040E00000600000006020000060400000606000006080000060A0000060C0000060E00000800000008020000080400000806000008080000080A0000080C0000080E00000A0000000A0200000A0400000A0600000A0800000A0A00000A0C00000A0E00000C0000000C0200000C0400000C0600000C0800000C0
310
A00000C0C00000C0E00000E0000000E0200000E0400000E0600000E0800000E0A00000E0C00000E0E00040000000400020004000400040006000400080004000A0004000C0004000E00040200000402020004020400040206000402080004020A0004020C0004020E000404000004040200040404000404060004040800040
310
40A0004040C0004040E00040600000406020004060400040606000406080004060A0004060C0004060E00040800000408020004080400040806000408080004080A0004080C0004080E00040A0000040A0200040A0400040A0600040A0800040A0A00040A0C00040A0E00040C0000040C0200040C0400040C0600040C08000
310
40C0A00040C0C00040C0E00040E0000040E0200040E0400040E0600040E0800040E0A00040E0C00040E0E00080000000800020008000400080006000800080008000A0008000C0008000E00080200000802020008020400080206000802080008020A0008020C0008020E00080400000804020008040400080406000804080
310
008040A0008040C0008040E00080600000806020008060400080606000806080008060A0008060C0008060E00080800000808020008080400080806000808080008080A0008080C0008080E00080A0000080A0200080A0400080A0600080A0800080A0A00080A0C00080A0E00080C0000080C0200080C0400080C0600080C0
310
800080C0A00080C0C00080C0E00080E0000080E0200080E0400080E0600080E0800080E0A00080E0C00080E0E000C0000000C0002000C0004000C0006000C0008000C000A000C000C000C000E000C0200000C0202000C0204000C0206000C0208000C020A000C020C000C020E000C0400000C0402000C0404000C0406000C0
310
408000C040A000C040C000C040E000C0600000C0602000C0604000C0606000C0608000C060A000C060C000C060E000C0800000C0802000C0804000C0806000C0808000C080A000C080C000C080E000C0A00000C0A02000C0A04000C0A06000C0A08000C0A0A000C0A0C000C0A0E000C0C00000C0C02000C0C04000C0C06000
310
C0C08000C0C0A000F0FBFF00A4A0A000808080000000FF0000FF000000FFFF00FF000000FF00FF00FFFF0000FFFFFF00FFFFFFFFFFFFFFFFFFFFFFFFFFFFFFFFFFFFFFFFFFFFFFFFFFFFFFFFFFFFFFFFFFFFFFFFFFFFFFFFFFFFFFFFFFFFFF0000FFFFFFFFFFFFFFFFFFFFFFFFFFFFFFFFFFFFFFFFFFFFFFFFFFFFFFFF0000
310
FF0000FFFFFFFFFFFFFFFFFFFFFFFFFFFFFFFFFFFFFFFFFFFFFFFFFFFFFF00FFFFFF0000FFFFFFFFFFFFFFFFFFFFFFFFFFFFFFFFFFFFFFFFFFFFFFFFFFFF00FFFFFFFF0000FFFFFFFFFFFFFFFFFFFFFFFFFFFFFFFFFFFFFFFFFFFFFFFF00FF00000000FF00FFFFFFFFFFFFFFFFFFFFFFFFFFFFFFFFFFFFFFFFFFFFFFFF0000
310
00FFFF00FF00FFFFFFFFFFFFFFFFFFFFFFFFFFFFFFFFFFFFFFFFFFFFFFFF0000FFFFFFFF0000FFFFFFFFFFFFFFFFFFFFFFFFFFFFFFFFFFFFFFFFFFFFFFFF0000FFFFFFFF0000FFFFFFFFFFFFFFFFFFFFFFFFFFFFFFFFFFFFFFFFFFFFFF00FF00FFFFFFFF00FF00FFFFFFFFFFFFFFFFFFFFFFFFFFFFFFFFFFFFFFFFFFFF0000
310
FFFFFFFFFF00FF00FFFFFFFFFFFFFFFFFFFFFFFFFFFFFFFFFFFFFFFFFFFF0000FFFFFFFFFFFF0000FFFFFFFFFFFFFFFFFFFFFFFFFFFFFFFFFFFFFFFFFFFF0000FFFFFFFFFFFF0000FFFFFFFFFFFFFFFFFFFFFFFFFFFFFFFFFFFFFFFFFFFF0000FFFFFFFFFFFF0000FFFFFFFFFFFFFFFFFFFFFFFFFFFFFFFFFFFFFFFFFFFF00
310
00FFFFFFFFFFFF0000FFFFFFFFFFFFFFFFFFFFFFFFFFFFFFFFFFFFFFFFFFFF0000FFFFFFFFFFFF0000FFFFFFFFFFFFFFFFFFFFFFFFFFFFFFFFFFFFFFFFFFFF0000FFFFFFFFFFFF0000FFFFFFFFFFFFFFFFFFFFFFFFFFFFFFFFFFFFFFFFFFFF0000FFFFFFFFFFFF0000FFFFFFFFFFFFFFFFFFFFFFFFFFFFFFFFFFFFFFFFFFFF
310
0000FFFFFFFFFFFF0000FFFFFFFFFFFFFFFFFFFFFFFFFFFFFFFFFFFFFFFFFFFF0000FFFFFFFFFFFF0000FFFFFFFFFFFFFFFFFFFFFFFFFFFFFFFFFFFFFFFFFFFF0000FFFFFFFFFFFF0000FFFFFFFFFFFFFFFFFFFFFFFFFFFFFFFFFFFFFFFFFFFF00FF00FFFFFFFF00FF00FFFFFFFFFFFFFFFFFFFFFFFFFFFFFFFFFFFFFFFFFF
310
FF00FF00FFFFFFFF00FF00FFFFFFFFFFFFFFFFFFFFFFFFFFFFFFFFFFFFFFFFFFFF00FF00FFFFFFFF00FF00FFFFFFFFFFFFFFFFFFFFFFFFFFFFFFFFFFFFFFFFFFFFFF0000FFFFFFFF0000FFFFFFFFFFFFFFFFFFFFFFFFFFFFFFFFFFFFFFFFFFFFFFFF00FF00FFFF00FF00FFFFFFFFFFFFFFFFFFFFFFFFFFFFFFFFFFFFFFFFFF
310
FFFFFF00FF00000000FF00FFFFFFFFFFFFFFFFFFFFFFFFFFFFFFFFFFFFFFFFFFFFFFFFFF00FFFFFFFF0000FFFFFFFFFFFFFFFFFFFFFFFFFFFFFFFFFFFFFFFFFFFFFFFFFF00FFFFFFFF00FFFFFFFFFFFFFFFFFFFFFFFFFFFFFFFFFFFFFFFFFFFFFFFFFFFFFF00000000FFFFFFFFFFFFFFFFFFFFFFFFFFFFFFFFFFFFFFFFFFFF
310
FFFFFFFFFFFFFF0000FFFFFFFFFFFFFFFFFFFFFFFFFFFFFFFFFFFFFFFFFFFFFFFFFFFFFFFFFFFFFFFFFFFFFFFFFFFFFFFFFFFFFFFFFFFFFF
102
{BLKREFS
331
2407
102
}
  0
BLOCK_RECORD
  5
23DA
330
2119
100
AcDbSymbolTableRecord
100
AcDbBlockTableRecord
  2
AI9-BLK8
340
0
310
2800000020000000200000000100080000000000000400000000000000000000000000000000000000000000000080000080000000808000800000008000800080800000C0C0C000C0DCC000F0CAA6000020400000206000002080000020A0000020C0000020E00000400000004020000040400000406000004080000040A0
310
000040C0000040E00000600000006020000060400000606000006080000060A0000060C0000060E00000800000008020000080400000806000008080000080A0000080C0000080E00000A0000000A0200000A0400000A0600000A0800000A0A00000A0C00000A0E00000C0000000C0200000C0400000C0600000C0800000C0
310
A00000C0C00000C0E00000E0000000E0200000E0400000E0600000E0800000E0A00000E0C00000E0E00040000000400020004000400040006000400080004000A0004000C0004000E00040200000402020004020400040206000402080004020A0004020C0004020E000404000004040200040404000404060004040800040
310
40A0004040C0004040E00040600000406020004060400040606000406080004060A0004060C0004060E00040800000408020004080400040806000408080004080A0004080C0004080E00040A0000040A0200040A0400040A0600040A0800040A0A00040A0C00040A0E00040C0000040C0200040C0400040C0600040C08000
310
40C0A00040C0C00040C0E00040E0000040E0200040E0400040E0600040E0800040E0A00040E0C00040E0E00080000000800020008000400080006000800080008000A0008000C0008000E00080200000802020008020400080206000802080008020A0008020C0008020E00080400000804020008040400080406000804080
310
008040A0008040C0008040E00080600000806020008060400080606000806080008060A0008060C0008060E00080800000808020008080400080806000808080008080A0008080C0008080E00080A0000080A0200080A0400080A0600080A0800080A0A00080A0C00080A0E00080C0000080C0200080C0400080C0600080C0
310
800080C0A00080C0C00080C0E00080E0000080E0200080E0400080E0600080E0800080E0A00080E0C00080E0E000C0000000C0002000C0004000C0006000C0008000C000A000C000C000C000E000C0200000C0202000C0204000C0206000C0208000C020A000C020C000C020E000C0400000C0402000C0404000C0406000C0
310
408000C040A000C040C000C040E000C0600000C0602000C0604000C0606000C0608000C060A000C060C000C060E000C0800000C0802000C0804000C0806000C0808000C080A000C080C000C080E000C0A00000C0A02000C0A04000C0A06000C0A08000C0A0A000C0A0C000C0A0E000C0C00000C0C02000C0C04000C0C06000
310
C0C08000C0C0A000F0FBFF00A4A0A000808080000000FF0000FF000000FFFF00FF000000FF00FF00FFFF0000FFFFFF00FFFFFFFFFFFFFFFFFFFFFFFFFFFFFFFFFFFFFFFFFFFFFFFFFFFFFFFFFFFFFFFFFFFFFFFFFFFFFFFFFFFFFF0000FFFFFFFFFFFF0000FFFFFFFFFFFFFFFFFFFFFFFFFFFFFFFFFFFFFFFFFFFF0000FFFF
310
FFFFFFFF0000FFFFFFFFFFFFFFFFFFFFFFFFFFFFFFFFFFFFFFFFFFFF0000FFFFFFFFFF00FF00FFFFFFFFFFFFFFFFFFFFFFFFFFFFFFFFFFFFFFFFFFFF0000FFFFFFFFFF00FF00FFFFFFFFFFFFFFFFFFFFFFFFFFFFFFFFFFFFFFFFFFFF0000FFFFFFFFFF00FF00FFFFFFFFFFFFFFFFFFFFFFFFFFFFFFFFFFFFFFFFFFFF0000FF
310
FFFFFF00FFFF00FFFFFFFFFFFFFFFFFFFFFFFFFFFFFFFFFFFFFFFFFFFF0000FFFFFFFF00FF0000FFFFFFFFFFFFFFFFFFFFFFFFFFFFFFFFFFFFFFFFFFFF0000FFFFFFFF00FF0000FFFFFFFFFFFFFFFFFFFFFFFFFFFFFFFFFFFFFFFFFFFF0000FFFFFFFF00000000FFFFFFFFFFFFFFFFFFFFFFFFFFFFFFFFFFFFFFFFFFFF0000
310
FFFFFF00FF000000FFFFFFFFFFFFFFFFFFFFFFFFFFFFFFFFFFFFFFFFFFFF0000FFFFFF00FF000000FFFFFFFFFFFFFFFFFFFFFFFFFFFFFFFFFFFFFFFFFFFF0000FFFFFF00FF000000FFFFFFFFFFFFFFFFFFFFFFFFFFFFFFFFFFFFFFFFFFFF0000FFFF00FF00FF0000FFFFFFFFFFFFFFFFFFFFFFFFFFFFFFFFFFFFFFFFFFFF00
310
00FFFF00FF00FF0000FFFFFFFFFFFFFFFFFFFFFFFFFFFFFFFFFFFFFFFFFFFF0000FFFF00FF00FF0000FFFFFFFFFFFFFFFFFFFFFFFFFFFFFFFFFFFFFFFFFFFF0000FF00FFFF00FF0000FFFFFFFFFFFFFFFFFFFFFFFFFFFFFFFFFFFFFFFFFFFF0000FF00FF00FFFF0000FFFFFFFFFFFFFFFFFFFFFFFFFFFFFFFFFFFFFFFFFFFF
310
0000FF00FF00FFFF0000FFFFFFFFFFFFFFFFFFFFFFFFFFFFFFFFFFFFFFFFFFFF0000FF00FF00FFFF0000FFFFFFFFFFFFFFFFFFFFFFFFFFFFFFFFFFFFFFFFFFFF000000FFFF00FFFF0000FFFFFFFFFFFFFFFFFFFFFFFFFFFFFFFFFFFFFFFFFFFF000000FF00FFFFFF0000FFFFFFFFFFFFFFFFFFFFFFFFFFFFFFFFFFFFFFFFFF
310
FF000000FF00FFFFFF0000FFFFFFFFFFFFFFFFFFFFFFFFFFFFFFFFFFFFFFFFFFFF0000FFFF00FFFFFF0000FFFFFFFFFFFFFFFFFFFFFFFFFFFFFFFFFFFFFFFFFFFF0000FFFF00FFFFFF0000FFFFFFFFFFFFFFFFFFFFFFFFFFFFFFFFFFFFFFFFFFFF00FFFF00FFFFFFFF0000FFFFFFFFFFFFFFFFFFFFFFFFFFFFFFFFFFFFFFFF
310
FFFF00FFFF00FFFFFFFF0000FFFFFFFFFFFFFFFFFFFFFFFFFFFFFFFFFFFFFFFFFFFF00FFFF00FFFFFFFF0000FFFFFFFFFFFFFFFFFFFFFFFFFFFFFFFFFFFFFFFFFFFF00FFFF00FFFFFFFF0000FFFFFFFFFFFFFFFFFFFFFFFFFFFFFFFFFFFFFFFFFFFF00FF00FFFFFFFFFF0000FFFFFFFFFFFFFFFFFFFFFFFFFFFFFFFFFFFFFF
310
FFFFFF000000FFFFFFFFFF0000FFFFFFFFFFFFFFFFFFFFFFFFFFFFFFFFFFFFFFFFFFFFFFFFFFFFFFFFFFFFFFFFFFFFFFFFFFFFFFFFFFFFFF
102
{BLKREFS
331
2408
102
}
  0
BLOCK_RECORD
  5
23DF
330
2119
100
AcDbSymbolTableRecord
100
AcDbBlockTableRecord
  2
AI9-BLK7
340
0
310
2800000020000000200000000100080000000000000400000000000000000000000000000000000000000000000080000080000000808000800000008000800080800000C0C0C000C0DCC000F0CAA6000020400000206000002080000020A0000020C0000020E00000400000004020000040400000406000004080000040A0
310
000040C0000040E00000600000006020000060400000606000006080000060A0000060C0000060E00000800000008020000080400000806000008080000080A0000080C0000080E00000A0000000A0200000A0400000A0600000A0800000A0A00000A0C00000A0E00000C0000000C0200000C0400000C0600000C0800000C0
310
A00000C0C00000C0E00000E0000000E0200000E0400000E0600000E0800000E0A00000E0C00000E0E00040000000400020004000400040006000400080004000A0004000C0004000E00040200000402020004020400040206000402080004020A0004020C0004020E000404000004040200040404000404060004040800040
310
40A0004040C0004040E00040600000406020004060400040606000406080004060A0004060C0004060E00040800000408020004080400040806000408080004080A0004080C0004080E00040A0000040A0200040A0400040A0600040A0800040A0A00040A0C00040A0E00040C0000040C0200040C0400040C0600040C08000
310
40C0A00040C0C00040C0E00040E0000040E0200040E0400040E0600040E0800040E0A00040E0C00040E0E00080000000800020008000400080006000800080008000A0008000C0008000E00080200000802020008020400080206000802080008020A0008020C0008020E00080400000804020008040400080406000804080
310
008040A0008040C0008040E00080600000806020008060400080606000806080008060A0008060C0008060E00080800000808020008080400080806000808080008080A0008080C0008080E00080A0000080A0200080A0400080A0600080A0800080A0A00080A0C00080A0E00080C0000080C0200080C0400080C0600080C0
310
800080C0A00080C0C00080C0E00080E0000080E0200080E0400080E0600080E0800080E0A00080E0C00080E0E000C0000000C0002000C0004000C0006000C0008000C000A000C000C000C000E000C0200000C0202000C0204000C0206000C0208000C020A000C020C000C020E000C0400000C0402000C0404000C0406000C0
310
408000C040A000C040C000C040E000C0600000C0602000C0604000C0606000C0608000C060A000C060C000C060E000C0800000C0802000C0804000C0806000C0808000C080A000C080C000C080E000C0A00000C0A02000C0A04000C0A06000C0A08000C0A0A000C0A0C000C0A0E000C0C00000C0C02000C0C04000C0C06000
310
C0C08000C0C0A000F0FBFF00A4A0A000808080000000FF0000FF000000FFFF00FF000000FF00FF00FFFF0000FFFFFF00FFFFFFFFFFFFFFFFFFFFFFFFFFFFFFFFFFFFFFFFFFFFFFFFFFFFFFFFFFFFFFFFFFFFFFFFFFFFFFFFFFFFFFFFFFFFFF0000FFFFFFFFFFFFFFFFFFFFFFFFFFFFFFFFFFFFFFFFFFFFFFFFFFFFFFFFFFFF
310
0000FFFFFFFFFFFFFFFFFFFFFFFFFFFFFFFFFFFFFFFFFFFFFFFFFFFFFFFFFFFF0000FFFFFFFFFFFFFFFFFFFFFFFFFFFFFFFFFFFFFFFFFFFFFFFFFFFFFFFFFFFF0000FFFFFFFFFFFFFFFFFFFFFFFFFFFFFFFFFFFFFFFFFFFFFFFFFFFFFFFFFFFF0000FFFFFFFFFFFFFFFFFFFFFFFFFFFFFFFFFFFFFFFFFFFFFFFFFFFFFFFFFF
310
FF0000FFFFFFFFFFFFFFFFFFFFFFFFFFFFFFFFFFFFFFFFFFFFFFFFFFFFFFFFFFFF0000FFFFFFFFFFFFFFFFFFFFFFFFFFFFFFFFFFFFFFFFFFFFFFFFFFFFFFFFFFFF0000FFFFFFFFFFFFFFFFFFFFFFFFFFFFFFFFFFFFFFFFFFFFFFFFFFFFFFFFFFFF0000FFFFFFFFFFFFFFFFFFFFFFFFFFFFFFFFFFFFFFFFFFFFFFFFFFFFFFFF
310
FFFF0000FFFFFFFFFFFFFFFFFFFFFFFFFFFFFFFFFFFFFFFFFFFFFFFFFFFFFFFFFFFF0000FFFFFFFFFFFFFFFFFFFFFFFFFFFFFFFFFFFFFFFFFFFFFFFFFFFFFFFFFFFF0000FFFFFFFFFFFFFFFFFFFFFFFFFFFFFFFFFFFFFFFFFFFFFFFFFFFFFFFFFFFF0000FFFFFFFFFFFFFFFFFFFFFFFFFFFFFFFFFFFFFFFFFFFFFFFFFFFFFF
310
FFFFFF0000FFFFFFFFFFFFFFFFFFFFFFFFFFFFFFFFFFFFFFFFFFFFFFFFFFFFFFFFFFFF0000FFFFFFFFFFFFFFFFFFFFFFFFFFFFFFFFFFFFFFFFFFFFFFFFFFFFFFFFFFFF0000FFFFFFFFFFFFFFFFFFFFFFFFFFFFFFFFFFFFFFFFFFFFFFFFFFFFFFFFFFFF0000FFFFFFFFFFFFFFFFFFFFFFFFFFFFFFFFFFFFFFFFFFFFFFFFFFFF
310
FFFFFFFF0000FFFFFFFFFFFFFFFFFFFFFFFFFFFFFFFFFFFFFFFFFFFFFFFFFFFFFFFFFFFF0000FFFFFFFFFFFFFFFFFFFFFFFFFFFFFFFFFFFFFFFFFFFFFFFFFFFFFFFFFFFF0000FFFFFFFFFFFFFFFFFFFFFFFFFFFFFFFFFFFFFFFFFFFFFFFFFFFFFFFFFFFF0000FFFFFFFFFFFFFFFFFFFFFFFFFFFFFFFFFFFFFFFFFFFFFFFFFF
310
FFFFFFFFFF0000FFFFFFFFFFFFFFFFFFFFFFFFFFFFFFFFFFFFFFFFFFFFFFFFFFFFFFFFFFFF0000FFFFFFFFFFFFFFFFFFFFFFFFFFFFFFFFFFFFFFFFFFFFFFFFFFFFFFFFFFFF0000FFFFFFFFFFFFFFFFFFFFFFFFFFFFFFFFFFFFFFFFFFFFFFFFFFFFFFFFFFFF0000FFFFFFFFFFFFFFFFFFFFFFFFFFFFFFFFFFFFFFFFFFFFFFFF
310
FFFFFFFFFFFF0000FFFFFFFFFFFFFFFFFFFFFFFFFFFFFFFFFFFFFFFFFFFFFFFFFFFFFFFFFFFF0000FFFFFFFFFFFFFFFFFFFFFFFFFFFFFFFFFFFFFFFFFFFFFFFFFFFFFFFFFFFF0000FFFFFFFFFFFFFFFFFFFFFFFFFFFFFFFFFFFFFFFFFFFFFFFFFFFFFFFFFFFF0000FFFFFFFFFFFFFFFFFFFFFFFFFFFFFFFFFFFFFFFFFFFFFF
310
FFFFFFFFFFFFFF0000FFFFFFFFFFFFFFFFFFFFFFFFFFFFFFFFFFFFFFFFFFFFFFFFFFFFFFFFFFFFFFFFFFFFFFFFFFFFFFFFFFFFFFFFFFFFFF
102
{BLKREFS
331
2409
102
}
  0
BLOCK_RECORD
  5
23E4
330
2119
100
AcDbSymbolTableRecord
100
AcDbBlockTableRecord
  2
AI9-BLK6
340
0
310
2800000020000000200000000100080000000000000400000000000000000000000000000000000000000000000080000080000000808000800000008000800080800000C0C0C000C0DCC000F0CAA6000020400000206000002080000020A0000020C0000020E00000400000004020000040400000406000004080000040A0
310
000040C0000040E00000600000006020000060400000606000006080000060A0000060C0000060E00000800000008020000080400000806000008080000080A0000080C0000080E00000A0000000A0200000A0400000A0600000A0800000A0A00000A0C00000A0E00000C0000000C0200000C0400000C0600000C0800000C0
310
A00000C0C00000C0E00000E0000000E0200000E0400000E0600000E0800000E0A00000E0C00000E0E00040000000400020004000400040006000400080004000A0004000C0004000E00040200000402020004020400040206000402080004020A0004020C0004020E000404000004040200040404000404060004040800040
310
40A0004040C0004040E00040600000406020004060400040606000406080004060A0004060C0004060E00040800000408020004080400040806000408080004080A0004080C0004080E00040A0000040A0200040A0400040A0600040A0800040A0A00040A0C00040A0E00040C0000040C0200040C0400040C0600040C08000
310
40C0A00040C0C00040C0E00040E0000040E0200040E0400040E0600040E0800040E0A00040E0C00040E0E00080000000800020008000400080006000800080008000A0008000C0008000E00080200000802020008020400080206000802080008020A0008020C0008020E00080400000804020008040400080406000804080
310
008040A0008040C0008040E00080600000806020008060400080606000806080008060A0008060C0008060E00080800000808020008080400080806000808080008080A0008080C0008080E00080A0000080A0200080A0400080A0600080A0800080A0A00080A0C00080A0E00080C0000080C0200080C0400080C0600080C0
310
800080C0A00080C0C00080C0E00080E0000080E0200080E0400080E0600080E0800080E0A00080E0C00080E0E000C0000000C0002000C0004000C0006000C0008000C000A000C000C000C000E000C0200000C0202000C0204000C0206000C0208000C020A000C020C000C020E000C0400000C0402000C0404000C0406000C0
310
408000C040A000C040C000C040E000C0600000C0602000C0604000C0606000C0608000C060A000C060C000C060E000C0800000C0802000C0804000C0806000C0808000C080A000C080C000C080E000C0A00000C0A02000C0A04000C0A06000C0A08000C0A0A000C0A0C000C0A0E000C0C00000C0C02000C0C04000C0C06000
310
C0C08000C0C0A000F0FBFF00A4A0A000808080000000FF0000FF000000FFFF00FF000000FF00FF00FFFF0000FFFFFF00FFFFFFFFFFFFFFFFFFFFFFFF00FFFFFFFFFFFFFF00FFFFFFFFFFFFFFFFFFFFFFFFFFFFFFFFFFFFFFFFFFFFFF00FFFFFFFFFFFFFF00FFFFFFFFFFFFFFFFFFFFFFFFFFFFFFFFFFFFFFFFFFFFFF00FFFF
310
FFFFFFFFFF00FFFFFFFFFFFFFFFFFFFFFFFFFFFFFFFFFFFFFFFFFFFF00FFFFFFFFFFFFFFFF00FFFFFFFFFFFFFFFFFFFFFFFFFFFFFFFFFFFFFFFFFFFF00FFFFFFFFFFFFFF00FFFFFFFFFFFFFFFFFFFFFFFFFFFFFFFFFFFFFFFFFFFFFF00FFFFFFFFFFFFFF00FFFFFFFFFFFFFFFFFFFFFFFFFFFFFFFFFFFFFFFFFFFF00FFFFFF
310
FFFFFFFFFF00FFFFFFFFFFFFFFFFFFFFFFFFFFFFFFFFFFFFFFFFFFFF00FFFFFFFFFFFFFF00FFFFFFFFFFFFFFFFFFFFFFFFFFFFFFFFFFFFFFFFFFFF00FFFFFFFFFFFFFFFF00FFFFFFFFFFFFFFFFFFFFFFFFFFFFFFFFFFFFFFFFFF00FFFFFFFFFFFFFFFFFF00FFFFFFFFFFFFFFFFFFFFFFFFFFFFFFFFFFFFFFFF00FFFFFFFFFF
310
FFFFFFFFFF00FFFFFFFFFFFFFFFFFFFFFFFFFFFFFFFFFFFFFF00FFFFFFFFFFFFFFFFFFFF00FFFFFFFFFFFFFFFFFFFFFFFFFFFFFFFFFFFF0000FFFFFFFFFFFFFFFFFFFFFF00FFFFFFFFFFFFFFFFFFFFFFFFFFFF00000000FFFFFFFFFFFFFFFFFFFFFFFFFF00FFFFFFFFFFFFFFFFFFFFFFFFFFFFFFFFFFFFFFFFFFFFFFFFFFFF
310
FFFFFFFF00FFFFFFFFFFFFFFFFFFFFFFFFFFFFFFFFFFFFFFFFFFFFFFFFFFFFFFFFFFFFFF00FFFFFFFFFFFFFFFFFFFFFFFFFFFFFFFFFFFFFFFFFFFFFFFFFFFFFFFFFFFFFF00FFFFFFFFFFFFFFFFFFFFFFFFFFFFFFFFFFFFFFFFFFFFFFFFFFFFFFFFFFFF00FFFFFFFFFFFFFFFFFFFFFFFFFFFFFFFFFFFFFFFFFFFFFFFFFFFFFF
310
FFFFFFFF00FFFFFFFFFFFFFFFFFFFFFFFFFFFFFFFFFFFFFFFFFFFFFFFFFFFFFFFFFFFF00FFFFFFFFFFFFFFFFFFFFFFFFFFFFFFFFFFFFFFFFFFFFFFFFFFFFFFFFFFFF00FFFFFFFFFFFFFFFFFFFFFFFFFFFFFFFFFFFFFFFFFFFFFFFFFFFFFFFFFFFF00FFFFFFFFFFFFFFFFFFFFFFFFFFFFFFFFFFFFFFFFFFFFFFFFFFFFFFFFFF
310
FF00FFFFFFFFFFFFFFFFFFFFFFFFFFFFFFFFFFFFFFFFFFFFFFFFFFFFFFFFFFFFFF00FFFFFFFFFFFFFFFFFFFFFFFFFFFFFFFFFFFFFFFFFFFFFFFFFFFFFFFFFFFF00FFFFFFFFFFFFFFFFFFFFFFFFFFFFFFFFFFFFFFFFFFFFFFFFFFFFFFFFFF0000FFFFFFFFFFFFFFFFFFFFFFFFFFFFFFFFFFFFFFFFFFFFFFFFFFFFFFFF0000FF
310
FFFFFFFFFFFFFFFFFFFFFFFFFFFFFFFFFFFFFFFFFFFFFFFFFF00000000FFFFFFFFFFFFFFFFFFFFFFFFFFFFFFFFFFFFFFFFFFFFFFFFFFFF0000FFFFFFFFFFFFFFFFFFFFFFFFFFFFFFFFFFFFFFFFFFFFFFFFFFFFFFFFFFFFFFFFFFFFFFFFFFFFFFFFFFFFFFFFFFFFFFFFFFFFFFFFFFFFFFFFFFFFFFFFFFFFFFFFFFFFFFFFFFFF
310
FFFFFFFFFFFFFFFFFFFFFFFFFFFFFFFFFFFFFFFFFFFFFFFFFFFFFFFFFFFFFFFFFFFFFFFFFFFFFFFFFFFFFFFFFFFFFFFFFFFFFFFFFFFFFFFF
102
{BLKREFS
331
240A
102
}
  0
BLOCK_RECORD
  5
23E8
330
2119
100
AcDbSymbolTableRecord
100
AcDbBlockTableRecord
  2
AI9-BLK5
340
0
310
2800000020000000200000000100080000000000000400000000000000000000000000000000000000000000000080000080000000808000800000008000800080800000C0C0C000C0DCC000F0CAA6000020400000206000002080000020A0000020C0000020E00000400000004020000040400000406000004080000040A0
310
000040C0000040E00000600000006020000060400000606000006080000060A0000060C0000060E00000800000008020000080400000806000008080000080A0000080C0000080E00000A0000000A0200000A0400000A0600000A0800000A0A00000A0C00000A0E00000C0000000C0200000C0400000C0600000C0800000C0
310
A00000C0C00000C0E00000E0000000E0200000E0400000E0600000E0800000E0A00000E0C00000E0E00040000000400020004000400040006000400080004000A0004000C0004000E00040200000402020004020400040206000402080004020A0004020C0004020E000404000004040200040404000404060004040800040
310
40A0004040C0004040E00040600000406020004060400040606000406080004060A0004060C0004060E00040800000408020004080400040806000408080004080A0004080C0004080E00040A0000040A0200040A0400040A0600040A0800040A0A00040A0C00040A0E00040C0000040C0200040C0400040C0600040C08000
310
40C0A00040C0C00040C0E00040E0000040E0200040E0400040E0600040E0800040E0A00040E0C00040E0E00080000000800020008000400080006000800080008000A0008000C0008000E00080200000802020008020400080206000802080008020A0008020C0008020E00080400000804020008040400080406000804080
310
008040A0008040C0008040E00080600000806020008060400080606000806080008060A0008060C0008060E00080800000808020008080400080806000808080008080A0008080C0008080E00080A0000080A0200080A0400080A0600080A0800080A0A00080A0C00080A0E00080C0000080C0200080C0400080C0600080C0
310
800080C0A00080C0C00080C0E00080E0000080E0200080E0400080E0600080E0800080E0A00080E0C00080E0E000C0000000C0002000C0004000C0006000C0008000C000A000C000C000C000E000C0200000C0202000C0204000C0206000C0208000C020A000C020C000C020E000C0400000C0402000C0404000C0406000C0
310
408000C040A000C040C000C040E000C0600000C0602000C0604000C0606000C0608000C060A000C060C000C060E000C0800000C0802000C0804000C0806000C0808000C080A000C080C000C080E000C0A00000C0A02000C0A04000C0A06000C0A08000C0A0A000C0A0C000C0A0E000C0C00000C0C02000C0C04000C0C06000
310
C0C08000C0C0A000F0FBFF00A4A0A000808080000000FF0000FF000000FFFF00FF000000FF00FF00FFFF0000FFFFFF00FFFFFFFFFFFFFFFFFFFFFFFFFFFFFFFFFFFFFFFFFFFFFFFFFFFFFFFFFFFFFFFFFFFFFFFFFFFFFFFF000000000000000000000000000000000000000000000000FFFFFFFFFFFFFFFF00FFFFFFFFFFFF
310
FFFFFFFFFFFFFFFFFFFFFFFFFFFFFFFFFFFFFFFFFFFFFFFFFF00FFFFFFFFFFFFFFFFFFFFFFFFFFFFFFFFFFFFFFFFFFFFFFFFFFFFFFFFFFFFFF00FFFFFFFFFFFFFFFFFFFFFFFFFFFFFFFFFFFFFFFFFFFFFFFFFFFFFFFFFFFFFF00FFFFFFFFFFFFFFFFFFFFFFFFFFFFFFFFFFFFFFFFFFFFFFFFFFFFFFFFFFFFFF00FFFFFFFFFF
310
FFFFFFFFFFFFFFFFFFFFFFFFFFFFFFFFFFFFFFFFFFFFFFFFFFFF00FFFFFFFFFFFFFFFFFFFFFFFFFFFFFFFFFFFFFFFFFFFFFFFFFFFFFFFFFFFFFF00FFFFFFFFFFFFFFFFFFFFFFFFFFFFFFFFFFFFFFFFFFFFFFFFFFFFFFFFFFFFFF00FFFFFFFFFFFFFFFFFFFFFFFFFFFFFFFFFFFFFFFFFFFFFFFFFFFFFFFFFFFFFF00FFFFFFFF
310
FFFFFFFFFFFFFFFFFFFFFFFFFFFFFFFFFFFFFFFFFFFFFFFFFFFFFF00FFFFFFFFFFFFFFFFFFFFFFFFFFFFFFFFFFFFFFFFFFFFFFFFFFFFFFFFFFFFFF00FFFFFFFFFFFFFFFFFFFFFFFFFFFFFFFFFFFFFFFFFFFFFFFFFFFFFFFFFFFFFF00FFFFFFFFFFFFFFFFFFFFFFFFFFFFFFFFFFFFFFFFFFFFFFFFFFFFFFFFFFFFFF00FFFFFF
310
FFFFFFFFFFFFFFFFFFFFFFFFFFFFFFFFFFFFFFFFFFFFFFFFFFFFFFFF00FFFFFFFFFFFFFFFFFFFFFFFFFFFFFFFFFFFFFFFFFFFFFFFFFFFFFFFFFFFFFF00FFFFFFFFFFFFFFFFFFFFFFFFFFFFFFFFFFFFFFFFFFFFFFFFFFFFFFFFFFFFFF00FFFFFFFFFFFFFFFFFFFFFFFFFFFFFFFFFFFFFFFFFFFFFFFFFFFFFFFFFFFFFF00FFFF
310
FFFFFFFFFFFFFFFFFFFFFFFFFFFFFFFFFFFFFFFFFFFFFFFFFFFFFFFFFF00FFFFFFFFFFFFFFFFFFFFFFFFFFFFFFFFFFFFFFFFFFFFFFFFFFFFFFFFFFFFFF00FFFFFFFFFFFFFFFFFFFFFFFFFFFFFFFFFFFFFFFFFFFFFFFFFFFFFFFFFFFFFF00FFFFFFFFFFFFFFFFFFFFFFFFFFFFFFFFFFFFFFFFFFFFFFFFFFFFFFFFFFFFFF00FF
310
FFFFFFFFFFFFFFFFFFFFFFFFFFFFFFFFFFFFFFFFFFFFFFFFFFFFFFFFFFFF00FFFFFFFFFFFFFFFFFFFFFFFFFFFFFFFFFFFFFFFFFFFFFFFFFFFFFFFFFFFFFF00FFFFFFFFFFFFFFFFFFFFFFFFFFFFFFFFFFFFFFFFFFFFFFFFFFFFFFFFFFFFFF00FFFFFFFFFFFFFFFFFFFFFFFFFFFFFFFFFFFFFFFFFFFFFFFFFFFFFFFFFFFFFF00
310
FFFFFFFFFFFFFFFFFFFFFFFFFFFFFFFFFFFFFFFFFFFFFFFFFFFFFFFFFFFFFF00FFFFFFFFFFFFFFFFFFFFFFFFFFFFFFFFFFFFFFFFFFFFFFFFFFFFFFFFFFFFFF00FFFFFFFFFFFFFFFFFFFFFFFFFFFFFFFFFFFFFFFFFFFFFFFFFFFFFFFFFFFFFF00FFFFFFFFFFFFFFFFFFFFFFFFFFFFFFFFFFFFFFFFFFFFFFFFFFFFFFFFFFFFFF
310
00FFFFFFFFFFFFFFFFFFFFFFFFFFFF000000000000000000FFFFFFFFFFFFFFFF00FFFFFFFFFFFFFFFFFFFFFFFFFFFF00FFFFFFFFFFFFFFFF
102
{BLKREFS
331
240B
102
}
  0
BLOCK_RECORD
  5
23ED
330
2119
100
AcDbSymbolTableRecord
100
AcDbBlockTableRecord
  2
AI9-BLK4
340
0
310
2800000020000000200000000100080000000000000400000000000000000000000000000000000000000000000080000080000000808000800000008000800080800000C0C0C000C0DCC000F0CAA6000020400000206000002080000020A0000020C0000020E00000400000004020000040400000406000004080000040A0
310
000040C0000040E00000600000006020000060400000606000006080000060A0000060C0000060E00000800000008020000080400000806000008080000080A0000080C0000080E00000A0000000A0200000A0400000A0600000A0800000A0A00000A0C00000A0E00000C0000000C0200000C0400000C0600000C0800000C0
310
A00000C0C00000C0E00000E0000000E0200000E0400000E0600000E0800000E0A00000E0C00000E0E00040000000400020004000400040006000400080004000A0004000C0004000E00040200000402020004020400040206000402080004020A0004020C0004020E000404000004040200040404000404060004040800040
310
40A0004040C0004040E00040600000406020004060400040606000406080004060A0004060C0004060E00040800000408020004080400040806000408080004080A0004080C0004080E00040A0000040A0200040A0400040A0600040A0800040A0A00040A0C00040A0E00040C0000040C0200040C0400040C0600040C08000
310
40C0A00040C0C00040C0E00040E0000040E0200040E0400040E0600040E0800040E0A00040E0C00040E0E00080000000800020008000400080006000800080008000A0008000C0008000E00080200000802020008020400080206000802080008020A0008020C0008020E00080400000804020008040400080406000804080
310
008040A0008040C0008040E00080600000806020008060400080606000806080008060A0008060C0008060E00080800000808020008080400080806000808080008080A0008080C0008080E00080A0000080A0200080A0400080A0600080A0800080A0A00080A0C00080A0E00080C0000080C0200080C0400080C0600080C0
310
800080C0A00080C0C00080C0E00080E0000080E0200080E0400080E0600080E0800080E0A00080E0C00080E0E000C0000000C0002000C0004000C0006000C0008000C000A000C000C000C000E000C0200000C0202000C0204000C0206000C0208000C020A000C020C000C020E000C0400000C0402000C0404000C0406000C0
310
408000C040A000C040C000C040E000C0600000C0602000C0604000C0606000C0608000C060A000C060C000C060E000C0800000C0802000C0804000C0806000C0808000C080A000C080C000C080E000C0A00000C0A02000C0A04000C0A06000C0A08000C0A0A000C0A0C000C0A0E000C0C00000C0C02000C0C04000C0C06000
310
C0C08000C0C0A000F0FBFF00A4A0A000808080000000FF0000FF000000FFFF00FF000000FF00FF00FFFF0000FFFFFF00FFFFFFFFFFFFFFFFFFFFFFFFFFFFFFFFFFFFFFFFFFFFFFFFFFFFFFFFFFFFFFFFFFFFFFFFFFFFFFFFFFFFFFFFFFFF00000000FFFFFFFFFFFFFFFFFFFFFF000000FFFFFFFFFFFFFFFFFFFFFFFFFFFF00
310
FFFF00FFFFFFFFFFFFFFFFFFFFFF00FFFFFFFFFFFFFFFFFFFFFFFFFFFFFFFF00FFFF00FFFFFFFFFFFFFFFFFFFFFF00FFFFFFFFFFFFFFFFFFFFFFFFFFFFFFFF00FFFF00FFFFFFFFFFFFFFFFFFFFFF00FFFFFFFFFFFFFFFFFFFFFFFFFFFFFFFF00FFFF00FFFFFFFFFFFFFFFFFFFFFF00FFFFFFFFFFFFFFFFFFFFFFFFFFFFFFFF
310
00FFFF00FFFFFFFFFFFFFFFFFFFFFF00FFFFFFFFFFFFFFFFFFFFFFFFFFFFFFFF00FFFF00FFFFFFFFFFFFFFFFFFFFFF00FFFFFFFFFFFFFFFFFFFFFFFFFFFFFFFF00FFFF00FFFFFFFFFFFFFFFFFFFFFF00FFFFFFFFFFFFFFFFFFFFFFFFFFFFFFFF00FFFF00FFFFFFFFFFFFFFFFFFFFFF00FFFFFFFFFFFFFFFFFFFFFFFFFFFFFF
310
FF00FFFF00FFFFFFFFFFFFFFFFFFFFFF00FFFFFFFFFFFFFFFFFFFFFFFFFFFFFFFF00FFFF00FFFFFFFFFFFFFFFFFFFFFF00FFFFFFFFFFFFFFFFFFFFFFFFFFFFFFFF00FFFF00FFFFFFFFFFFFFFFFFFFFFF00FFFFFFFFFFFFFFFFFFFFFFFFFFFFFFFF00FFFF00FFFFFFFFFFFFFFFFFFFFFF00FFFFFFFFFFFFFFFFFFFFFFFFFFFF
310
FFFF00FFFF00FFFFFFFFFFFFFFFFFFFFFF00FFFFFFFFFFFFFFFFFFFFFFFFFFFFFFFF00FFFF00FFFFFFFFFFFFFFFFFFFFFF00FFFFFFFFFFFFFFFFFFFFFFFFFFFFFFFF00FFFF00FFFFFFFFFFFFFFFFFFFFFF00FFFFFFFFFFFFFFFFFFFFFFFFFFFFFFFF00FFFF00FFFFFFFFFFFFFFFFFFFF00FFFFFFFFFFFFFFFFFFFFFFFFFFFF
310
FFFFFF00FFFF00FFFFFFFFFFFFFFFFFFFF00FFFFFFFFFFFFFFFFFFFFFFFFFFFFFFFFFF00FFFF00FFFFFFFFFFFFFFFFFFFF00FFFFFFFFFFFFFFFFFFFFFFFFFFFFFFFFFF00FFFF00FFFFFFFFFFFFFFFFFFFF00FFFFFFFFFFFFFFFFFFFFFFFFFFFFFFFFFF00FFFF00FFFFFFFFFFFFFFFFFFFF00FFFFFFFFFFFFFFFFFFFFFFFFFF
310
FFFFFFFF00FFFF00FFFFFFFFFFFFFFFFFF0000FFFF00FFFFFFFFFFFFFFFFFFFFFFFFFFFF00FFFF00FFFFFFFFFFFFFFFF0000FFFFFF00FFFFFFFFFFFFFFFFFFFFFFFFFFFF00FFFF00000000000000000000FFFFFFFF00FFFFFFFFFFFFFFFFFFFFFFFFFFFF00FFFFFFFFFFFFFFFFFFFFFFFFFFFFFF00FFFFFFFFFFFFFFFFFFFF
310
FFFFFFFFFF00FFFFFFFFFFFFFFFFFFFFFFFFFFFF00FFFFFFFFFFFFFFFFFFFFFFFFFFFFFFFF00FFFFFFFFFFFFFFFFFFFFFFFFFFFF00FFFFFFFFFFFFFFFFFFFFFFFFFFFFFFFF00FFFFFFFFFFFFFFFFFFFFFFFFFFFFFF00FFFFFFFFFFFFFFFFFFFFFFFFFFFFFF00FFFFFFFFFFFFFFFFFFFFFFFFFFFFFF00FFFFFFFFFFFFFFFFFF
310
FFFFFFFFFFFF00FFFF00000000000000000000FFFFFFFF00FFFFFFFFFFFFFFFFFFFFFFFFFFFF00FFFF00FFFFFFFFFFFFFFFFFF0000FFFF00
102
{BLKREFS
331
240C
102
}
  0
BLOCK_RECORD
  5
23F2
330
2119
100
AcDbSymbolTableRecord
100
AcDbBlockTableRecord
  2
AI9-BLK3
340
0
310
2800000020000000200000000100080000000000000400000000000000000000000000000000000000000000000080000080000000808000800000008000800080800000C0C0C000C0DCC000F0CAA6000020400000206000002080000020A0000020C0000020E00000400000004020000040400000406000004080000040A0
310
000040C0000040E00000600000006020000060400000606000006080000060A0000060C0000060E00000800000008020000080400000806000008080000080A0000080C0000080E00000A0000000A0200000A0400000A0600000A0800000A0A00000A0C00000A0E00000C0000000C0200000C0400000C0600000C0800000C0
310
A00000C0C00000C0E00000E0000000E0200000E0400000E0600000E0800000E0A00000E0C00000E0E00040000000400020004000400040006000400080004000A0004000C0004000E00040200000402020004020400040206000402080004020A0004020C0004020E000404000004040200040404000404060004040800040
310
40A0004040C0004040E00040600000406020004060400040606000406080004060A0004060C0004060E00040800000408020004080400040806000408080004080A0004080C0004080E00040A0000040A0200040A0400040A0600040A0800040A0A00040A0C00040A0E00040C0000040C0200040C0400040C0600040C08000
310
40C0A00040C0C00040C0E00040E0000040E0200040E0400040E0600040E0800040E0A00040E0C00040E0E00080000000800020008000400080006000800080008000A0008000C0008000E00080200000802020008020400080206000802080008020A0008020C0008020E00080400000804020008040400080406000804080
310
008040A0008040C0008040E00080600000806020008060400080606000806080008060A0008060C0008060E00080800000808020008080400080806000808080008080A0008080C0008080E00080A0000080A0200080A0400080A0600080A0800080A0A00080A0C00080A0E00080C0000080C0200080C0400080C0600080C0
310
800080C0A00080C0C00080C0E00080E0000080E0200080E0400080E0600080E0800080E0A00080E0C00080E0E000C0000000C0002000C0004000C0006000C0008000C000A000C000C000C000E000C0200000C0202000C0204000C0206000C0208000C020A000C020C000C020E000C0400000C0402000C0404000C0406000C0
310
408000C040A000C040C000C040E000C0600000C0602000C0604000C0606000C0608000C060A000C060C000C060E000C0800000C0802000C0804000C0806000C0808000C080A000C080C000C080E000C0A00000C0A02000C0A04000C0A06000C0A08000C0A0A000C0A0C000C0A0E000C0C00000C0C02000C0C04000C0C06000
310
C0C08000C0C0A000F0FBFF00A4A0A000808080000000FF0000FF000000FFFF00FF000000FF00FF00FFFF0000FFFFFF00FFFFFFFFFFFFFFFFFFFFFFFFFFFFFFFFFFFFFFFFFFFFFFFFFFFFFFFFFFFFFFFFFFFFFFFFFFFFFFFFFFFFFFFFFFFFFF0000FFFFFFFFFFFFFFFFFFFFFFFFFFFFFFFFFFFFFFFFFFFFFFFFFFFFFFFFFFFF
310
0000FFFFFFFFFFFFFFFFFFFFFFFFFFFFFFFFFFFFFFFFFFFFFFFFFFFFFFFFFFFF0000FFFFFFFFFFFFFFFFFFFFFFFFFFFFFFFFFFFFFFFFFFFFFFFFFFFFFFFFFFFF0000FFFFFFFFFFFFFFFFFFFFFFFFFFFFFFFFFFFFFFFFFFFFFFFFFFFFFFFFFFFF0000FFFFFFFFFFFFFFFFFFFFFFFFFFFFFFFFFFFFFFFFFFFFFFFFFFFFFFFFFF
310
FF0000FFFFFFFFFFFFFFFFFFFFFFFFFFFFFFFFFFFFFFFFFFFFFFFFFFFFFFFFFFFF0000FFFFFFFFFFFFFFFFFFFFFFFFFFFFFFFFFFFFFFFFFFFFFFFFFFFFFFFFFFFF0000FFFFFFFFFFFFFFFFFFFFFFFFFFFFFFFFFFFFFFFFFFFFFFFFFFFFFFFFFFFF0000FFFFFFFFFFFFFFFFFFFFFFFFFFFFFFFFFFFFFFFFFFFFFFFFFFFFFFFF
310
FFFF0000FFFFFFFFFFFFFFFFFFFFFFFFFFFFFFFFFFFFFFFFFFFFFFFFFFFFFFFFFFFF0000FFFFFFFFFFFFFFFFFFFFFFFFFFFFFFFFFFFFFFFFFFFFFFFFFFFFFFFFFFFF0000FFFFFFFFFFFFFFFFFFFFFFFFFFFFFFFFFFFFFFFFFFFFFFFFFFFFFFFFFFFF0000FFFFFFFFFFFFFFFFFFFFFFFFFFFFFFFFFFFFFFFFFFFFFFFFFFFFFF
310
FFFFFF0000FFFFFFFFFFFFFFFFFFFFFFFFFFFFFFFFFFFFFFFFFFFFFFFFFFFFFFFFFFFF0000FFFFFFFFFFFFFFFFFFFFFFFFFFFFFFFFFFFFFFFFFFFFFFFFFFFFFFFFFFFF0000FFFFFFFFFFFFFFFFFFFFFFFFFFFFFFFFFFFFFFFFFFFFFFFFFFFFFFFFFFFF0000FFFFFFFFFFFFFFFFFFFFFFFFFFFFFFFFFFFFFFFFFFFFFFFFFFFF
310
FFFFFFFF0000FFFFFFFFFFFFFFFFFFFFFFFFFFFFFFFFFFFFFFFFFFFFFFFFFFFFFFFFFFFF0000FFFFFFFFFFFFFFFFFFFFFFFFFFFFFFFFFFFFFFFFFFFFFFFFFFFFFFFFFFFF0000FFFFFFFFFFFFFFFFFFFFFFFFFFFFFFFFFFFFFFFFFFFFFFFFFFFFFFFFFFFF0000FFFFFFFFFFFFFFFFFFFFFFFFFFFFFFFFFFFFFFFFFFFFFFFFFF
310
FFFFFFFFFF0000FFFFFFFFFFFFFFFFFFFFFFFFFFFFFFFFFFFFFFFFFFFFFFFFFFFFFFFFFFFF0000FFFFFFFFFFFFFFFFFFFFFFFFFFFFFFFFFFFFFFFFFFFFFFFFFFFFFFFFFFFF0000FFFFFFFFFFFFFFFFFFFFFFFFFFFFFFFFFFFFFFFFFFFFFFFFFFFFFFFFFFFF0000FFFFFFFFFFFFFFFFFFFFFFFFFFFFFFFFFFFFFFFFFFFFFFFF
310
FFFFFFFFFFFF0000FFFFFFFFFFFFFFFFFFFFFFFFFFFFFFFFFFFFFFFFFFFFFFFFFFFFFFFFFFFF0000FFFFFFFFFFFFFFFFFFFFFFFFFFFFFFFFFFFFFFFFFFFFFFFFFFFFFFFFFFFF0000FFFFFFFFFFFFFFFFFFFFFFFFFFFFFFFFFFFFFFFFFFFFFFFFFFFFFFFFFFFF0000FFFFFFFFFFFFFFFFFFFFFFFFFFFFFFFFFFFFFFFFFFFFFF
310
FFFFFFFFFFFFFF0000FFFFFFFFFFFFFFFFFFFFFFFFFFFFFFFFFFFFFFFFFFFFFFFFFFFFFFFFFFFFFFFFFFFFFFFFFFFFFFFFFFFFFFFFFFFFFF
102
{BLKREFS
331
240D
102
}
  0
BLOCK_RECORD
  5
23F7
330
2119
100
AcDbSymbolTableRecord
100
AcDbBlockTableRecord
  2
AI9-BLK2
340
0
310
2800000020000000200000000100080000000000000400000000000000000000000000000000000000000000000080000080000000808000800000008000800080800000C0C0C000C0DCC000F0CAA6000020400000206000002080000020A0000020C0000020E00000400000004020000040400000406000004080000040A0
310
000040C0000040E00000600000006020000060400000606000006080000060A0000060C0000060E00000800000008020000080400000806000008080000080A0000080C0000080E00000A0000000A0200000A0400000A0600000A0800000A0A00000A0C00000A0E00000C0000000C0200000C0400000C0600000C0800000C0
310
A00000C0C00000C0E00000E0000000E0200000E0400000E0600000E0800000E0A00000E0C00000E0E00040000000400020004000400040006000400080004000A0004000C0004000E00040200000402020004020400040206000402080004020A0004020C0004020E000404000004040200040404000404060004040800040
310
40A0004040C0004040E00040600000406020004060400040606000406080004060A0004060C0004060E00040800000408020004080400040806000408080004080A0004080C0004080E00040A0000040A0200040A0400040A0600040A0800040A0A00040A0C00040A0E00040C0000040C0200040C0400040C0600040C08000
310
40C0A00040C0C00040C0E00040E0000040E0200040E0400040E0600040E0800040E0A00040E0C00040E0E00080000000800020008000400080006000800080008000A0008000C0008000E00080200000802020008020400080206000802080008020A0008020C0008020E00080400000804020008040400080406000804080
310
008040A0008040C0008040E00080600000806020008060400080606000806080008060A0008060C0008060E00080800000808020008080400080806000808080008080A0008080C0008080E00080A0000080A0200080A0400080A0600080A0800080A0A00080A0C00080A0E00080C0000080C0200080C0400080C0600080C0
310
800080C0A00080C0C00080C0E00080E0000080E0200080E0400080E0600080E0800080E0A00080E0C00080E0E000C0000000C0002000C0004000C0006000C0008000C000A000C000C000C000E000C0200000C0202000C0204000C0206000C0208000C020A000C020C000C020E000C0400000C0402000C0404000C0406000C0
310
408000C040A000C040C000C040E000C0600000C0602000C0604000C0606000C0608000C060A000C060C000C060E000C0800000C0802000C0804000C0806000C0808000C080A000C080C000C080E000C0A00000C0A02000C0A04000C0A06000C0A08000C0A0A000C0A0C000C0A0E000C0C00000C0C02000C0C04000C0C06000
310
C0C08000C0C0A000F0FBFF00A4A0A000808080000000FF0000FF000000FFFF00FF000000FF00FF00FFFF0000FFFFFF00FFFFFFFFFFFFFFFFFFFFFFFFFFFFFFFFFFFFFFFFFFFFFFFFFFFFFFFFFFFFFFFFFFFFFFFFFFFFFFFFFFFFFFFFFFFFFF0000FFFFFFFFFFFFFFFFFFFFFFFFFFFFFFFFFFFFFFFFFFFFFFFFFFFFFFFFFFFF
310
0000FFFFFFFFFFFFFFFFFFFFFFFFFFFFFFFFFFFFFFFFFFFFFFFFFFFFFFFFFFFF0000FFFFFFFFFFFFFFFFFFFFFFFFFFFFFFFFFFFFFFFFFFFFFFFFFFFFFFFFFF00FFFF00FFFFFFFFFFFFFFFFFFFFFFFFFFFFFFFFFFFFFFFFFFFFFFFFFFFFFFFF00FFFF00FFFFFFFFFFFFFFFFFFFFFFFFFFFFFFFFFFFFFFFFFFFFFFFFFFFFFFFF
310
00FF0000FFFFFFFFFFFFFFFFFFFFFFFFFFFFFFFFFFFFFFFFFFFFFFFFFFFFFFFF00FF0000FFFFFFFFFFFFFFFFFFFFFFFFFFFFFFFFFFFFFFFFFFFFFFFFFFFFFFFF00FF0000FFFFFFFFFFFFFFFFFFFFFFFFFFFFFFFFFFFFFFFFFFFFFFFFFFFFFFFF00000000FFFFFFFFFFFFFFFFFFFFFFFFFFFFFFFFFFFFFFFFFFFFFFFFFFFFFF
310
00FF00FF0000FFFFFFFFFFFFFFFFFFFFFFFFFFFFFFFFFFFFFFFFFFFFFFFFFFFF00FF00FF0000FFFFFFFFFFFFFFFFFFFFFFFFFFFFFFFFFFFFFFFFFFFFFFFFFFFF00FF00FF0000FFFFFFFFFFFFFFFFFFFFFFFFFFFFFFFFFFFFFFFFFFFFFFFFFFFF00FF00FF0000FFFFFFFFFFFFFFFFFFFFFFFFFFFFFFFFFFFFFFFFFFFFFFFFFF
310
FF00FF00FF0000FFFFFFFFFFFFFFFFFFFFFFFFFFFFFFFFFFFFFFFFFFFFFFFFFFFF0000FFFF0000FFFFFFFFFFFFFFFFFFFFFFFFFFFFFFFFFFFFFFFFFFFFFFFFFF00FF00FFFF00FF00FFFFFFFFFFFFFFFFFFFFFFFFFFFFFFFFFFFFFFFFFFFFFFFF00FF00FFFF00FF00FFFFFFFFFFFFFFFFFFFFFFFFFFFFFFFFFFFFFFFFFFFFFF
310
FF00FF00FFFFFF0000FFFFFFFFFFFFFFFFFFFFFFFFFFFFFFFFFFFFFFFFFFFFFFFF00FF00FFFFFF0000FFFFFFFFFFFFFFFFFFFFFFFFFFFFFFFFFFFFFFFFFFFFFFFF00FF00FFFFFF0000FFFFFFFFFFFFFFFFFFFFFFFFFFFFFFFFFFFFFFFFFFFFFFFF0000FFFFFFFF0000FFFFFFFFFFFFFFFFFFFFFFFFFFFFFFFFFFFFFFFFFFFF
310
FF00FF00FFFFFFFF00FF00FFFFFFFFFFFFFFFFFFFFFFFFFFFFFFFFFFFFFFFFFFFF00FF00FFFFFFFF00FF00FFFFFFFFFFFFFFFFFFFFFFFFFFFFFFFFFFFFFFFFFFFF00FF00FFFFFFFF00FF00FFFFFFFFFFFFFFFFFFFFFFFFFFFFFFFFFFFFFFFFFFFF00FF00FFFFFFFF00FF00FFFFFFFFFFFFFFFFFFFFFFFFFFFFFFFFFFFFFFFF
310
FFFF00FF00FFFFFFFFFF0000FFFFFFFFFFFFFFFFFFFFFFFFFFFFFFFFFFFFFFFFFFFF0000FFFFFFFFFFFF0000FFFFFFFFFFFFFFFFFFFFFFFFFFFFFFFFFFFFFFFFFF00FF00FFFFFFFFFFFF00FF00FFFFFFFFFFFFFFFFFFFFFFFFFFFFFFFFFFFFFFFF00FF00FFFFFFFFFFFF00FF00FFFFFFFFFFFFFFFFFFFFFFFFFFFFFFFFFFFF
310
FFFF000000FFFFFFFFFFFF000000FFFFFFFFFFFFFFFFFFFFFFFFFFFFFFFFFFFFFFFFFFFFFFFFFFFFFFFFFFFFFFFFFFFFFFFFFFFFFFFFFFFF
102
{BLKREFS
331
240E
102
}
  0
BLOCK_RECORD
  5
23FC
330
2119
100
AcDbSymbolTableRecord
100
AcDbBlockTableRecord
  2
AI9-BLK1
340
0
310
2800000020000000200000000100080000000000000400000000000000000000000000000000000000000000000080000080000000808000800000008000800080800000C0C0C000C0DCC000F0CAA6000020400000206000002080000020A0000020C0000020E00000400000004020000040400000406000004080000040A0
310
000040C0000040E00000600000006020000060400000606000006080000060A0000060C0000060E00000800000008020000080400000806000008080000080A0000080C0000080E00000A0000000A0200000A0400000A0600000A0800000A0A00000A0C00000A0E00000C0000000C0200000C0400000C0600000C0800000C0
310
A00000C0C00000C0E00000E0000000E0200000E0400000E0600000E0800000E0A00000E0C00000E0E00040000000400020004000400040006000400080004000A0004000C0004000E00040200000402020004020400040206000402080004020A0004020C0004020E000404000004040200040404000404060004040800040
310
40A0004040C0004040E00040600000406020004060400040606000406080004060A0004060C0004060E00040800000408020004080400040806000408080004080A0004080C0004080E00040A0000040A0200040A0400040A0600040A0800040A0A00040A0C00040A0E00040C0000040C0200040C0400040C0600040C08000
310
40C0A00040C0C00040C0E00040E0000040E0200040E0400040E0600040E0800040E0A00040E0C00040E0E00080000000800020008000400080006000800080008000A0008000C0008000E00080200000802020008020400080206000802080008020A0008020C0008020E00080400000804020008040400080406000804080
310
008040A0008040C0008040E00080600000806020008060400080606000806080008060A0008060C0008060E00080800000808020008080400080806000808080008080A0008080C0008080E00080A0000080A0200080A0400080A0600080A0800080A0A00080A0C00080A0E00080C0000080C0200080C0400080C0600080C0
310
800080C0A00080C0C00080C0E00080E0000080E0200080E0400080E0600080E0800080E0A00080E0C00080E0E000C0000000C0002000C0004000C0006000C0008000C000A000C000C000C000E000C0200000C0202000C0204000C0206000C0208000C020A000C020C000C020E000C0400000C0402000C0404000C0406000C0
310
408000C040A000C040C000C040E000C0600000C0602000C0604000C0606000C0608000C060A000C060C000C060E000C0800000C0802000C0804000C0806000C0808000C080A000C080C000C080E000C0A00000C0A02000C0A04000C0A06000C0A08000C0A0A000C0A0C000C0A0E000C0C00000C0C02000C0C04000C0C06000
310
C0C08000C0C0A000F0FBFF00A4A0A000808080000000FF0000FF000000FFFF00FF000000FF00FF00FFFF0000FFFFFF00FFFFFFFFFFFFFFFFFFFFFFFFFFFFFFFFFFFFFFFFFFFFFFFFFFFFFFFFFFFFFFFFFFFFFFFFFFFFFFFFFFFFFF00000000000000000000FFFFFFFFFFFFFFFFFFFFFFFFFFFFFFFFFFFFFFFFFFFF00FFFFFF
310
FFFFFFFFFF00FFFFFFFFFFFFFFFFFFFFFFFFFFFFFFFFFFFFFFFFFFFF00FFFFFFFFFFFFFFFF00FFFFFFFFFFFFFFFFFFFFFFFFFFFFFFFFFFFFFFFFFFFF00FFFFFFFFFFFFFFFF00FFFFFFFFFFFFFFFFFFFFFFFFFFFFFFFFFFFFFFFFFFFF00FF0000000000000000FFFFFFFFFFFFFFFFFFFFFFFFFFFFFFFFFFFFFFFFFFFF00FF00
310
FFFFFFFFFFFFFFFFFFFFFFFFFFFFFFFFFFFFFFFFFFFFFFFFFFFFFFFFFF00FF00FFFFFFFFFFFFFFFFFFFFFFFFFFFFFFFFFFFFFFFFFFFFFFFFFFFFFFFFFF00FF00FFFFFFFFFFFFFFFFFFFFFFFFFFFFFFFFFFFFFFFFFFFFFFFFFFFFFFFFFF00FF00FFFFFFFFFFFFFFFFFFFFFFFFFFFFFFFFFFFFFFFFFFFFFFFFFFFFFFFFFF00FF
310
00FFFFFFFFFFFFFFFFFFFFFFFFFFFFFFFFFFFFFFFFFFFFFFFFFFFFFFFFFF00FF00FFFFFFFFFFFFFFFFFFFFFFFFFFFFFFFFFFFFFFFFFFFFFFFFFFFFFFFFFF00FF00FFFFFFFFFFFFFFFFFFFFFFFFFFFFFFFFFFFFFFFFFFFFFFFFFFFFFFFFFF00FF00FFFFFFFFFFFFFFFFFFFFFFFFFFFFFFFFFFFFFFFFFFFFFFFFFFFFFFFFFF00
310
FF00000000000000FFFFFFFFFFFFFFFFFFFFFFFFFFFFFFFFFFFFFFFFFFFFFF00FFFFFFFFFFFFFF00FFFFFFFFFFFFFFFFFFFFFFFFFFFFFFFFFFFFFFFFFFFFFF00FFFFFFFFFFFFFF00FFFFFFFFFFFFFFFFFFFFFFFFFFFFFFFFFFFFFFFFFFFFFF00FFFFFFFFFFFFFF00FFFFFFFFFFFFFFFFFFFFFFFFFFFFFFFFFFFFFFFFFFFFFF
310
00FF00000000000000FFFFFFFFFFFFFFFFFFFFFFFFFFFFFFFFFFFFFFFFFFFFFF00FF00FFFFFFFFFFFFFFFFFFFFFFFFFFFFFFFFFFFFFFFFFFFFFFFFFFFFFFFFFF00FF00FFFFFFFFFFFFFFFFFFFFFFFFFFFFFFFFFFFFFFFFFFFFFFFFFFFFFFFFFF00FF00FFFFFFFFFFFFFFFFFFFFFFFFFFFFFFFFFFFFFFFFFFFFFFFFFFFFFFFF
310
FF00FF00FFFFFFFFFFFFFFFFFFFFFFFFFFFFFFFFFFFFFFFFFFFFFFFFFFFFFFFFFF00FF00FFFFFFFFFFFFFFFFFFFFFFFFFFFFFFFFFFFFFFFFFFFFFFFFFFFFFFFFFF00FF00FFFFFFFFFFFFFFFFFFFFFFFFFFFFFFFFFFFFFFFFFFFFFFFFFFFFFFFFFF00FF00FFFFFFFFFFFFFFFFFFFFFFFFFFFFFFFFFFFFFFFFFFFFFFFFFFFFFF
310
FFFF00FF0000000000000000FFFFFFFFFFFFFFFFFFFFFFFFFFFFFFFFFFFFFFFFFFFF00FFFFFFFFFFFFFFFF00FFFFFFFFFFFFFFFFFFFFFFFFFFFFFFFFFFFFFFFFFFFF00FFFFFFFFFFFFFFFF00FFFFFFFFFFFFFFFFFFFFFFFFFFFFFFFFFFFFFFFFFFFF00FFFFFFFFFFFFFFFF00FFFFFFFFFFFFFFFFFFFFFFFFFFFFFFFFFFFFFF
310
FFFFFF00000000000000000000FFFFFFFFFFFFFFFFFFFFFFFFFFFFFFFFFFFFFFFFFFFFFFFFFFFFFFFFFFFFFFFFFFFFFFFFFFFFFFFFFFFFFF
102
{BLKREFS
331
240F
102
}
  0
BLOCK_RECORD
  5
2401
330
2119
100
AcDbSymbolTableRecord
100
AcDbBlockTableRecord
  2
HD_LLC_logo_OT5
340
0
310
2800000020000000200000000100080000000000000400000000000000000000000000000000000000000000000080000080000000808000800000008000800080800000C0C0C000C0DCC000F0CAA6000020400000206000002080000020A0000020C0000020E00000400000004020000040400000406000004080000040A0
310
000040C0000040E00000600000006020000060400000606000006080000060A0000060C0000060E00000800000008020000080400000806000008080000080A0000080C0000080E00000A0000000A0200000A0400000A0600000A0800000A0A00000A0C00000A0E00000C0000000C0200000C0400000C0600000C0800000C0
310
A00000C0C00000C0E00000E0000000E0200000E0400000E0600000E0800000E0A00000E0C00000E0E00040000000400020004000400040006000400080004000A0004000C0004000E00040200000402020004020400040206000402080004020A0004020C0004020E000404000004040200040404000404060004040800040
310
40A0004040C0004040E00040600000406020004060400040606000406080004060A0004060C0004060E00040800000408020004080400040806000408080004080A0004080C0004080E00040A0000040A0200040A0400040A0600040A0800040A0A00040A0C00040A0E00040C0000040C0200040C0400040C0600040C08000
310
40C0A00040C0C00040C0E00040E0000040E0200040E0400040E0600040E0800040E0A00040E0C00040E0E00080000000800020008000400080006000800080008000A0008000C0008000E00080200000802020008020400080206000802080008020A0008020C0008020E00080400000804020008040400080406000804080
310
008040A0008040C0008040E00080600000806020008060400080606000806080008060A0008060C0008060E00080800000808020008080400080806000808080008080A0008080C0008080E00080A0000080A0200080A0400080A0600080A0800080A0A00080A0C00080A0E00080C0000080C0200080C0400080C0600080C0
310
800080C0A00080C0C00080C0E00080E0000080E0200080E0400080E0600080E0800080E0A00080E0C00080E0E000C0000000C0002000C0004000C0006000C0008000C000A000C000C000C000E000C0200000C0202000C0204000C0206000C0208000C020A000C020C000C020E000C0400000C0402000C0404000C0406000C0
310
408000C040A000C040C000C040E000C0600000C0602000C0604000C0606000C0608000C060A000C060C000C060E000C0800000C0802000C0804000C0806000C0808000C080A000C080C000C080E000C0A00000C0A02000C0A04000C0A06000C0A08000C0A0A000C0A0C000C0A0E000C0C00000C0C02000C0C04000C0C06000
310
C0C08000C0C0A000F0FBFF00A4A0A000808080000000FF0000FF000000FFFF00FF000000FF00FF00FFFF0000FFFFFF00FFFFFFFFFFFFFFFFFFFFFFFFFFFFFFFFFFFFFFFFFFFFFFFFFFFFFFFFFFFFFFFFFFFFFFFFFFFFFFFFFFFFFFFFFFFFFFFFFFFFFFFFFFFFFFFFFFFFFFFFFFFFFFFFFFFFFFFFFFFFFFFFFFFFFFFFFFFFFF
310
FFFFFFFFFFFFFFFFFFFFFFFFFFFFFFFFFFFFFFFFFFFFFFFFFFFFFFFFFFFFFFFFFFFFFFFFFFFFFFFFFFFFFFFFFFFFFFFFFFFFFFFFFFFFFFFFFFFFFFFFFFFFFFFFFFFFFFFFFFFFFFFFFFFFFFFFFFFFFFFFFFFFFFFFFFFFFFFFFFFFFFFFFFFFFFFFFFFFFFFFFFFFFFFFFFFFFFFFFFFFFFFFFFFFFFFFFFFFFFFFFFFFFFFFFFFFFF
310
FFFFFFFFFFFFFFFFFFFFFFFFFFFFFFFFFFFFFFFFFFFFFFFFFFFFFFFFFFFFFFFFFFFFFFFFFFFFFFFFFFFFFFFFFFFFFFFFFFFFFFFFFFFFFFFFFFFFFFFFFFFFFFFFFFFFFFFFFFFFFFFFFFFFFFFFFFFFFFFFFFFFFFFFFFFFFFFFFFFFFFFFFFFFFFFFFFFFFFFFFFFFFFFFFFFFFFFFFFFFFFFFFFFFFFFFFFFFFFFFFFFFFFFFFFFFFF
310
FFFFFFFFFFFFFFFFFFFFFFFFFFFFFFFFFFFFFFFFFFFFFFFFFFFFFFFFFFFFFFFFFFFFFFFFFFFFFFFFFFFFFFFFFFFFFFFFFFFFFFFF0000000000000000000000000000000000000000000000000000000000FFFFFF0000000000000000000000000000000000FFFFFFFFFFFFFFFFFFFF0000FFFFFF0000000000000000000000
310
00000000000000FFFFFFFFFFFFFFFFFFFF0000FFFF000000000000000000000000000000000000FFFFFF00000000FFFFFF0000FFFF00FFFFFFFFFFFF00FFFFFF00FFFFFFFFFF00FFFFFF0000000000FFFF0000FFFF00FFFFFFFFFFFF00FFFFFF00FFFFFFFFFF00FFFFFF00FFFF0000FFFF0000FFFF00FFFFFFFFFFFF00FFFF
310
00FFFFFFFFFFFF00FFFFFF00FFFF0000FFFF0000FFFF0000000000FFFF00000000FFFFFF00000000FFFFFF00000000FFFFFF0000FFFFFFFFFFFF00FFFFFFFFFFFFFFFFFF00FFFFFFFFFFFFFFFFFFFFFFFFFF0000FFFFFFFFFFFF00FFFFFFFFFFFFFFFFFF00FFFFFFFFFFFFFFFFFFFFFFFFFF0000FFFFFFFFFFFF00FFFFFFFF
310
FFFFFFFFFF00FFFFFFFFFFFFFFFFFFFFFFFF0000FFFFFF0000000000FFFF00000000FFFFFF0000000000000000000000000000FFFFFFFF00FFFFFFFFFFFF00FFFF00FFFFFFFFFFFF00FFFFFFFFFFFFFFFFFFFFFFFFFFFF00FFFFFFFFFFFF00FFFFFF00FFFFFFFFFF00FFFFFFFFFFFFFFFFFFFFFFFFFFFF0000000000000000
310
FFFFFF00000000000000FFFFFFFFFFFFFFFFFFFFFFFFFFFFFFFFFFFFFFFFFFFFFFFFFFFFFFFFFFFFFFFFFFFFFFFFFFFFFFFFFFFFFFFFFFFFFFFFFFFFFFFFFFFFFFFFFFFFFFFFFFFFFFFFFFFFFFFFFFFFFFFFFFFFFFFFFFFFFFFFFFFFFFFFFFFFFFFFFFFFFFFFFFFFFFFFFFFFFFFFFFFFFFFFFFFFFFFFFFFFFFFFFFFFFFFFFF
310
FFFFFFFFFFFFFFFFFFFFFFFFFFFFFFFFFFFFFFFFFFFFFFFFFFFFFFFFFFFFFFFFFFFFFFFFFFFFFFFFFFFFFFFFFFFFFFFFFFFFFFFFFFFFFFFF
102
{BLKREFS
331
2427
102
}
  0
BLOCK_RECORD
  5
2426
330
2119
100
AcDbSymbolTableRecord
100
AcDbBlockTableRecord
  2
HD logo-new
340
0
310
2800000020000000200000000100080000000000000400000000000000000000000000000000000000000000000080000080000000808000800000008000800080800000C0C0C000C0DCC000F0CAA6000020400000206000002080000020A0000020C0000020E00000400000004020000040400000406000004080000040A0
310
000040C0000040E00000600000006020000060400000606000006080000060A0000060C0000060E00000800000008020000080400000806000008080000080A0000080C0000080E00000A0000000A0200000A0400000A0600000A0800000A0A00000A0C00000A0E00000C0000000C0200000C0400000C0600000C0800000C0
310
A00000C0C00000C0E00000E0000000E0200000E0400000E0600000E0800000E0A00000E0C00000E0E00040000000400020004000400040006000400080004000A0004000C0004000E00040200000402020004020400040206000402080004020A0004020C0004020E000404000004040200040404000404060004040800040
310
40A0004040C0004040E00040600000406020004060400040606000406080004060A0004060C0004060E00040800000408020004080400040806000408080004080A0004080C0004080E00040A0000040A0200040A0400040A0600040A0800040A0A00040A0C00040A0E00040C0000040C0200040C0400040C0600040C08000
310
40C0A00040C0C00040C0E00040E0000040E0200040E0400040E0600040E0800040E0A00040E0C00040E0E00080000000800020008000400080006000800080008000A0008000C0008000E00080200000802020008020400080206000802080008020A0008020C0008020E00080400000804020008040400080406000804080
310
008040A0008040C0008040E00080600000806020008060400080606000806080008060A0008060C0008060E00080800000808020008080400080806000808080008080A0008080C0008080E00080A0000080A0200080A0400080A0600080A0800080A0A00080A0C00080A0E00080C0000080C0200080C0400080C0600080C0
310
800080C0A00080C0C00080C0E00080E0000080E0200080E0400080E0600080E0800080E0A00080E0C00080E0E000C0000000C0002000C0004000C0006000C0008000C000A000C000C000C000E000C0200000C0202000C0204000C0206000C0208000C020A000C020C000C020E000C0400000C0402000C0404000C0406000C0
310
408000C040A000C040C000C040E000C0600000C0602000C0604000C0606000C0608000C060A000C060C000C060E000C0800000C0802000C0804000C0806000C0808000C080A000C080C000C080E000C0A00000C0A02000C0A04000C0A06000C0A08000C0A0A000C0A0C000C0A0E000C0C00000C0C02000C0C04000C0C06000
310
C0C08000C0C0A000F0FBFF00A4A0A000808080000000FF0000FF000000FFFF00FF000000FF00FF00FFFF0000FFFFFF00FFFFFFFFFFFFFFFFFFFFFFFFFFFFFFFFFFFFFFFFFFFFFFFFFFFFFFFFFFFFFFFFFFFFFFFFFFFFFFFFFFFFFFFFFFFFFFFFFFFFFFFFFFFFFFFFFFFFFFFFFFFFFFFFFFFFFFFFFFFFFFFFFFFFFFFFFFFFFF
310
FFFFFFFFFFFFFFFFFFFFFFFFFFFFFFFFFFFFFFFFFFFFFFFFFFFFFFFFFFFFFFFFFFFFFFFFFFFFFFFFFFFFFFFFFFFFFFFFFFFFFFFFFFFFFFFFFFFFFFFFFFFFFFFFFFFFFFFFFFFFFFFFFFFFFFFFFFFFFFFFFFFFFFFFFFFFFFFFFFFFFFFFFFFFFFFFFFFFFFFFFFFFFFFFFFFFFFFFFFFFFFFFFFFFFFFFFFFFFFFFFFFFFFFFFFFFFF
310
FFFFFFFFFFFFFFFFFFFFFFFFFFFFFFFFFFFFFFFFFFFFFFFFFFFFFFFFFFFFFFFFFFFFFFFFFFFFFFFFFFFFFFFFFFFFFFFFFFFFFFFFFFFFFFFFFFFFFFFFFFFFFFFFFFFFFFFFFFFFFFFFFFFFFFFFFFFFFFFFFFFFFFFFFFFFFFFFFFFFFFFFFFFFFFFFFFFFFFFFFFFFFFFFFFFFFFFFFFFFFFFFFFFFFFFFFFFFFFFFFFFFFFFFFFFFFF
310
FFFFFFFFFFFFFFFFFFFFFFFFFFFFFFFFFFFFFFFFFFFFFFFFFFFFFFFFFFFFFFFFFFFFFFFFFFFFFFFFFFFFFFFFFFFFFFFFFFFFFFFF0000000000000000000000000000000000000000000000000000000000FFFFFF0000000000000000000000000000000000FFFFFFFFFFFFFFFFFFFF0000FFFFFF0000000000000000000000
310
00000000000000FFFFFFFFFFFFFFFFFFFF0000FFFF000000000000000000000000000000000000FFFFFF00000000FFFFFF0000FFFF00FFFFFFFFFFFF00FFFFFF00FFFFFFFFFF00FFFFFF0000000000FFFF0000FFFF00FFFFFFFFFFFF00FFFFFF00FFFFFFFFFF00FFFFFF00FFFF0000FFFF0000FFFF00FFFFFFFFFFFF00FFFF
310
00FFFFFFFFFFFF00FFFFFF00FFFF0000FFFF0000FFFF0000000000FFFF00000000FFFFFF00000000FFFFFF00000000FFFFFF0000FFFFFFFFFFFF00FFFFFFFFFFFFFFFFFF00FFFFFFFFFFFFFFFFFFFFFFFFFF0000FFFFFFFFFFFF00FFFFFFFFFFFFFFFFFF00FFFFFFFFFFFFFFFFFFFFFFFFFF0000FFFFFFFFFFFF00FFFFFFFF
310
FFFFFFFFFF00FFFFFFFFFFFFFFFFFFFFFFFF0000FFFFFF0000000000FFFF00000000FFFFFF0000000000000000000000000000FFFFFFFF00FFFFFFFFFFFF00FFFF00FFFFFFFFFFFF00FFFFFFFFFFFFFFFFFFFFFFFFFFFF00FFFFFFFFFFFF00FFFFFF00FFFFFFFFFF00FFFFFFFFFFFFFFFFFFFFFFFFFFFF0000000000000000
310
FFFFFF00000000000000FFFFFFFFFFFFFFFFFFFFFFFFFFFFFFFFFFFFFFFFFFFFFFFFFFFFFFFFFFFFFFFFFFFFFFFFFFFFFFFFFFFFFFFFFFFFFFFFFFFFFFFFFFFFFFFFFFFFFFFFFFFFFFFFFFFFFFFFFFFFFFFFFFFFFFFFFFFFFFFFFFFFFFFFFFFFFFFFFFFFFFFFFFFFFFFFFFFFFFFFFFFFFFFFFFFFFFFFFFFFFFFFFFFFFFFFFF
310
FFFFFFFFFFFFFFFFFFFFFFFFFFFFFFFFFFFFFFFFFFFFFFFFFFFFFFFFFFFFFFFFFFFFFFFFFFFFFFFFFFFFFFFFFFFFFFFFFFFFFFFFFFFFFFFF
102
{BLKREFS
331
242B
102
}
  0
BLOCK_RECORD
  5
242A
330
2119
100
AcDbSymbolTableRecord
100
AcDbBlockTableRecord
  2
HD Logo
340
0
310
2800000020000000200000000100080000000000000400000000000000000000000000000000000000000000000080000080000000808000800000008000800080800000C0C0C000C0DCC000F0CAA6000020400000206000002080000020A0000020C0000020E00000400000004020000040400000406000004080000040A0
310
000040C0000040E00000600000006020000060400000606000006080000060A0000060C0000060E00000800000008020000080400000806000008080000080A0000080C0000080E00000A0000000A0200000A0400000A0600000A0800000A0A00000A0C00000A0E00000C0000000C0200000C0400000C0600000C0800000C0
310
A00000C0C00000C0E00000E0000000E0200000E0400000E0600000E0800000E0A00000E0C00000E0E00040000000400020004000400040006000400080004000A0004000C0004000E00040200000402020004020400040206000402080004020A0004020C0004020E000404000004040200040404000404060004040800040
310
40A0004040C0004040E00040600000406020004060400040606000406080004060A0004060C0004060E00040800000408020004080400040806000408080004080A0004080C0004080E00040A0000040A0200040A0400040A0600040A0800040A0A00040A0C00040A0E00040C0000040C0200040C0400040C0600040C08000
310
40C0A00040C0C00040C0E00040E0000040E0200040E0400040E0600040E0800040E0A00040E0C00040E0E00080000000800020008000400080006000800080008000A0008000C0008000E00080200000802020008020400080206000802080008020A0008020C0008020E00080400000804020008040400080406000804080
310
008040A0008040C0008040E00080600000806020008060400080606000806080008060A0008060C0008060E00080800000808020008080400080806000808080008080A0008080C0008080E00080A0000080A0200080A0400080A0600080A0800080A0A00080A0C00080A0E00080C0000080C0200080C0400080C0600080C0
310
800080C0A00080C0C00080C0E00080E0000080E0200080E0400080E0600080E0800080E0A00080E0C00080E0E000C0000000C0002000C0004000C0006000C0008000C000A000C000C000C000E000C0200000C0202000C0204000C0206000C0208000C020A000C020C000C020E000C0400000C0402000C0404000C0406000C0
310
408000C040A000C040C000C040E000C0600000C0602000C0604000C0606000C0608000C060A000C060C000C060E000C0800000C0802000C0804000C0806000C0808000C080A000C080C000C080E000C0A00000C0A02000C0A04000C0A06000C0A08000C0A0A000C0A0C000C0A0E000C0C00000C0C02000C0C04000C0C06000
310
C0C08000C0C0A000F0FBFF00A4A0A000808080000000FF0000FF000000FFFF00FF000000FF00FF00FFFF0000FFFFFF00FFFFFFFFFFFFFFFFFFFFFFFFFFFFFFFFFFFFFFFFFFFFFFFFFFFFFFFFFFFFFFFFFFFFFFFFFFFFFFFFFFFFFFFFFFFFFFFFFFFFFFFFFFFFFFFFFFFFFFFFFFFFFFFFFFFFFFFFFFFFFFFFFFFFFFFFFFFFFF
310
FFFFFFFFFFFFFFFFFFFFFFFFFFFFFFFFFFFFFFFFFFFFFFFFFFFFFFFFFFFFFFFFFFFFFFFFFFFFFFFFFFFFFFFFFFFFFFFFFFFFFFFFFFFFFFFFFFFFFFFFFFFFFFFFFFFFFFFFFFFFFFFFFFFFFFFFFFFFFFFFFFFFFFFFFFFFFFFFFFFFFFFFFFFFFFFFFFFFFFFFFFFFFFFFFFFFFFFFFFFFFFFFFFFFFFFFFFFFFFFFFFFFFFFFFFFFFF
310
FFFFFFFFFFFFFFFFFFFFFFFFFFFFFFFFFFFFFFFFFFFFFFFFFFFFFFFFFFFFFFFFFFFFFFFFFFFFFFFFFFFFFFFFFFFFFFFFFFFFFFFFFFFFFFFFFFFFFFFFFFFFFFFFFFFFFFFFFFFFFFFFFFFFFFFFFFFFFFFFFFFFFFFFFFFFFFFFFFFFFFFFFFFFFFFFFFFFFFFFFFFFFFFFFFFFFFFFFFFFFFFFFFFFFFFFFFFFFFFFFFFFFFFFFFFFFF
310
FFFFFFFFFFFFFFFFFFFFFFFFFFFFFFFFFFFFFFFFFFFFFFFFFFFFFFFFFFFFFFFFFFFFFFFFFFFFFFFFFFFFFFFFFFFFFFFFFFFFFFFF0000000000000000000000000000000000000000000000000000000000FFFFFF0000000000000000000000000000000000FFFFFFFFFFFFFFFFFFFF0000FFFFFF0000000000000000000000
310
00000000000000FFFFFFFFFFFFFFFFFFFF0000FFFF000000000000000000000000000000000000FFFFFF00000000FFFFFF0000FFFF00FFFFFFFFFFFF00FFFFFF00FFFFFFFFFF00FFFFFF0000000000FFFF0000FFFF00FFFFFFFFFFFF00FFFFFF00FFFFFFFFFF00FFFFFF00FFFF0000FFFF0000FFFF00FFFFFFFFFFFF00FFFF
310
00FFFFFFFFFFFF00FFFFFF00FFFF0000FFFF0000FFFF0000000000FFFF00000000FFFFFF00000000FFFFFF00000000FFFFFF0000FFFFFFFFFFFF00FFFFFFFFFFFFFFFFFF00FFFFFFFFFFFFFFFFFFFFFFFFFF0000FFFFFFFFFFFF00FFFFFFFFFFFFFFFFFF00FFFFFFFFFFFFFFFFFFFFFFFFFF0000FFFFFFFFFFFF00FFFFFFFF
310
FFFFFFFFFF00FFFFFFFFFFFFFFFFFFFFFFFF0000FFFFFF0000000000FFFF00000000FFFFFF0000000000000000000000000000FFFFFFFF00FFFFFFFFFFFF00FFFF00FFFFFFFFFFFF00FFFFFFFFFFFFFFFFFFFFFFFFFFFF00FFFFFFFFFFFF00FFFFFF00FFFFFFFFFF00FFFFFFFFFFFFFFFFFFFFFFFFFFFF0000000000000000
310
FFFFFF00000000000000FFFFFFFFFFFFFFFFFFFFFFFFFFFFFFFFFFFFFFFFFFFFFFFFFFFFFFFFFFFFFFFFFFFFFFFFFFFFFFFFFFFFFFFFFFFFFFFFFFFFFFFFFFFFFFFFFFFFFFFFFFFFFFFFFFFFFFFFFFFFFFFFFFFFFFFFFFFFFFFFFFFFFFFFFFFFFFFFFFFFFFFFFFFFFFFFFFFFFFFFFFFFFFFFFFFFFFFFFFFFFFFFFFFFFFFFFF
310
FFFFFFFFFFFFFFFFFFFFFFFFFFFFFFFFFFFFFFFFFFFFFFFFFFFFFFFFFFFFFFFFFFFFFFFFFFFFFFFFFFFFFFFFFFFFFFFFFFFFFFFFFFFFFFFF
102
{BLKREFS
331
2431
331
2435
102
}
  0
BLOCK_RECORD
  5
2442
330
2119
100
AcDbSymbolTableRecord
100
AcDbBlockTableRecord
  2
Harmonic Drive LLC
340
0
310
2800000020000000200000000100080000000000000400000000000000000000000000000000000000000000000080000080000000808000800000008000800080800000C0C0C000C0DCC000F0CAA6000020400000206000002080000020A0000020C0000020E00000400000004020000040400000406000004080000040A0
310
000040C0000040E00000600000006020000060400000606000006080000060A0000060C0000060E00000800000008020000080400000806000008080000080A0000080C0000080E00000A0000000A0200000A0400000A0600000A0800000A0A00000A0C00000A0E00000C0000000C0200000C0400000C0600000C0800000C0
310
A00000C0C00000C0E00000E0000000E0200000E0400000E0600000E0800000E0A00000E0C00000E0E00040000000400020004000400040006000400080004000A0004000C0004000E00040200000402020004020400040206000402080004020A0004020C0004020E000404000004040200040404000404060004040800040
310
40A0004040C0004040E00040600000406020004060400040606000406080004060A0004060C0004060E00040800000408020004080400040806000408080004080A0004080C0004080E00040A0000040A0200040A0400040A0600040A0800040A0A00040A0C00040A0E00040C0000040C0200040C0400040C0600040C08000
310
40C0A00040C0C00040C0E00040E0000040E0200040E0400040E0600040E0800040E0A00040E0C00040E0E00080000000800020008000400080006000800080008000A0008000C0008000E00080200000802020008020400080206000802080008020A0008020C0008020E00080400000804020008040400080406000804080
310
008040A0008040C0008040E00080600000806020008060400080606000806080008060A0008060C0008060E00080800000808020008080400080806000808080008080A0008080C0008080E00080A0000080A0200080A0400080A0600080A0800080A0A00080A0C00080A0E00080C0000080C0200080C0400080C0600080C0
310
800080C0A00080C0C00080C0E00080E0000080E0200080E0400080E0600080E0800080E0A00080E0C00080E0E000C0000000C0002000C0004000C0006000C0008000C000A000C000C000C000E000C0200000C0202000C0204000C0206000C0208000C020A000C020C000C020E000C0400000C0402000C0404000C0406000C0
310
408000C040A000C040C000C040E000C0600000C0602000C0604000C0606000C0608000C060A000C060C000C060E000C0800000C0802000C0804000C0806000C0808000C080A000C080C000C080E000C0A00000C0A02000C0A04000C0A06000C0A08000C0A0A000C0A0C000C0A0E000C0C00000C0C02000C0C04000C0C06000
310
C0C08000C0C0A000F0FBFF00A4A0A000808080000000FF0000FF000000FFFF00FF000000FF00FF00FFFF0000FFFFFF00FFFFFFFFFFFFFFFFFFFFFFFFFFFFFFFFFFFFFFFFFFFFFFFFFFFFFFFFFFFFFFFFFFFFFFFFFFFFFFFFFFFFFFFFFFFFFFFFFFFFFFFFFFFFFFFFFFFFFFFFFFFFFFFFFFFFFFFFFFFFFFFFFFFFFFFFFFFFFF
310
FFFFFFFFFFFFFFFFFFFFFFFFFFFFFFFFFFFFFFFFFFFFFFFFFFFFFFFFFFFFFFFFFFFFFFFFFFFFFFFFFFFFFFFFFFFFFFFFFFFFFFFFFFFFFFFFFFFFFFFFFFFFFFFFFFFFFFFFFFFFFFFFFFFFFFFFFFFFFFFFFFFFFFFFFFFFFFFFFFFFFFFFFFFFFFFFFFFFFFFFFFFFFFFFFFFFFFFFFFFFFFFFFFFFFFFFFFFFFFFFFFFFFFFFFFFFFF
310
FFFFFFFFFFFFFFFFFFFFFFFFFFFFFFFFFFFFFFFFFFFFFFFFFFFFFFFFFFFFFFFFFFFFFFFFFFFFFFFFFFFFFFFFFFFFFFFFFFFFFFFFFFFFFFFFFFFFFFFFFFFFFFFFFFFFFFFFFFFFFFFFFFFFFFFFFFFFFFFFFFFFFFFFFFFFFFFFFFFFFFFFFFFFFFFFFFFFFFFFFFFFFFFFFFFFFFFFFFFFFFFFFFFFFFFFFFFFFFFFFFFFFFFFFFFFFF
310
FFFFFFFFFFFFFFFFFFFFFFFFFFFFFFFFFFFFFFFFFFFFFFFFFFFFFFFFFFFFFFFFFFFFFFFFFFFFFFFFFFFFFFFFFFFFFFFFFFFFFFFFFFFFFFFFFFFFFFFFFFFFFFFFFFFFFFFFFFFFFFFFFFFFFFFFFFFFFFFFFFFFFFFFFFFFFFFFFFFFFFFF0000000000000000000000000000FFFFFFFFFFFFFFFFFFFFFFFFFFFFFFFFFFFF000000
310
0000000000000000000000FFFFFFFFFFFFFFFFFFFFFFFFFFFFFFFFFFFFFFFFFF000000000000000000FFFFFFFFFFFFFFFFFFFFFFFFFFFFFFFFFFFFFFFFFFFFFF000000000000000000FFFFFFFFFFFFFFFFFFFFFFFFFFFFFFFFFFFFFFFFFF000000000000000000000000FFFFFFFFFFFFFFFFFFFFFFFFFFFFFFFFFFFFFFFF00
310
FFFFFF00FF0000FF000000FFFFFFFFFFFFFFFFFFFFFFFFFFFFFFFFFFFFFFFFFFFFFFFFFFFFFFFFFFFFFFFFFFFFFFFFFFFFFFFFFFFFFFFFFFFFFFFFFFFFFFFFFFFFFFFFFFFFFFFFFFFFFFFFFFFFFFFFFFFFFFFFFFFFFFFFFFFFFFFFFFFFFFFFFFFFFFFFFFFFFFFFFFFFFFFFFFFFFFFFFFFFFFFFFFFFFFFFFFFFFFFFFFFFFFFF
310
FFFFFFFFFFFFFFFFFFFFFFFFFFFFFFFFFFFFFFFFFFFFFFFFFFFFFFFFFFFFFFFFFFFFFFFFFFFFFFFFFFFFFFFFFFFFFFFFFFFFFFFFFFFFFFFFFFFFFFFFFFFFFFFFFFFFFFFFFFFFFFFFFFFFFFFFFFFFFFFFFFFFFFFFFFFFFFFFFFFFFFFFFFFFFFFFFFFFFFFFFFFFFFFFFFFFFFFFFFFFFFFFFFFFFFFFFFFFFFFFFFFFFFFFFFFFFF
310
FFFFFFFFFFFFFFFFFFFFFFFFFFFFFFFFFFFFFFFFFFFFFFFFFFFFFFFFFFFFFFFFFFFFFFFFFFFFFFFFFFFFFFFFFFFFFFFFFFFFFFFFFFFFFFFFFFFFFFFFFFFFFFFFFFFFFFFFFFFFFFFFFFFFFFFFFFFFFFFFFFFFFFFFFFFFFFFFFFFFFFFFFFFFFFFFFFFFFFFFFFFFFFFFFFFFFFFFFFFFFFFFFFFFFFFFFFFFFFFFFFFFFFFFFFFFFF
310
FFFFFFFFFFFFFFFFFFFFFFFFFFFFFFFFFFFFFFFFFFFFFFFFFFFFFFFFFFFFFFFFFFFFFFFFFFFFFFFFFFFFFFFFFFFFFFFFFFFFFFFFFFFFFFFF
102
{BLKREFS
331
2447
331
244C
102
}
  0
BLOCK_RECORD
  5
2455
330
2119
100
AcDbSymbolTableRecord
100
AcDbBlockTableRecord
  2
NTC
340
0
310
2800000020000000200000000100080000000000000400000000000000000000000000000000000000000000000080000080000000808000800000008000800080800000C0C0C000C0DCC000F0CAA6000020400000206000002080000020A0000020C0000020E00000400000004020000040400000406000004080000040A0
310
000040C0000040E00000600000006020000060400000606000006080000060A0000060C0000060E00000800000008020000080400000806000008080000080A0000080C0000080E00000A0000000A0200000A0400000A0600000A0800000A0A00000A0C00000A0E00000C0000000C0200000C0400000C0600000C0800000C0
310
A00000C0C00000C0E00000E0000000E0200000E0400000E0600000E0800000E0A00000E0C00000E0E00040000000400020004000400040006000400080004000A0004000C0004000E00040200000402020004020400040206000402080004020A0004020C0004020E000404000004040200040404000404060004040800040
310
40A0004040C0004040E00040600000406020004060400040606000406080004060A0004060C0004060E00040800000408020004080400040806000408080004080A0004080C0004080E00040A0000040A0200040A0400040A0600040A0800040A0A00040A0C00040A0E00040C0000040C0200040C0400040C0600040C08000
310
40C0A00040C0C00040C0E00040E0000040E0200040E0400040E0600040E0800040E0A00040E0C00040E0E00080000000800020008000400080006000800080008000A0008000C0008000E00080200000802020008020400080206000802080008020A0008020C0008020E00080400000804020008040400080406000804080
310
008040A0008040C0008040E00080600000806020008060400080606000806080008060A0008060C0008060E00080800000808020008080400080806000808080008080A0008080C0008080E00080A0000080A0200080A0400080A0600080A0800080A0A00080A0C00080A0E00080C0000080C0200080C0400080C0600080C0
310
800080C0A00080C0C00080C0E00080E0000080E0200080E0400080E0600080E0800080E0A00080E0C00080E0E000C0000000C0002000C0004000C0006000C0008000C000A000C000C000C000E000C0200000C0202000C0204000C0206000C0208000C020A000C020C000C020E000C0400000C0402000C0404000C0406000C0
310
408000C040A000C040C000C040E000C0600000C0602000C0604000C0606000C0608000C060A000C060C000C060E000C0800000C0802000C0804000C0806000C0808000C080A000C080C000C080E000C0A00000C0A02000C0A04000C0A06000C0A08000C0A0A000C0A0C000C0A0E000C0C00000C0C02000C0C04000C0C06000
310
C0C08000C0C0A000F0FBFF00A4A0A000808080000000FF0000FF000000FFFF00FF000000FF00FF00FFFF0000FFFFFF00FFFFFFFFFFFFFFFFFFFFFFFFFFFFFFFFFFFFFFFFFFFFFFFFFFFFFFFFFFFFFFFFFFFFFFFFFFFFFFFFFFFFFFFFFFFFFFFFFFFFFFFFFFFFFFFFFFFFFFFFFFFFFFFFFFFFFFFFFFFFFFFFFFFFFFFFFFFFFF
310
FFFFFFFFFFFFFFFFFFFFFFFFFFFFFFFFFFFFFFFFFFFFFFFFFFFFFFFFFFFFFFFFFFFFFFFFFFFFFFFFFFFFFFFFFFFFFFFFFFFFFFFFFFFFFFFFFFFFFFFFFFFFFFFFFFFFFFFFFFFFFFFFFFFFFFFFFFFFFFFFFFFFFFFFFFFFFFFFFFFFFFFFFFFFFFFFFFFFFFFFFFFFFFFFFFFFFFFFFFFFFFFFFFFFFFFFFFFFFFFFFFFFFFFFFFFFFF
310
FFFFFFFFFFFFFFFFFFFFFFFFFFFFFFFFFFFFFFFFFFFFFFFFFFFFFFFFFFFFFFFFFFFFFFFFFFFFFFFFFFFFFFFFFFFFFFFFFFFFFFFFFFFFFFFFFFFFFFFFFFFFFFFFFFFFFFFFFFFFFFFFFFFFFFFFFFFFFFFFFFFFFFFFFFFFFFFFFFFFFFFFFFFFFFFFFFFFFFFFFFFFFFFFFFFFFFFFFFFFFFFFFFFFFFFFFFFFFFFFFFFFFFFFFFFFFF
310
FFFFFFFFFFFFFFFFFFFFFFFFFFFFFFFFFFFFFFFF000000000000000000000000000000000000000000000000000000000000FFFF00FF0000000000000000FFFFFFFFFFFFFFFFFFFFFFFFFFFFFFFFFFFFFF00FFFF00FF0000000000000000FFFFFFFFFFFFFFFFFFFFFFFFFFFFFFFFFFFFFF00FFFF00FF000000000000000000
310
00000000000000000000000000FFFFFFFFFF00FFFF00FF0000000000000000000000000000000000000000000000000000FF00FFFF00FF0000000000000000000000000000000000000000000000000000FF00FFFF00FF0000000000000000000000000000000000000000000000000000FF00FFFF00FF0000000000000000
310
00000000000000000000000000000000FFFFFF00FFFF00FF0000000000FFFFFFFFFFFFFFFFFFFFFFFFFFFFFFFFFFFFFFFFFFFF00FFFF000000000000000000000000000000000000000000000000000000000000FFFFFFFFFFFFFFFFFFFFFFFFFFFFFFFFFFFFFFFFFFFFFFFFFFFFFFFFFFFFFFFFFFFFFFFFFFFFFFFFFFFFFF
310
FFFFFFFFFFFFFFFFFFFFFFFFFFFFFFFFFFFFFFFFFFFFFFFFFFFFFFFFFFFFFFFFFFFFFFFFFFFFFFFFFFFFFFFFFFFFFFFFFFFFFFFFFFFFFFFFFFFFFFFFFFFFFFFFFFFFFFFFFFFFFFFFFFFFFFFFFFFFFFFFFFFFFFFFFFFFFFFFFFFFFFFFFFFFFFFFFFFFFFFFFFFFFFFFFFFFFFFFFFFFFFFFFFFFFFFFFFFFFFFFFFFFFFFFFFFFFF
310
FFFFFFFFFFFFFFFFFFFFFFFFFFFFFFFFFFFFFFFFFFFFFFFFFFFFFFFFFFFFFFFFFFFFFFFFFFFFFFFFFFFFFFFFFFFFFFFFFFFFFFFFFFFFFFFFFFFFFFFFFFFFFFFFFFFFFFFFFFFFFFFFFFFFFFFFFFFFFFFFFFFFFFFFFFFFFFFFFFFFFFFFFFFFFFFFFFFFFFFFFFFFFFFFFFFFFFFFFFFFFFFFFFFFFFFFFFFFFFFFFFFFFFFFFFFFFF
310
FFFFFFFFFFFFFFFFFFFFFFFFFFFFFFFFFFFFFFFFFFFFFFFFFFFFFFFFFFFFFFFFFFFFFFFFFFFFFFFFFFFFFFFFFFFFFFFFFFFFFFFFFFFFFFFF
102
{BLKREFS
331
245B
331
2461
102
}
  0
ENDTAB
  0
ENDSEC
  0
SECTION
  2
BLOCKS
  0
BLOCK
  5
2137
330
2136
100
AcDbEntity
  8
0
100
AcDbBlockBegin
  2
*Model_Space
 70
     0
 10
0.0
 20
0.0
 30
0.0
  3
*Model_Space
  1

  0
ENDBLK
  5
2138
330
2136
100
AcDbEntity
  8
0
100
AcDbBlockEnd
  0
BLOCK
  5
2133
330
2132
100
AcDbEntity
 67
     1
  8
0
100
AcDbBlockBegin
  2
*Paper_Space
 70
     0
 10
0.0
 20
0.0
 30
0.0
  3
*Paper_Space
  1

  0
ENDBLK
  5
2134
330
2132
100
AcDbEntity
 67
     1
  8
0
100
AcDbBlockEnd
  0
BLOCK
  5
2151
330
2150
100
AcDbEntity
  8
0
100
AcDbBlockBegin
  2
$MODEL_SPACE
 70
     0
 10
0.0
 20
0.0
 30
0.0
  3
$MODEL_SPACE
  1

  0
ENDBLK
  5
2152
330
2150
100
AcDbEntity
  8
0
100
AcDbBlockEnd
  0
BLOCK
  5
2154
330
2153
100
AcDbEntity
  8
0
100
AcDbBlockBegin
  2
$PAPER_SPACE
 70
     0
 10
0.0
 20
0.0
 30
0.0
  3
$PAPER_SPACE
  1

  0
ENDBLK
  5
2155
330
2153
100
AcDbEntity
  8
0
100
AcDbBlockEnd
  0
BLOCK
  5
23C5
330
23C2
100
AcDbEntity
  8
0
 62
     7
100
AcDbBlockBegin
  2
AI9-BLK14
 70
     0
 10
0.0
 20
0.0
 30
0.0
  3
AI9-BLK14
  1

  0
SPLINE
  5
23C3
330
23C2
100
AcDbEntity
  8
LAYER_1
 62
     7
100
AcDbSpline
210
0.0
220
0.0
230
1.0
 70
    11
 71
     3
 72
    23
 73
    19
 74
     0
 42
0.0000000001
 43
0.0000000001
 40
0.0
 40
0.0
 40
0.0
 40
0.0
 40
1.0
 40
1.0
 40
1.0
 40
2.0
 40
2.0
 40
2.0
 40
3.0
 40
3.0
 40
3.0
 40
4.0
 40
4.0
 40
4.0
 40
5.0
 40
5.0
 40
5.0
 40
6.0
 40
6.0
 40
6.0
 40
6.0
 10
-10.90321044921874
 20
10.88107571072048
 30
0.0
 10
-10.90321044921874
 20
10.88107571072048
 30
0.0
 10
-10.90321044921874
 20
-10.88107571072048
 30
0.0
 10
-10.90321044921874
 20
-10.88107571072048
 30
0.0
 10
-10.90321044921874
 20
-10.88107571072048
 30
0.0
 10
1.752692328559025
 20
-10.88107571072048
 30
0.0
 10
1.752692328559025
 20
-10.88107571072048
 30
0.0
 10
3.280592176649305
 20
-10.88107571072048
 30
0.0
 10
10.90321044921874
 20
-10.32383151584201
 30
0.0
 10
10.90321044921874
 20
0.6792867024739583
 30
0.0
 10
10.90321044921874
 20
10.61700914171006
 30
0.0
 10
2.773129611545138
 20
10.87952541775172
 30
0.0
 10
2.691136338975693
 20
10.88090345594618
 30
0.0
 10
2.691136338975693
 20
10.88090345594618
 30
0.0
 10
-9.903099229600693
 20
10.88107571072048
 30
0.0
 10
-9.903099229600693
 20
10.88107571072048
 30
0.0
 10
-9.903099229600693
 20
10.88107571072048
 30
0.0
 10
-10.90321044921874
 20
10.88107571072048
 30
0.0
 10
-10.90321044921874
 20
10.88107571072048
 30
0.0
  0
SPLINE
  5
23C4
330
23C2
100
AcDbEntity
  8
LAYER_1
 62
     7
100
AcDbSpline
210
0.0
220
0.0
230
1.0
 70
    11
 71
     3
 72
    20
 73
    16
 74
     0
 42
0.0000000001
 43
0.0000000001
 40
0.0
 40
0.0
 40
0.0
 40
0.0
 40
1.0
 40
1.0
 40
1.0
 40
2.0
 40
2.0
 40
2.0
 40
3.0
 40
3.0
 40
3.0
 40
4.0
 40
4.0
 40
4.0
 40
5.0
 40
5.0
 40
5.0
 40
5.0
 10
2.672877332899305
 20
8.881197781032986
 30
0.0
 10
2.905421278211805
 20
8.874307590060762
 30
0.0
 10
8.902988009982637
 20
8.616442192925347
 30
0.0
 10
8.902988009982637
 20
0.6792867024739583
 30
0.0
 10
8.902988009982637
 20
-8.191661919487842
 30
0.0
 10
3.430109320746526
 20
-8.881197781032986
 30
0.0
 10
1.752692328559025
 20
-8.881197781032986
 30
0.0
 10
1.752692328559025
 20
-8.881197781032986
 30
0.0
 10
-7.231427680121528
 20
-8.881197781032986
 30
0.0
 10
-8.902988009982637
 20
-8.881197781032986
 30
0.0
 10
-8.902988009982637
 20
-7.174497477213541
 30
0.0
 10
-8.902988009982637
 20
7.174497477213541
 30
0.0
 10
-8.902988009982637
 20
8.881197781032986
 30
0.0
 10
-7.208690049913191
 20
8.881197781032986
 30
0.0
 10
2.672877332899305
 20
8.881197781032986
 30
0.0
 10
2.672877332899305
 20
8.881197781032986
 30
0.0
  0
ENDBLK
  5
23C6
330
23C2
100
AcDbEntity
  8
0
100
AcDbBlockEnd
  0
BLOCK
  5
23CA
330
23C7
100
AcDbEntity
  8
0
 62
     7
100
AcDbBlockBegin
  2
AI9-BLK13
 70
     0
 10
0.0
 20
0.0
 30
0.0
  3
AI9-BLK13
  1

  0
LWPOLYLINE
  5
23C8
330
23C7
100
AcDbEntity
  8
LAYER_1
 62
     7
100
AcDbPolyline
 90
       12
 70
     1
 43
0.0
 10
-3.792361111111107
 20
10.7376736111111
 10
-2.469444444444443
 20
10.7376736111111
 10
-2.469444444444443
 20
1.874131944444444
 10
2.469444444444443
 20
1.874131944444444
 10
2.469444444444443
 20
10.7376736111111
 10
3.792361111111107
 20
10.7376736111111
 10
3.792361111111107
 20
-10.7376736111111
 10
2.469444444444443
 20
-10.7376736111111
 10
2.469444444444443
 20
-0.6835069444444444
 10
-2.469444444444443
 20
-0.6835069444444444
 10
-2.469444444444443
 20
-10.7376736111111
 10
-3.792361111111107
 20
-10.7376736111111
  0
HATCH
  5
23C9
330
23C7
100
AcDbEntity
  8
LAYER_1
 62
     7
100
AcDbHatch
 10
0.0
 20
0.0
 30
0.0
210
0.0
220
0.0
230
1.0
  2
SOLID
 70
     1
 71
     0
 91
        1
 92
        3
 72
     0
 73
     1
 93
       12
 10
-3.792361111111107
 20
10.7376736111111
 10
-2.469444444444443
 20
10.7376736111111
 10
-2.469444444444443
 20
1.874131944444444
 10
2.469444444444443
 20
1.874131944444444
 10
2.469444444444443
 20
10.7376736111111
 10
3.792361111111107
 20
10.7376736111111
 10
3.792361111111107
 20
-10.7376736111111
 10
2.469444444444443
 20
-10.7376736111111
 10
2.469444444444443
 20
-0.6835069444444444
 10
-2.469444444444443
 20
-0.6835069444444444
 10
-2.469444444444443
 20
-10.7376736111111
 10
-3.792361111111107
 20
-10.7376736111111
 97
        0
 75
     2
 76
     1
 98
        1
 10
0.0
 20
0.0
  0
ENDBLK
  5
23CB
330
23C7
100
AcDbEntity
  8
0
100
AcDbBlockEnd
  0
BLOCK
  5
23CF
330
23CC
100
AcDbEntity
  8
0
 62
     7
100
AcDbBlockBegin
  2
AI9-BLK11
 70
     0
 10
0.0
 20
0.0
 30
0.0
  3
AI9-BLK11
  1

  0
SPLINE
  5
23CD
330
23CC
100
AcDbEntity
  8
LAYER_1
 62
     7
100
AcDbSpline
210
0.0
220
0.0
230
1.0
 70
    11
 71
     3
 72
    26
 73
    22
 74
     0
 42
0.0000000001
 43
0.0000000001
 40
0.0
 40
0.0
 40
0.0
 40
0.0
 40
1.0
 40
1.0
 40
1.0
 40
2.0
 40
2.0
 40
2.0
 40
3.0
 40
3.0
 40
3.0
 40
4.0
 40
4.0
 40
4.0
 40
5.0
 40
5.0
 40
5.0
 40
6.0
 40
6.0
 40
6.0
 40
7.0
 40
7.0
 40
7.0
 40
7.0
 10
-2.645833333333333
 20
0.9039930555555551
 30
0.0
 10
-2.645833333333333
 20
0.9039930555555551
 30
0.0
 10
-2.645833333333333
 20
8.180034722222217
 30
0.0
 10
-2.645833333333333
 20
8.180034722222217
 30
0.0
 10
-2.645833333333333
 20
8.180034722222217
 30
0.0
 10
0.465087890625
 20
8.180034722222217
 30
0.0
 10
0.465087890625
 20
8.180034722222217
 30
0.0
 10
0.9026150173611108
 20
8.180034722222217
 30
0.0
 10
1.24988064236111
 20
8.034651692708331
 30
0.0
 10
1.506884765625
 20
7.745263671874997
 30
0.0
 10
2.001600477430554
 20
7.194048394097221
 30
0.0
 10
2.248958333333332
 20
6.160519748263887
 30
0.0
 10
2.248958333333332
 20
4.643299696180553
 30
0.0
 10
2.248958333333332
 20
3.232188585069443
 30
0.0
 10
2.072569444444444
 20
2.256537543402775
 30
0.0
 10
1.720480685763888
 20
1.715657552083333
 30
0.0
 10
1.368391927083333
 20
1.174088541666665
 30
0.0
 10
0.8929687499999998
 20
0.9039930555555551
 30
0.0
 10
0.2942111545138888
 20
0.9039930555555551
 30
0.0
 10
0.2942111545138888
 20
0.9039930555555551
 30
0.0
 10
-2.645833333333333
 20
0.9039930555555551
 30
0.0
 10
-2.645833333333333
 20
0.9039930555555551
 30
0.0
  0
SPLINE
  5
23CE
330
23CC
100
AcDbEntity
  8
LAYER_1
 62
     7
100
AcDbSpline
210
0.0
220
0.0
230
1.0
 70
    11
 71
     3
 72
    68
 73
    64
 74
     0
 42
0.0000000001
 43
0.0000000001
 40
0.0
 40
0.0
 40
0.0
 40
0.0
 40
1.0
 40
1.0
 40
1.0
 40
2.0
 40
2.0
 40
2.0
 40
3.0
 40
3.0
 40
3.0
 40
4.0
 40
4.0
 40
4.0
 40
5.0
 40
5.0
 40
5.0
 40
6.0
 40
6.0
 40
6.0
 40
7.0
 40
7.0
 40
7.0
 40
8.0
 40
8.0
 40
8.0
 40
9.0
 40
9.0
 40
9.0
 40
10.0
 40
10.0
 40
10.0
 40
11.0
 40
11.0
 40
11.0
 40
12.0
 40
12.0
 40
12.0
 40
13.0
 40
13.0
 40
13.0
 40
14.0
 40
14.0
 40
14.0
 40
15.0
 40
15.0
 40
15.0
 40
16.0
 40
16.0
 40
16.0
 40
17.0
 40
17.0
 40
17.0
 40
18.0
 40
18.0
 40
18.0
 40
19.0
 40
19.0
 40
19.0
 40
20.0
 40
20.0
 40
20.0
 40
21.0
 40
21.0
 40
21.0
 40
21.0
 10
-3.968749999999998
 20
-10.7376736111111
 30
0.0
 10
-3.968749999999998
 20
-10.7376736111111
 30
0.0
 10
-2.645833333333333
 20
-10.7376736111111
 30
0.0
 10
-2.645833333333333
 20
-10.7376736111111
 30
0.0
 10
-2.645833333333333
 20
-10.7376736111111
 30
0.0
 10
-2.645833333333333
 20
-1.521354166666665
 30
0.0
 10
-2.645833333333333
 20
-1.521354166666665
 30
0.0
 10
-2.645833333333333
 20
-1.521354166666665
 30
0.0
 10
0.2390896267361111
 20
-1.521354166666665
 30
0.0
 10
0.2390896267361111
 20
-1.521354166666665
 30
0.0
 10
0.7599880642361111
 20
-1.521354166666665
 30
0.0
 10
1.143771701388887
 20
-1.65295681423611
 30
0.0
 10
1.390440538194444
 20
-1.916162109374999
 30
0.0
 10
1.816254340277774
 20
-2.39434136284722
 30
0.0
 10
2.04363064236111
 20
-3.335541449652775
 30
0.0
 10
2.072569444444444
 20
-4.739762369791666
 30
0.0
 10
2.072569444444444
 20
-4.739762369791666
 30
0.0
 10
2.160763888888888
 20
-8.324039713541665
 30
0.0
 10
2.160763888888888
 20
-8.324039713541665
 30
0.0
 10
2.18005642361111
 20
-9.163264973958332
 30
0.0
 10
2.202794053819443
 20
-9.728949652777775
 30
0.0
 10
2.227598741319444
 20
-10.02109374999998
 30
0.0
 10
2.252403428819443
 20
-10.31392686631944
 30
0.0
 10
2.28892144097222
 20
-10.55301649305555
 30
0.0
 10
2.33853081597222
 20
-10.7376736111111
 30
0.0
 10
2.33853081597222
 20
-10.7376736111111
 30
0.0
 10
3.968749999999998
 20
-10.7376736111111
 30
0.0
 10
3.968749999999998
 20
-10.7376736111111
 30
0.0
 10
3.968749999999998
 20
-10.7376736111111
 30
0.0
 10
3.968749999999998
 20
-10.25260416666666
 30
0.0
 10
3.968749999999998
 20
-10.25260416666666
 30
0.0
 10
3.766867404513888
 20
-10.05830078125
 30
0.0
 10
3.625618489583333
 20
-9.621462673611112
 30
0.0
 10
3.545692274305555
 20
-8.942089843749997
 30
0.0
 10
3.49470486111111
 20
-8.543836805555555
 30
0.0
 10
3.459564887152775
 20
-7.937499999999999
 30
0.0
 10
3.439583333333333
 20
-7.121701388888887
 30
0.0
 10
3.439583333333333
 20
-7.121701388888887
 30
0.0
 10
3.395486111111107
 20
-4.232644314236107
 30
0.0
 10
3.395486111111107
 20
-4.232644314236107
 30
0.0
 10
3.375504557291666
 20
-2.981385633680555
 30
0.0
 10
3.26870659722222
 20
-2.077392578125
 30
0.0
 10
3.075781249999999
 20
-1.522043185763888
 30
0.0
 10
2.882166883680555
 20
-0.9666937934027776
 30
0.0
 10
2.592089843749999
 20
-0.5188313802083333
 30
0.0
 10
2.204861111111107
 20
-0.1770779079861111
 30
0.0
 10
2.63618706597222
 20
0.3197048611111111
 30
0.0
 10
2.971739366319443
 20
0.9770290798611107
 30
0.0
 10
3.211518012152775
 20
1.79558376736111
 30
0.0
 10
3.451296657986107
 20
2.613449435763888
 30
0.0
 10
3.571874999999999
 20
3.66558159722222
 30
0.0
 10
3.571874999999999
 20
4.951291232638888
 30
0.0
 10
3.571874999999999
 20
7.415912543402777
 30
0.0
 10
3.124701605902775
 20
9.106076388888887
 30
0.0
 10
2.231043836805555
 20
10.02178276909722
 30
0.0
 10
1.759754774305553
 20
10.498583984375
 30
0.0
 10
1.163753255208332
 20
10.7376736111111
 30
0.0
 10
0.443039279513889
 20
10.7376736111111
 30
0.0
 10
0.443039279513889
 20
10.7376736111111
 30
0.0
 10
-3.968749999999998
 20
10.7376736111111
 30
0.0
 10
-3.968749999999998
 20
10.7376736111111
 30
0.0
 10
-3.968749999999998
 20
10.7376736111111
 30
0.0
 10
-3.968749999999998
 20
-10.7376736111111
 30
0.0
 10
-3.968749999999998
 20
-10.7376736111111
 30
0.0
  0
ENDBLK
  5
23D0
330
23CC
100
AcDbEntity
  8
0
100
AcDbBlockEnd
  0
BLOCK
  5
23D3
330
23D1
100
AcDbEntity
  8
0
 62
     7
100
AcDbBlockBegin
  2
AI9-BLK10
 70
     0
 10
0.0
 20
0.0
 30
0.0
  3
AI9-BLK10
  1

  0
SPLINE
  5
23D2
330
23D1
100
AcDbEntity
  8
LAYER_1
 62
     7
100
AcDbSpline
210
0.0
220
0.0
230
1.0
 70
    11
 71
     3
 72
    59
 73
    55
 74
     0
 42
0.0000000001
 43
0.0000000001
 40
0.0
 40
0.0
 40
0.0
 40
0.0
 40
1.0
 40
1.0
 40
1.0
 40
2.0
 40
2.0
 40
2.0
 40
3.0
 40
3.0
 40
3.0
 40
4.0
 40
4.0
 40
4.0
 40
5.0
 40
5.0
 40
5.0
 40
6.0
 40
6.0
 40
6.0
 40
7.0
 40
7.0
 40
7.0
 40
8.0
 40
8.0
 40
8.0
 40
9.0
 40
9.0
 40
9.0
 40
10.0
 40
10.0
 40
10.0
 40
11.0
 40
11.0
 40
11.0
 40
12.0
 40
12.0
 40
12.0
 40
13.0
 40
13.0
 40
13.0
 40
14.0
 40
14.0
 40
14.0
 40
15.0
 40
15.0
 40
15.0
 40
16.0
 40
16.0
 40
16.0
 40
17.0
 40
17.0
 40
17.0
 40
18.0
 40
18.0
 40
18.0
 40
18.0
 10
-4.652256944444443
 20
10.7376736111111
 30
0.0
 10
-4.652256944444443
 20
10.7376736111111
 30
0.0
 10
-2.798795572916666
 20
10.7376736111111
 30
0.0
 10
-2.798795572916666
 20
10.7376736111111
 30
0.0
 10
-2.798795572916666
 20
10.7376736111111
 30
0.0
 10
0.0
 20
-7.419357638888887
 30
0.0
 10
0.0
 20
-7.419357638888887
 30
0.0
 10
0.0
 20
-7.419357638888887
 30
0.0
 10
2.793283420138888
 20
10.7376736111111
 30
0.0
 10
2.793283420138888
 20
10.7376736111111
 30
0.0
 10
2.793283420138888
 20
10.7376736111111
 30
0.0
 10
4.652256944444443
 20
10.7376736111111
 30
0.0
 10
4.652256944444443
 20
10.7376736111111
 30
0.0
 10
4.652256944444443
 20
10.7376736111111
 30
0.0
 10
4.652256944444443
 20
-10.7376736111111
 30
0.0
 10
4.652256944444443
 20
-10.7376736111111
 30
0.0
 10
4.652256944444443
 20
-10.7376736111111
 30
0.0
 10
3.41753472222222
 20
-10.7376736111111
 30
0.0
 10
3.41753472222222
 20
-10.7376736111111
 30
0.0
 10
3.41753472222222
 20
-10.7376736111111
 30
0.0
 10
3.41753472222222
 20
1.936832682291665
 30
0.0
 10
3.41753472222222
 20
1.936832682291665
 30
0.0
 10
3.41753472222222
 20
2.375048828124999
 30
0.0
 10
3.424424913194443
 20
3.101274956597221
 30
0.0
 10
3.439583333333333
 20
4.11482204861111
 30
0.0
 10
3.454052734374998
 20
5.128369140624998
 30
0.0
 10
3.461631944444443
 20
6.214952256944441
 30
0.0
 10
3.461631944444443
 20
7.375260416666666
 30
0.0
 10
3.461631944444443
 20
7.375260416666666
 30
0.0
 10
0.6538791232638889
 20
-10.7376736111111
 30
0.0
 10
0.6538791232638889
 20
-10.7376736111111
 30
0.0
 10
0.6538791232638889
 20
-10.7376736111111
 30
0.0
 10
-0.6628363715277778
 20
-10.7376736111111
 30
0.0
 10
-0.6628363715277778
 20
-10.7376736111111
 30
0.0
 10
-0.6628363715277778
 20
-10.7376736111111
 30
0.0
 10
-3.461631944444443
 20
7.375260416666666
 30
0.0
 10
-3.461631944444443
 20
7.375260416666666
 30
0.0
 10
-3.461631944444443
 20
7.375260416666666
 30
0.0
 10
-3.461631944444443
 20
6.717247178819441
 30
0.0
 10
-3.461631944444443
 20
6.717247178819441
 30
0.0
 10
-3.461631944444443
 20
6.190836588541666
 30
0.0
 10
-3.45474175347222
 20
5.389507378472222
 30
0.0
 10
-3.439583333333333
 20
4.312570529513888
 30
0.0
 10
-3.425113932291666
 20
3.235633680555555
 30
0.0
 10
-3.41753472222222
 20
2.44395073784722
 30
0.0
 10
-3.41753472222222
 20
1.936832682291665
 30
0.0
 10
-3.41753472222222
 20
1.936832682291665
 30
0.0
 10
-3.41753472222222
 20
-10.7376736111111
 30
0.0
 10
-3.41753472222222
 20
-10.7376736111111
 30
0.0
 10
-3.41753472222222
 20
-10.7376736111111
 30
0.0
 10
-4.652256944444443
 20
-10.7376736111111
 30
0.0
 10
-4.652256944444443
 20
-10.7376736111111
 30
0.0
 10
-4.652256944444443
 20
-10.7376736111111
 30
0.0
 10
-4.652256944444443
 20
10.7376736111111
 30
0.0
 10
-4.652256944444443
 20
10.7376736111111
 30
0.0
  0
ENDBLK
  5
23D4
330
23D1
100
AcDbEntity
  8
0
100
AcDbBlockEnd
  0
BLOCK
  5
23D8
330
23D5
100
AcDbEntity
  8
0
 62
     7
100
AcDbBlockBegin
  2
AI9-BLK9
 70
     0
 10
0.0
 20
0.0
 30
0.0
  3
AI9-BLK9
  1

  0
SPLINE
  5
23D6
330
23D5
100
AcDbEntity
  8
LAYER_1
 62
     7
100
AcDbSpline
210
0.0
220
0.0
230
1.0
 70
    11
 71
     3
 72
    29
 73
    25
 74
     0
 42
0.0000000001
 43
0.0000000001
 40
0.0
 40
0.0
 40
0.0
 40
0.0
 40
1.0
 40
1.0
 40
1.0
 40
2.0
 40
2.0
 40
2.0
 40
3.0
 40
3.0
 40
3.0
 40
4.0
 40
4.0
 40
4.0
 40
5.0
 40
5.0
 40
5.0
 40
6.0
 40
6.0
 40
6.0
 40
7.0
 40
7.0
 40
7.0
 40
8.0
 40
8.0
 40
8.0
 40
8.0
 10
0.0668348524305556
 20
-8.753298611111111
 30
0.0
 10
-0.9067491319444444
 20
-8.753298611111111
 30
0.0
 10
-1.60954861111111
 20
-7.936810980902778
 30
0.0
 10
-2.041563585069444
 20
-6.30383572048611
 30
0.0
 10
-2.474267578124999
 20
-4.670860460069443
 30
0.0
 10
-2.689930555555555
 20
-2.664436848958333
 30
0.0
 10
-2.689930555555555
 20
-0.28525390625
 30
0.0
 10
-2.689930555555555
 20
2.68855251736111
 30
0.0
 10
-2.439127604166666
 20
4.938199869791666
 30
0.0
 10
-1.937521701388888
 20
6.464377170138886
 30
0.0
 10
-1.43591579861111
 20
7.989865451388887
 30
0.0
 10
-0.7827256944444444
 20
8.753298611111111
 30
0.0
 10
0.0220486111111111
 20
8.753298611111111
 30
0.0
 10
0.8468044704861108
 20
8.753298611111111
 30
0.0
 10
1.49792751736111
 20
7.982975260416663
 30
0.0
 10
1.974728732638888
 20
6.442328559027776
 30
0.0
 10
2.451529947916665
 20
4.901681857638886
 30
0.0
 10
2.689930555555555
 20
2.868386501736111
 30
0.0
 10
2.689930555555555
 20
0.3438205295138888
 30
0.0
 10
2.689930555555555
 20
-2.045697699652774
 30
0.0
 10
2.483224826388885
 20
-4.15891927083333
 30
0.0
 10
2.071191406249999
 20
-5.996533203124998
 30
0.0
 10
1.65915798611111
 20
-7.834836154513887
 30
0.0
 10
0.9908094618055557
 20
-8.753298611111111
 30
0.0
 10
0.0668348524305556
 20
-8.753298611111111
 30
0.0
  0
SPLINE
  5
23D7
330
23D5
100
AcDbEntity
  8
LAYER_1
 62
     7
100
AcDbSpline
210
0.0
220
0.0
230
1.0
 70
    11
 71
     3
 72
    29
 73
    25
 74
     0
 42
0.0000000001
 43
0.0000000001
 40
0.0
 40
0.0
 40
0.0
 40
0.0
 40
1.0
 40
1.0
 40
1.0
 40
2.0
 40
2.0
 40
2.0
 40
3.0
 40
3.0
 40
3.0
 40
4.0
 40
4.0
 40
4.0
 40
5.0
 40
5.0
 40
5.0
 40
6.0
 40
6.0
 40
6.0
 40
7.0
 40
7.0
 40
7.0
 40
8.0
 40
8.0
 40
8.0
 40
8.0
 10
-0.0289388020833333
 20
11.35503472222222
 30
0.0
 10
-1.317404513888887
 20
11.35503472222222
 30
0.0
 10
-2.28892144097222
 20
10.02798394097222
 30
0.0
 10
-2.94280056423611
 20
7.374571397569441
 30
0.0
 10
-3.450607638888888
 20
5.30613606770833
 30
0.0
 10
-3.704166666666666
 20
2.81877712673611
 30
0.0
 10
-3.704166666666666
 20
-0.0881944444444445
 30
0.0
 10
-3.704166666666666
 20
-3.307291666666666
 30
0.0
 10
-3.406510416666666
 20
-5.970350477430551
 30
0.0
 10
-2.811197916666666
 20
-8.077370876736106
 30
0.0
 10
-2.147672526041664
 20
-10.26293945312499
 30
0.0
 10
-1.229899088541666
 20
-11.35503472222222
 30
0.0
 10
-0.0585666232638889
 20
-11.35503472222222
 30
0.0
 10
1.20027126736111
 20
-11.35503472222222
 30
0.0
 10
2.166276041666665
 20
-10.10653211805555
 30
0.0
 10
2.840136718749998
 20
-7.609526909722221
 30
0.0
 10
3.416156684027776
 20
-5.483213975694441
 30
0.0
 10
3.704166666666666
 20
-2.814643012152775
 30
0.0
 10
3.704166666666666
 20
0.3948079427083333
 30
0.0
 10
3.704166666666666
 20
3.360346137152776
 30
0.0
 10
3.449918619791666
 20
5.793961588541666
 30
0.0
 10
2.94280056423611
 20
7.696343315972222
 30
0.0
 10
2.298567708333333
 20
10.13547092013888
 30
0.0
 10
1.307758246527777
 20
11.35503472222222
 30
0.0
 10
-0.0289388020833333
 20
11.35503472222222
 30
0.0
  0
ENDBLK
  5
23D9
330
23D5
100
AcDbEntity
  8
0
100
AcDbBlockEnd
  0
BLOCK
  5
23DD
330
23DA
100
AcDbEntity
  8
0
 62
     7
100
AcDbBlockBegin
  2
AI9-BLK8
 70
     0
 10
0.0
 20
0.0
 30
0.0
  3
AI9-BLK8
  1

  0
LWPOLYLINE
  5
23DB
330
23DA
100
AcDbEntity
  8
LAYER_1
 62
     7
100
AcDbPolyline
 90
       10
 70
     1
 43
0.0
 10
-3.792361111111107
 20
10.7376736111111
 10
-2.268939887152774
 20
10.7376736111111
 10
2.557638888888888
 20
-6.505718315972222
 10
2.557638888888888
 20
10.7376736111111
 10
3.792361111111107
 20
10.7376736111111
 10
3.792361111111107
 20
-10.7376736111111
 10
2.32612847222222
 20
-10.7376736111111
 10
-2.557638888888888
 20
6.549815538194441
 10
-2.557638888888888
 20
-10.7376736111111
 10
-3.792361111111107
 20
-10.7376736111111
  0
HATCH
  5
23DC
330
23DA
100
AcDbEntity
  8
LAYER_1
 62
     7
100
AcDbHatch
 10
0.0
 20
0.0
 30
0.0
210
0.0
220
0.0
230
1.0
  2
SOLID
 70
     1
 71
     0
 91
        1
 92
        3
 72
     0
 73
     1
 93
       10
 10
-3.792361111111107
 20
10.7376736111111
 10
-2.268939887152774
 20
10.7376736111111
 10
2.557638888888888
 20
-6.505718315972222
 10
2.557638888888888
 20
10.7376736111111
 10
3.792361111111107
 20
10.7376736111111
 10
3.792361111111107
 20
-10.7376736111111
 10
2.32612847222222
 20
-10.7376736111111
 10
-2.557638888888888
 20
6.549815538194441
 10
-2.557638888888888
 20
-10.7376736111111
 10
-3.792361111111107
 20
-10.7376736111111
 97
        0
 75
     2
 76
     1
 98
        1
 10
0.0
 20
0.0
  0
ENDBLK
  5
23DE
330
23DA
100
AcDbEntity
  8
0
100
AcDbBlockEnd
  0
BLOCK
  5
23E2
330
23DF
100
AcDbEntity
  8
0
 62
     7
100
AcDbBlockBegin
  2
AI9-BLK7
 70
     0
 10
0.0
 20
0.0
 30
0.0
  3
AI9-BLK7
  1

  0
LWPOLYLINE
  5
23E0
330
23DF
100
AcDbEntity
  8
LAYER_1
 62
     7
100
AcDbPolyline
 90
        4
 70
     1
 43
0.0
 10
-0.6614583333333333
 20
10.7376736111111
 10
0.6614583333333333
 20
10.7376736111111
 10
0.6614583333333333
 20
-10.7376736111111
 10
-0.6614583333333333
 20
-10.7376736111111
  0
HATCH
  5
23E1
330
23DF
100
AcDbEntity
  8
LAYER_1
 62
     7
100
AcDbHatch
 10
0.0
 20
0.0
 30
0.0
210
0.0
220
0.0
230
1.0
  2
SOLID
 70
     1
 71
     0
 91
        1
 92
        3
 72
     0
 73
     1
 93
        4
 10
-0.6614583333333333
 20
10.7376736111111
 10
0.6614583333333333
 20
10.7376736111111
 10
0.6614583333333333
 20
-10.7376736111111
 10
-0.6614583333333333
 20
-10.7376736111111
 97
        0
 75
     2
 76
     1
 98
        1
 10
0.0
 20
0.0
  0
ENDBLK
  5
23E3
330
23DF
100
AcDbEntity
  8
0
100
AcDbBlockEnd
  0
BLOCK
  5
23E6
330
23E4
100
AcDbEntity
  8
0
 62
     7
100
AcDbBlockBegin
  2
AI9-BLK6
 70
     0
 10
0.0
 20
0.0
 30
0.0
  3
AI9-BLK6
  1

  0
SPLINE
  5
23E5
330
23E4
100
AcDbEntity
  8
LAYER_1
 62
     7
100
AcDbSpline
210
0.0
220
0.0
230
1.0
 70
    11
 71
     3
 72
    59
 73
    55
 74
     0
 42
0.0000000001
 43
0.0000000001
 40
0.0
 40
0.0
 40
0.0
 40
0.0
 40
1.0
 40
1.0
 40
1.0
 40
2.0
 40
2.0
 40
2.0
 40
3.0
 40
3.0
 40
3.0
 40
4.0
 40
4.0
 40
4.0
 40
5.0
 40
5.0
 40
5.0
 40
6.0
 40
6.0
 40
6.0
 40
7.0
 40
7.0
 40
7.0
 40
8.0
 40
8.0
 40
8.0
 40
9.0
 40
9.0
 40
9.0
 40
10.0
 40
10.0
 40
10.0
 40
11.0
 40
11.0
 40
11.0
 40
12.0
 40
12.0
 40
12.0
 40
13.0
 40
13.0
 40
13.0
 40
14.0
 40
14.0
 40
14.0
 40
15.0
 40
15.0
 40
15.0
 40
16.0
 40
16.0
 40
16.0
 40
17.0
 40
17.0
 40
17.0
 40
18.0
 40
18.0
 40
18.0
 40
18.0
 10
3.062689887152775
 20
9.168088107638887
 30
0.0
 10
3.735172526041666
 20
7.739062499999997
 30
0.0
 10
4.110687934027776
 20
6.116422526041666
 30
0.0
 10
4.189236111111108
 20
4.299479166666666
 30
0.0
 10
4.189236111111108
 20
4.299479166666666
 30
0.0
 10
2.866319444444443
 20
4.299479166666666
 30
0.0
 10
2.866319444444443
 20
4.299479166666666
 30
0.0
 10
2.720936414930555
 20
5.667871093749997
 30
0.0
 10
2.435682508680555
 20
6.752387152777776
 30
0.0
 10
2.009868706597219
 20
7.553027343749997
 30
0.0
 10
1.584054904513888
 20
8.352978515624997
 30
0.0
 10
0.9839192708333332
 20
8.753298611111111
 30
0.0
 10
0.2101508246527778
 20
8.753298611111111
 30
0.0
 10
-0.7386284722222222
 20
8.753298611111111
 30
0.0
 10
-1.503439670138888
 20
8.010536024305555
 30
0.0
 10
-2.083593749999999
 20
6.526388888888886
 30
0.0
 10
-2.664436848958333
 20
5.042241753472221
 30
0.0
 10
-2.954513888888888
 20
2.767100694444443
 30
0.0
 10
-2.954513888888888
 20
-0.2990342881944444
 30
0.0
 10
-2.954513888888888
 20
-2.811197916666666
 30
0.0
 10
-2.693375651041666
 20
-4.847938368055555
 30
0.0
 10
-2.17041015625
 20
-6.409944661458332
 30
0.0
 10
-1.648133680555553
 20
-7.972639973958332
 30
0.0
 10
-0.8640299479166666
 20
-8.753298611111111
 30
0.0
 10
0.1812120225694444
 20
-8.753298611111111
 30
0.0
 10
1.138948567708333
 20
-8.753298611111111
 30
0.0
 10
1.865174696180553
 20
-7.927853732638887
 30
0.0
 10
2.359201388888885
 20
-6.275585937499998
 30
0.0
 10
2.62998589409722
 20
-5.406043836805555
 30
0.0
 10
2.828423394097221
 20
-4.262272135416666
 30
0.0
 10
2.954513888888888
 20
-2.844270833333331
 30
0.0
 10
2.954513888888888
 20
-2.844270833333331
 30
0.0
 10
4.277430555555555
 20
-2.844270833333331
 30
0.0
 10
4.277430555555555
 20
-2.844270833333331
 30
0.0
 10
4.169943576388888
 20
-5.109765624999996
 30
0.0
 10
3.795117187499998
 20
-7.009391276041665
 30
0.0
 10
3.151573350694443
 20
-8.542458767361106
 30
0.0
 10
2.381249999999999
 20
-10.38834092881943
 30
0.0
 10
1.347721354166665
 20
-11.3109375
 30
0.0
 10
0.0509874131944445
 20
-11.3109375
 30
0.0
 10
-1.07004665798611
 20
-11.3109375
 30
0.0
 10
-2.010557725694444
 20
-10.55577256944443
 30
0.0
 10
-2.771234809027776
 20
-9.04475368923611
 30
0.0
 10
-3.775824652777775
 20
-7.046598307291666
 30
0.0
 10
-4.277430555555555
 20
-3.961170789930555
 30
0.0
 10
-4.277430555555555
 20
0.2115288628472222
 30
0.0
 10
-4.277430555555555
 20
3.379638671874998
 30
0.0
 10
-3.902604166666666
 20
5.977929687499997
 30
0.0
 10
-3.151573350694443
 20
8.005712890624996
 30
0.0
 10
-2.333018663194443
 20
10.20919596354165
 30
0.0
 10
-1.20647243923611
 20
11.3109375
 30
0.0
 10
0.2266872829861111
 20
11.3109375
 30
0.0
 10
1.444873046875
 20
11.3109375
 30
0.0
 10
2.390207248263885
 20
10.59642469618055
 30
0.0
 10
3.062689887152775
 20
9.168088107638887
 30
0.0
  0
ENDBLK
  5
23E7
330
23E4
100
AcDbEntity
  8
0
100
AcDbBlockEnd
  0
BLOCK
  5
23EB
330
23E8
100
AcDbEntity
  8
0
 62
     7
100
AcDbBlockBegin
  2
AI9-BLK5
 70
     0
 10
0.0
 20
0.0
 30
0.0
  3
AI9-BLK5
  1

  0
SPLINE
  5
23E9
330
23E8
100
AcDbEntity
  8
LAYER_1
 62
     7
100
AcDbSpline
210
0.0
220
0.0
230
1.0
 70
    11
 71
     3
 72
    32
 73
    28
 74
     0
 42
0.0000000001
 43
0.0000000001
 40
0.0
 40
0.0
 40
0.0
 40
0.0
 40
1.0
 40
1.0
 40
1.0
 40
2.0
 40
2.0
 40
2.0
 40
3.0
 40
3.0
 40
3.0
 40
4.0
 40
4.0
 40
4.0
 40
5.0
 40
5.0
 40
5.0
 40
6.0
 40
6.0
 40
6.0
 40
7.0
 40
7.0
 40
7.0
 40
8.0
 40
8.0
 40
8.0
 40
9.0
 40
9.0
 40
9.0
 40
9.0
 10
-2.62378472222222
 20
-8.268229166666666
 30
0.0
 10
-2.62378472222222
 20
-8.268229166666666
 30
0.0
 10
-2.62378472222222
 20
8.180034722222217
 30
0.0
 10
-2.62378472222222
 20
8.180034722222217
 30
0.0
 10
-2.62378472222222
 20
8.180034722222217
 30
0.0
 10
-0.3376193576388888
 20
8.180034722222217
 30
0.0
 10
-0.3376193576388888
 20
8.180034722222217
 30
0.0
 10
0.6972873263888888
 20
8.180034722222217
 30
0.0
 10
1.449007161458333
 20
7.445540364583332
 30
0.0
 10
1.918918185763885
 20
5.977929687499997
 30
0.0
 10
2.388829210069443
 20
4.510319010416666
 30
0.0
 10
2.62378472222222
 20
2.449462890624999
 30
0.0
 10
2.62378472222222
 20
-0.204638671875
 30
0.0
 10
2.62378472222222
 20
-0.8950358072916666
 30
0.0
 10
2.590022786458332
 20
-1.643310546874999
 30
0.0
 10
2.523187934027774
 20
-2.45015190972222
 30
0.0
 10
2.408121744791666
 20
-3.80200737847222
 30
0.0
 10
2.226220703124999
 20
-4.909950086805555
 30
0.0
 10
1.976795789930553
 20
-5.774669053819441
 30
0.0
 10
1.659847005208333
 20
-6.853672960069442
 30
0.0
 10
1.252636718749998
 20
-7.583344184027778
 30
0.0
 10
0.7544759114583333
 20
-7.962304687499997
 30
0.0
 10
0.4664659288194444
 20
-8.166254340277777
 30
0.0
 10
0.1074869791666666
 20
-8.268229166666666
 30
0.0
 10
-0.3231499565972222
 20
-8.268229166666666
 30
0.0
 10
-0.3231499565972222
 20
-8.268229166666666
 30
0.0
 10
-2.62378472222222
 20
-8.268229166666666
 30
0.0
 10
-2.62378472222222
 20
-8.268229166666666
 30
0.0
  0
SPLINE
  5
23EA
330
23E8
100
AcDbEntity
  8
LAYER_1
 62
     7
100
AcDbSpline
210
0.0
220
0.0
230
1.0
 70
    11
 71
     3
 72
    26
 73
    22
 74
     0
 42
0.0000000001
 43
0.0000000001
 40
0.0
 40
0.0
 40
0.0
 40
0.0
 40
1.0
 40
1.0
 40
1.0
 40
2.0
 40
2.0
 40
2.0
 40
3.0
 40
3.0
 40
3.0
 40
4.0
 40
4.0
 40
4.0
 40
5.0
 40
5.0
 40
5.0
 40
6.0
 40
6.0
 40
6.0
 40
7.0
 40
7.0
 40
7.0
 40
7.0
 10
-3.946701388888888
 20
-10.7376736111111
 30
0.0
 10
-3.946701388888888
 20
-10.7376736111111
 30
0.0
 10
-0.0943956163194444
 20
-10.7376736111111
 30
0.0
 10
-0.0943956163194444
 20
-10.7376736111111
 30
0.0
 10
1.546847873263885
 20
-10.7376736111111
 30
0.0
 10
2.705777994791666
 20
-9.11021050347222
 30
0.0
 10
3.381705729166666
 20
-5.854595269097222
 30
0.0
 10
3.757910156249999
 20
-4.01284722222222
 30
0.0
 10
3.946701388888888
 20
-1.951991102430555
 30
0.0
 10
3.946701388888888
 20
0.328662109375
 30
0.0
 10
3.946701388888888
 20
3.281797960069443
 30
0.0
 10
3.622862413194443
 20
5.703700086805552
 30
0.0
 10
2.976562499999998
 20
7.594368489583332
 30
0.0
 10
2.25171440972222
 20
9.689675564236106
 30
0.0
 10
1.233344184027777
 20
10.7376736111111
 30
0.0
 10
-0.0799262152777778
 20
10.7376736111111
 30
0.0
 10
-0.0799262152777778
 20
10.7376736111111
 30
0.0
 10
-3.946701388888888
 20
10.7376736111111
 30
0.0
 10
-3.946701388888888
 20
10.7376736111111
 30
0.0
 10
-3.946701388888888
 20
10.7376736111111
 30
0.0
 10
-3.946701388888888
 20
-10.7376736111111
 30
0.0
 10
-3.946701388888888
 20
-10.7376736111111
 30
0.0
  0
ENDBLK
  5
23EC
330
23E8
100
AcDbEntity
  8
0
100
AcDbBlockEnd
  0
BLOCK
  5
23F0
330
23ED
100
AcDbEntity
  8
0
 62
     7
100
AcDbBlockBegin
  2
AI9-BLK4
 70
     0
 10
0.0
 20
0.0
 30
0.0
  3
AI9-BLK4
  1

  0
SPLINE
  5
23EE
330
23ED
100
AcDbEntity
  8
LAYER_1
 62
     7
100
AcDbSpline
210
0.0
220
0.0
230
1.0
 70
    11
 71
     3
 72
    26
 73
    22
 74
     0
 42
0.0000000001
 43
0.0000000001
 40
0.0
 40
0.0
 40
0.0
 40
0.0
 40
1.0
 40
1.0
 40
1.0
 40
2.0
 40
2.0
 40
2.0
 40
3.0
 40
3.0
 40
3.0
 40
4.0
 40
4.0
 40
4.0
 40
5.0
 40
5.0
 40
5.0
 40
6.0
 40
6.0
 40
6.0
 40
7.0
 40
7.0
 40
7.0
 40
7.0
 10
-2.645833333333333
 20
0.9039930555555551
 30
0.0
 10
-2.645833333333333
 20
0.9039930555555551
 30
0.0
 10
-2.645833333333333
 20
8.180034722222217
 30
0.0
 10
-2.645833333333333
 20
8.180034722222217
 30
0.0
 10
-2.645833333333333
 20
8.180034722222217
 30
0.0
 10
0.465087890625
 20
8.180034722222217
 30
0.0
 10
0.465087890625
 20
8.180034722222217
 30
0.0
 10
0.9026150173611108
 20
8.180034722222217
 30
0.0
 10
1.24988064236111
 20
8.034651692708331
 30
0.0
 10
1.506884765625
 20
7.745263671874997
 30
0.0
 10
2.001600477430554
 20
7.194048394097221
 30
0.0
 10
2.248958333333332
 20
6.160519748263887
 30
0.0
 10
2.248958333333332
 20
4.643299696180553
 30
0.0
 10
2.248958333333332
 20
3.232188585069443
 30
0.0
 10
2.072569444444444
 20
2.256537543402775
 30
0.0
 10
1.720480685763888
 20
1.715657552083333
 30
0.0
 10
1.368391927083333
 20
1.174088541666665
 30
0.0
 10
0.8929687499999998
 20
0.9039930555555551
 30
0.0
 10
0.2942111545138888
 20
0.9039930555555551
 30
0.0
 10
0.2942111545138888
 20
0.9039930555555551
 30
0.0
 10
-2.645833333333333
 20
0.9039930555555551
 30
0.0
 10
-2.645833333333333
 20
0.9039930555555551
 30
0.0
  0
SPLINE
  5
23EF
330
23ED
100
AcDbEntity
  8
LAYER_1
 62
     7
100
AcDbSpline
210
0.0
220
0.0
230
1.0
 70
    11
 71
     3
 72
    68
 73
    64
 74
     0
 42
0.0000000001
 43
0.0000000001
 40
0.0
 40
0.0
 40
0.0
 40
0.0
 40
1.0
 40
1.0
 40
1.0
 40
2.0
 40
2.0
 40
2.0
 40
3.0
 40
3.0
 40
3.0
 40
4.0
 40
4.0
 40
4.0
 40
5.0
 40
5.0
 40
5.0
 40
6.0
 40
6.0
 40
6.0
 40
7.0
 40
7.0
 40
7.0
 40
8.0
 40
8.0
 40
8.0
 40
9.0
 40
9.0
 40
9.0
 40
10.0
 40
10.0
 40
10.0
 40
11.0
 40
11.0
 40
11.0
 40
12.0
 40
12.0
 40
12.0
 40
13.0
 40
13.0
 40
13.0
 40
14.0
 40
14.0
 40
14.0
 40
15.0
 40
15.0
 40
15.0
 40
16.0
 40
16.0
 40
16.0
 40
17.0
 40
17.0
 40
17.0
 40
18.0
 40
18.0
 40
18.0
 40
19.0
 40
19.0
 40
19.0
 40
20.0
 40
20.0
 40
20.0
 40
21.0
 40
21.0
 40
21.0
 40
21.0
 10
-3.968749999999998
 20
-10.7376736111111
 30
0.0
 10
-3.968749999999998
 20
-10.7376736111111
 30
0.0
 10
-2.645833333333333
 20
-10.7376736111111
 30
0.0
 10
-2.645833333333333
 20
-10.7376736111111
 30
0.0
 10
-2.645833333333333
 20
-10.7376736111111
 30
0.0
 10
-2.645833333333333
 20
-1.521354166666665
 30
0.0
 10
-2.645833333333333
 20
-1.521354166666665
 30
0.0
 10
-2.645833333333333
 20
-1.521354166666665
 30
0.0
 10
0.2390896267361111
 20
-1.521354166666665
 30
0.0
 10
0.2390896267361111
 20
-1.521354166666665
 30
0.0
 10
0.7599880642361111
 20
-1.521354166666665
 30
0.0
 10
1.143771701388887
 20
-1.65295681423611
 30
0.0
 10
1.390440538194444
 20
-1.916162109374999
 30
0.0
 10
1.816254340277774
 20
-2.39434136284722
 30
0.0
 10
2.04363064236111
 20
-3.335541449652775
 30
0.0
 10
2.072569444444444
 20
-4.739762369791666
 30
0.0
 10
2.072569444444444
 20
-4.739762369791666
 30
0.0
 10
2.160763888888888
 20
-8.324039713541665
 30
0.0
 10
2.160763888888888
 20
-8.324039713541665
 30
0.0
 10
2.18005642361111
 20
-9.163264973958332
 30
0.0
 10
2.202794053819443
 20
-9.728949652777775
 30
0.0
 10
2.227598741319444
 20
-10.02109374999998
 30
0.0
 10
2.252403428819443
 20
-10.31392686631944
 30
0.0
 10
2.28892144097222
 20
-10.55301649305555
 30
0.0
 10
2.33853081597222
 20
-10.7376736111111
 30
0.0
 10
2.33853081597222
 20
-10.7376736111111
 30
0.0
 10
3.968749999999998
 20
-10.7376736111111
 30
0.0
 10
3.968749999999998
 20
-10.7376736111111
 30
0.0
 10
3.968749999999998
 20
-10.7376736111111
 30
0.0
 10
3.968749999999998
 20
-10.25260416666666
 30
0.0
 10
3.968749999999998
 20
-10.25260416666666
 30
0.0
 10
3.766867404513888
 20
-10.05830078125
 30
0.0
 10
3.625618489583333
 20
-9.621462673611112
 30
0.0
 10
3.545692274305555
 20
-8.942089843749997
 30
0.0
 10
3.49470486111111
 20
-8.543836805555555
 30
0.0
 10
3.459564887152775
 20
-7.937499999999999
 30
0.0
 10
3.439583333333333
 20
-7.121701388888887
 30
0.0
 10
3.439583333333333
 20
-7.121701388888887
 30
0.0
 10
3.395486111111107
 20
-4.232644314236107
 30
0.0
 10
3.395486111111107
 20
-4.232644314236107
 30
0.0
 10
3.375504557291666
 20
-2.981385633680555
 30
0.0
 10
3.26870659722222
 20
-2.077392578125
 30
0.0
 10
3.075781249999999
 20
-1.522043185763888
 30
0.0
 10
2.882166883680555
 20
-0.9666937934027776
 30
0.0
 10
2.592089843749999
 20
-0.5188313802083333
 30
0.0
 10
2.204861111111107
 20
-0.1770779079861111
 30
0.0
 10
2.63618706597222
 20
0.3197048611111111
 30
0.0
 10
2.971739366319443
 20
0.9770290798611107
 30
0.0
 10
3.211518012152775
 20
1.79558376736111
 30
0.0
 10
3.451296657986107
 20
2.613449435763888
 30
0.0
 10
3.571874999999999
 20
3.66558159722222
 30
0.0
 10
3.571874999999999
 20
4.951291232638888
 30
0.0
 10
3.571874999999999
 20
7.415912543402777
 30
0.0
 10
3.124701605902775
 20
9.106076388888887
 30
0.0
 10
2.231043836805555
 20
10.02178276909722
 30
0.0
 10
1.759754774305553
 20
10.498583984375
 30
0.0
 10
1.163753255208332
 20
10.7376736111111
 30
0.0
 10
0.443039279513889
 20
10.7376736111111
 30
0.0
 10
0.443039279513889
 20
10.7376736111111
 30
0.0
 10
-3.968749999999998
 20
10.7376736111111
 30
0.0
 10
-3.968749999999998
 20
10.7376736111111
 30
0.0
 10
-3.968749999999998
 20
10.7376736111111
 30
0.0
 10
-3.968749999999998
 20
-10.7376736111111
 30
0.0
 10
-3.968749999999998
 20
-10.7376736111111
 30
0.0
  0
ENDBLK
  5
23F1
330
23ED
100
AcDbEntity
  8
0
100
AcDbBlockEnd
  0
BLOCK
  5
23F5
330
23F2
100
AcDbEntity
  8
0
 62
     7
100
AcDbBlockBegin
  2
AI9-BLK3
 70
     0
 10
0.0
 20
0.0
 30
0.0
  3
AI9-BLK3
  1

  0
LWPOLYLINE
  5
23F3
330
23F2
100
AcDbEntity
  8
LAYER_1
 62
     7
100
AcDbPolyline
 90
        4
 70
     1
 43
0.0
 10
-0.6613722059461809
 20
10.7376736111111
 10
0.6613722059461809
 20
10.7376736111111
 10
0.6613722059461809
 20
-10.7376736111111
 10
-0.6613722059461809
 20
-10.7376736111111
  0
HATCH
  5
23F4
330
23F2
100
AcDbEntity
  8
LAYER_1
 62
     7
100
AcDbHatch
 10
0.0
 20
0.0
 30
0.0
210
0.0
220
0.0
230
1.0
  2
SOLID
 70
     1
 71
     0
 91
        1
 92
        3
 72
     0
 73
     1
 93
        4
 10
-0.6613722059461809
 20
10.7376736111111
 10
0.6613722059461809
 20
10.7376736111111
 10
0.6613722059461809
 20
-10.7376736111111
 10
-0.6613722059461809
 20
-10.7376736111111
 97
        0
 75
     2
 76
     1
 98
        1
 10
0.0
 20
0.0
  0
ENDBLK
  5
23F6
330
23F2
100
AcDbEntity
  8
0
100
AcDbBlockEnd
  0
BLOCK
  5
23FA
330
23F7
100
AcDbEntity
  8
0
 62
     7
100
AcDbBlockBegin
  2
AI9-BLK2
 70
     0
 10
0.0
 20
0.0
 30
0.0
  3
AI9-BLK2
  1

  0
LWPOLYLINE
  5
23F8
330
23F7
100
AcDbEntity
  8
LAYER_1
 62
     7
100
AcDbPolyline
 90
        7
 70
     1
 43
0.0
 10
-2.785704210069443
 20
10.7376736111111
 10
0.0
 20
-7.550960286458332
 10
2.771234809027776
 20
10.7376736111111
 10
4.233333333333331
 20
10.7376736111111
 10
0.6910861545138888
 20
-10.7376736111111
 10
-0.7055555555555558
 20
-10.7376736111111
 10
-4.233333333333331
 20
10.7376736111111
  0
HATCH
  5
23F9
330
23F7
100
AcDbEntity
  8
LAYER_1
 62
     7
100
AcDbHatch
 10
0.0
 20
0.0
 30
0.0
210
0.0
220
0.0
230
1.0
  2
SOLID
 70
     1
 71
     0
 91
        1
 92
        3
 72
     0
 73
     1
 93
        7
 10
-2.785704210069443
 20
10.7376736111111
 10
0.0
 20
-7.550960286458332
 10
2.771234809027776
 20
10.7376736111111
 10
4.233333333333331
 20
10.7376736111111
 10
0.6910861545138888
 20
-10.7376736111111
 10
-0.7055555555555558
 20
-10.7376736111111
 10
-4.233333333333331
 20
10.7376736111111
 97
        0
 75
     2
 76
     1
 98
        1
 10
0.0
 20
0.0
  0
ENDBLK
  5
23FB
330
23F7
100
AcDbEntity
  8
0
100
AcDbBlockEnd
  0
BLOCK
  5
23FF
330
23FC
100
AcDbEntity
  8
0
 62
     7
100
AcDbBlockBegin
  2
AI9-BLK1
 70
     0
 10
0.0
 20
0.0
 30
0.0
  3
AI9-BLK1
  1

  0
LWPOLYLINE
  5
23FD
330
23FC
100
AcDbEntity
  8
LAYER_1
 62
     7
100
AcDbPolyline
 90
       12
 70
     1
 43
0.0
 10
-3.571874999999999
 20
10.7376736111111
 10
3.483680555555555
 20
10.7376736111111
 10
3.483680555555555
 20
8.091840277777777
 10
-2.248958333333332
 20
8.091840277777777
 10
-2.248958333333332
 20
1.565451388888888
 10
3.042708333333333
 20
1.565451388888888
 10
3.042708333333333
 20
-0.9039930555555551
 10
-2.248958333333332
 20
-0.9039930555555551
 10
-2.248958333333332
 20
-8.180034722222217
 10
3.571874999999999
 20
-8.180034722222217
 10
3.571874999999999
 20
-10.7376736111111
 10
-3.571874999999999
 20
-10.7376736111111
  0
HATCH
  5
23FE
330
23FC
100
AcDbEntity
  8
LAYER_1
 62
     7
100
AcDbHatch
 10
0.0
 20
0.0
 30
0.0
210
0.0
220
0.0
230
1.0
  2
SOLID
 70
     1
 71
     0
 91
        1
 92
        3
 72
     0
 73
     1
 93
       12
 10
-3.571874999999999
 20
10.7376736111111
 10
3.483680555555555
 20
10.7376736111111
 10
3.483680555555555
 20
8.091840277777777
 10
-2.248958333333332
 20
8.091840277777777
 10
-2.248958333333332
 20
1.565451388888888
 10
3.042708333333333
 20
1.565451388888888
 10
3.042708333333333
 20
-0.9039930555555551
 10
-2.248958333333332
 20
-0.9039930555555551
 10
-2.248958333333332
 20
-8.180034722222217
 10
3.571874999999999
 20
-8.180034722222217
 10
3.571874999999999
 20
-10.7376736111111
 10
-3.571874999999999
 20
-10.7376736111111
 97
        0
 75
     2
 76
     1
 98
        1
 10
0.0
 20
0.0
  0
ENDBLK
  5
2400
330
23FC
100
AcDbEntity
  8
0
100
AcDbBlockEnd
  0
BLOCK
  5
2424
330
2401
100
AcDbEntity
  8
0
100
AcDbBlockBegin
  2
HD_LLC_logo_OT5
 70
     0
 10
0.0
 20
0.0
 30
0.0
  3
HD_LLC_logo_OT5
  1

  0
SPLINE
  5
2402
102
{ACAD_REACTORS
330
2422
102
}
330
2401
100
AcDbEntity
  8
LAYER_1
 62
     7
100
AcDbSpline
210
0.0
220
0.0
230
1.0
 70
    11
 71
     3
 72
   113
 73
   109
 74
     0
 42
0.0000000001
 43
0.0000000001
 40
0.0
 40
0.0
 40
0.0
 40
0.0
 40
1.0
 40
1.0
 40
1.0
 40
2.0
 40
2.0
 40
2.0
 40
3.0
 40
3.0
 40
3.0
 40
4.0
 40
4.0
 40
4.0
 40
5.0
 40
5.0
 40
5.0
 40
6.0
 40
6.0
 40
6.0
 40
7.0
 40
7.0
 40
7.0
 40
8.0
 40
8.0
 40
8.0
 40
9.0
 40
9.0
 40
9.0
 40
10.0
 40
10.0
 40
10.0
 40
11.0
 40
11.0
 40
11.0
 40
12.0
 40
12.0
 40
12.0
 40
13.0
 40
13.0
 40
13.0
 40
14.0
 40
14.0
 40
14.0
 40
15.0
 40
15.0
 40
15.0
 40
16.0
 40
16.0
 40
16.0
 40
17.0
 40
17.0
 40
17.0
 40
18.0
 40
18.0
 40
18.0
 40
19.0
 40
19.0
 40
19.0
 40
20.0
 40
20.0
 40
20.0
 40
21.0
 40
21.0
 40
21.0
 40
22.0
 40
22.0
 40
22.0
 40
23.0
 40
23.0
 40
23.0
 40
24.0
 40
24.0
 40
24.0
 40
25.0
 40
25.0
 40
25.0
 40
26.0
 40
26.0
 40
26.0
 40
27.0
 40
27.0
 40
27.0
 40
28.0
 40
28.0
 40
28.0
 40
29.0
 40
29.0
 40
29.0
 40
30.0
 40
30.0
 40
30.0
 40
31.0
 40
31.0
 40
31.0
 40
32.0
 40
32.0
 40
32.0
 40
33.0
 40
33.0
 40
33.0
 40
34.0
 40
34.0
 40
34.0
 40
35.0
 40
35.0
 40
35.0
 40
36.0
 40
36.0
 40
36.0
 40
36.0
 10
193.3039632161458
 20
186.1548733181423
 30
0.0
 10
193.3039632161458
 20
186.1860514322916
 30
0.0
 10
193.3039632161458
 20
219.6932223849826
 30
0.0
 10
193.3039632161458
 20
219.6932223849826
 30
0.0
 10
193.3039632161458
 20
219.6932223849826
 30
0.0
 10
193.2974175347219
 20
219.7488606770833
 30
0.0
 10
193.2974175347219
 20
219.7488606770833
 30
0.0
 10
191.5293945312499
 20
235.455740017361
 30
0.0
 10
175.1458984374999
 20
235.2467949761284
 30
0.0
 10
174.9808783637151
 20
235.2428331163193
 30
0.0
 10
174.9808783637151
 20
235.2428331163193
 30
0.0
 10
125.8827555338541
 20
235.2430053710937
 30
0.0
 10
125.8827555338541
 20
235.2430053710937
 30
0.0
 10
125.8827555338541
 20
235.2430053710937
 30
0.0
 10
125.8827555338541
 20
255.5278998480901
 30
0.0
 10
125.8827555338541
 20
255.5278998480901
 30
0.0
 10
125.8827555338541
 20
255.5278998480901
 30
0.0
 10
84.5626247829861
 20
255.5278998480901
 30
0.0
 10
84.5626247829861
 20
255.5278998480901
 30
0.0
 10
84.5626247829861
 20
255.5278998480901
 30
0.0
 10
84.55711263020829
 20
233.7919311523436
 30
0.0
 10
84.55711263020829
 20
233.7919311523436
 30
0.0
 10
84.55711263020829
 20
233.7919311523436
 30
0.0
 10
64.42052951388888
 20
233.7919311523436
 30
0.0
 10
64.42052951388888
 20
233.7919311523436
 30
0.0
 10
64.42052951388888
 20
233.7919311523436
 30
0.0
 10
64.41501736111111
 20
255.5278998480901
 30
0.0
 10
64.41501736111111
 20
255.5278998480901
 30
0.0
 10
64.41501736111111
 20
255.5278998480901
 30
0.0
 10
23.91757541232637
 20
255.5278998480901
 30
0.0
 10
23.91757541232637
 20
255.5278998480901
 30
0.0
 10
23.91757541232637
 20
255.5278998480901
 30
0.0
 10
23.91757541232637
 20
233.2393378363715
 30
0.0
 10
23.91757541232637
 20
233.2393378363715
 30
0.0
 10
23.91757541232637
 20
233.2393378363715
 30
0.0
 10
43.65624999999999
 20
233.2393378363715
 30
0.0
 10
43.65624999999999
 20
233.2393378363715
 30
0.0
 10
43.65624999999999
 20
233.2393378363715
 30
0.0
 10
43.65624999999999
 20
211.5188720703125
 30
0.0
 10
43.65624999999999
 20
211.5188720703125
 30
0.0
 10
43.65624999999999
 20
211.5188720703125
 30
0.0
 10
23.91757541232637
 20
211.5188720703125
 30
0.0
 10
23.91757541232637
 20
211.5188720703125
 30
0.0
 10
23.91757541232637
 20
211.5188720703125
 30
0.0
 10
23.91757541232637
 20
189.2303100585936
 30
0.0
 10
23.91757541232637
 20
189.2303100585936
 30
0.0
 10
23.91757541232637
 20
189.2303100585936
 30
0.0
 10
64.41501736111111
 20
189.2303100585936
 30
0.0
 10
64.41501736111111
 20
189.2303100585936
 30
0.0
 10
64.41501736111111
 20
189.2303100585936
 30
0.0
 10
64.42052951388888
 20
211.069976128472
 30
0.0
 10
64.42052951388888
 20
211.069976128472
 30
0.0
 10
64.42052951388888
 20
211.069976128472
 30
0.0
 10
84.55711263020829
 20
211.069976128472
 30
0.0
 10
84.55711263020829
 20
211.069976128472
 30
0.0
 10
84.55711263020829
 20
211.069976128472
 30
0.0
 10
84.5626247829861
 20
189.2303100585936
 30
0.0
 10
84.5626247829861
 20
189.2303100585936
 30
0.0
 10
84.5626247829861
 20
189.2303100585936
 30
0.0
 10
125.8827555338541
 20
189.2303100585936
 30
0.0
 10
125.8827555338541
 20
189.2303100585936
 30
0.0
 10
125.8827555338541
 20
189.2303100585936
 30
0.0
 10
125.8827555338541
 20
211.5188720703125
 30
0.0
 10
125.8827555338541
 20
211.5188720703125
 30
0.0
 10
125.8827555338541
 20
211.5188720703125
 30
0.0
 10
105.3213921440971
 20
211.5188720703125
 30
0.0
 10
105.3213921440971
 20
211.5188720703125
 30
0.0
 10
105.3213921440971
 20
211.5188720703125
 30
0.0
 10
105.3213921440971
 20
233.2393378363715
 30
0.0
 10
105.3213921440971
 20
233.2393378363715
 30
0.0
 10
105.3213921440971
 20
233.2393378363715
 30
0.0
 10
175.0046495225693
 20
233.243127441406
 30
0.0
 10
175.0046495225693
 20
233.243127441406
 30
0.0
 10
175.6268337673611
 20
233.2560465494791
 30
0.0
 10
189.7165852864583
 20
233.3962619357638
 30
0.0
 10
191.3037407769094
 20
219.5690266927083
 30
0.0
 10
191.3037407769094
 20
219.4332899305555
 30
0.0
 10
191.3037407769094
 20
186.1142211914062
 30
0.0
 10
191.3037407769094
 20
186.1142211914062
 30
0.0
 10
191.3037407769094
 20
186.1142211914062
 30
0.0
 10
191.3051188151039
 20
186.0880384657115
 30
0.0
 10
191.3051188151039
 20
186.0880384657115
 30
0.0
 10
191.3054633246526
 20
186.0787367078991
 30
0.0
 10
191.3109754774304
 20
185.9566080729166
 30
0.0
 10
191.3109754774304
 20
185.7399115668401
 30
0.0
 10
191.3109754774304
 20
184.2090833875865
 30
0.0
 10
191.0488037109374
 20
177.9643310546874
 30
0.0
 10
186.9866916232638
 20
173.5652886284722
 30
0.0
 10
184.2540418836804
 20
170.6064683702255
 30
0.0
 10
180.3224989149304
 20
169.0308539496526
 30
0.0
 10
175.300927734375
 20
168.8825425889756
 30
0.0
 10
175.300927734375
 20
168.8825425889756
 30
0.0
 10
107.0094889322916
 20
168.8828870985243
 30
0.0
 10
107.0094889322916
 20
168.8828870985243
 30
0.0
 10
107.0094889322916
 20
168.8828870985243
 30
0.0
 10
107.0094889322916
 20
166.8830091688368
 30
0.0
 10
107.0094889322916
 20
166.8830091688368
 30
0.0
 10
107.0094889322916
 20
166.8830091688368
 30
0.0
 10
175.3305555555555
 20
166.8830091688368
 30
0.0
 10
175.3305555555555
 20
166.8830091688368
 30
0.0
 10
180.9467502170138
 20
167.0485460069444
 30
0.0
 10
185.3571614583333
 20
168.8448187934026
 30
0.0
 10
188.4687717013888
 20
172.2223904079861
 30
0.0
 10
192.9649658203124
 20
177.1034016927083
 30
0.0
 10
193.3136094835069
 20
183.7202243381076
 30
0.0
 10
193.3136094835069
 20
185.6520616319443
 30
0.0
 10
193.3136094835069
 20
185.9247409396701
 30
0.0
 10
193.3070638020833
 20
186.0868326822916
 30
0.0
 10
193.3039632161458
 20
186.1548733181423
 30
0.0
  0
INSERT
  5
2403
102
{ACAD_REACTORS
330
2423
102
}
330
2401
100
AcDbEntity
  8
LAYER_1
 62
     7
100
AcDbBlockReference
  2
AI9-BLK14
 10
159.5625257703993
 20
200.5118781195744
 30
0.0
  0
INSERT
  5
2404
330
2401
100
AcDbEntity
  8
LAYER_1
 62
     7
100
AcDbBlockReference
  2
AI9-BLK13
 10
27.69615614149305
 20
179.2145562065971
 30
0.0
 42
0.9200000000000001
  0
INSERT
  5
2405
102
{ACAD_REACTORS
330
2410
102
}
330
2401
100
AcDbEntity
  8
LAYER_1
 62
     7
100
AcDbBlockReference
  2
AI9-BLK11
 10
44.76591525607638
 20
179.2145562065971
 30
0.0
 42
0.9200000000000001
  0
INSERT
  5
2406
102
{ACAD_REACTORS
330
241E
102
}
330
2401
100
AcDbEntity
  8
LAYER_1
 62
     7
100
AcDbBlockReference
  2
AI9-BLK10
 10
54.04665798611111
 20
179.2145562065971
 30
0.0
 42
0.9200000000000001
  0
INSERT
  5
2407
102
{ACAD_REACTORS
330
241D
102
}
330
2401
100
AcDbEntity
  8
LAYER_1
 62
     7
100
AcDbBlockReference
  2
AI9-BLK9
 10
62.79013807508679
 20
179.2145562065971
 30
0.0
 42
0.9
  0
INSERT
  5
2408
330
2401
100
AcDbEntity
  8
LAYER_1
 62
     7
100
AcDbBlockReference
  2
AI9-BLK8
 10
71.03046196831595
 20
179.2145562065971
 30
0.0
 42
0.9200000000000001
  0
INSERT
  5
2409
330
2401
100
AcDbEntity
  8
LAYER_1
 62
     7
100
AcDbBlockReference
  2
AI9-BLK7
 10
76.93793945312498
 20
179.2145562065971
 30
0.0
 42
0.9200000000000001
  0
INSERT
  5
240A
102
{ACAD_REACTORS
330
2411
102
}
330
2401
100
AcDbEntity
  8
LAYER_1
 62
     7
100
AcDbBlockReference
  2
AI9-BLK6
 10
82.55602891710069
 20
179.2145562065971
 30
0.0
 42
0.9
  0
INSERT
  5
240B
102
{ACAD_REACTORS
330
241F
102
}
330
2401
100
AcDbEntity
  8
LAYER_1
 62
     7
100
AcDbBlockReference
  2
AI9-BLK5
 10
94.32430284288193
 20
179.2145562065971
 30
0.0
 42
0.9200000000000001
  0
INSERT
  5
240C
102
{ACAD_REACTORS
330
2420
102
}
330
2401
100
AcDbEntity
  8
LAYER_1
 62
     7
100
AcDbBlockReference
  2
AI9-BLK4
 10
103.2081705729166
 20
179.2145562065971
 30
0.0
 42
0.9200000000000001
  0
INSERT
  5
240D
330
2401
100
AcDbEntity
  8
LAYER_1
 62
     7
100
AcDbBlockReference
  2
AI9-BLK3
 10
108.850978597005
 20
179.2145562065971
 30
0.0
 42
0.9200000000000001
  0
INSERT
  5
240E
330
2401
100
AcDbEntity
  8
LAYER_1
 62
     7
100
AcDbBlockReference
  2
AI9-BLK2
 10
114.2045708550346
 20
179.2145562065971
 30
0.0
 42
0.9200000000000001
  0
INSERT
  5
240F
330
2401
100
AcDbEntity
  8
LAYER_1
 62
     7
100
AcDbBlockReference
  2
AI9-BLK1
 10
122.4125108506944
 20
179.2145562065971
 30
0.0
 42
0.9200000000000001
  0
HATCH
  5
2410
330
2401
100
AcDbEntity
  8
0
  6
Continuous
100
AcDbHatch
 10
0.0
 20
0.0
 30
0.0
210
0.0
220
0.0
230
1.0
  2
SOLID
 70
     1
 71
     1
 91
        2
 92
       16
 93
        1
 72
     4
 94
        3
 73
     0
 74
     0
 95
       26
 96
       22
 40
0.0
 40
0.0
 40
0.0
 40
0.0
 40
1.0
 40
1.0
 40
1.0
 40
2.0
 40
2.0
 40
2.0
 40
3.0
 40
3.0
 40
3.0
 40
4.0
 40
4.0
 40
4.0
 40
5.0
 40
5.0
 40
5.0
 40
6.0
 40
6.0
 40
6.0
 40
7.0
 40
7.0
 40
7.0
 40
7.0
 10
42.12008192274304
 20
180.0462298177081
 10
42.12008192274304
 20
180.0462298177081
 10
42.12008192274304
 20
186.7401881510414
 10
42.12008192274304
 20
186.7401881510414
 10
42.12008192274304
 20
186.7401881510414
 10
45.23100314670138
 20
186.7401881510414
 10
45.23100314670138
 20
186.7401881510414
 10
45.66853027343749
 20
186.7401881510414
 10
46.01579589843749
 20
186.6064357638887
 10
46.27280002170138
 20
186.3401987847219
 10
46.76751573350694
 20
185.8330807291664
 10
47.01487358940972
 20
184.8822343749997
 10
47.01487358940972
 20
183.4863919270832
 10
47.01487358940972
 20
182.188169704861
 10
46.83848470052082
 20
181.2905707465276
 10
46.48639594184028
 20
180.7929611545137
 10
46.13430718315971
 20
180.2947176649304
 10
45.65888400607638
 20
180.0462298177081
 10
45.06012641059028
 20
180.0462298177081
 10
45.06012641059028
 20
180.0462298177081
 10
42.12008192274304
 20
180.0462298177081
 10
42.12008192274304
 20
180.0462298177081
 97
        1
330
2405
 92
        1
 93
        1
 72
     4
 94
        3
 73
     0
 74
     0
 95
       68
 96
       64
 40
0.0
 40
0.0
 40
0.0
 40
0.0
 40
1.0
 40
1.0
 40
1.0
 40
2.0
 40
2.0
 40
2.0
 40
3.0
 40
3.0
 40
3.0
 40
4.0
 40
4.0
 40
4.0
 40
5.0
 40
5.0
 40
5.0
 40
6.0
 40
6.0
 40
6.0
 40
7.0
 40
7.0
 40
7.0
 40
8.0
 40
8.0
 40
8.0
 40
9.0
 40
9.0
 40
9.0
 40
10.0
 40
10.0
 40
10.0
 40
11.0
 40
11.0
 40
11.0
 40
12.0
 40
12.0
 40
12.0
 40
13.0
 40
13.0
 40
13.0
 40
14.0
 40
14.0
 40
14.0
 40
15.0
 40
15.0
 40
15.0
 40
16.0
 40
16.0
 40
16.0
 40
17.0
 40
17.0
 40
17.0
 40
18.0
 40
18.0
 40
18.0
 40
19.0
 40
19.0
 40
19.0
 40
20.0
 40
20.0
 40
20.0
 40
21.0
 40
21.0
 40
21.0
 40
21.0
 10
40.79716525607638
 20
169.3358964843748
 10
40.79716525607638
 20
169.3358964843748
 10
42.12008192274304
 20
169.3358964843748
 10
42.12008192274304
 20
169.3358964843748
 10
42.12008192274304
 20
169.3358964843748
 10
42.12008192274304
 20
177.8149103732637
 10
42.12008192274304
 20
177.8149103732637
 10
42.12008192274304
 20
177.8149103732637
 10
45.00500488281249
 20
177.8149103732637
 10
45.00500488281249
 20
177.8149103732637
 10
45.52590332031249
 20
177.8149103732637
 10
45.90968695746528
 20
177.6938359374998
 10
46.15635579427083
 20
177.451687065972
 10
46.58216959635415
 20
177.0117621527776
 10
46.80954589843749
 20
176.1458580729164
 10
46.83848470052082
 20
174.8539748263887
 10
46.83848470052082
 20
174.8539748263887
 10
46.92667914496527
 20
171.5564396701386
 10
46.92667914496527
 20
171.5564396701386
 10
46.94597167968749
 20
170.7843524305554
 10
46.96870930989581
 20
170.2639225260415
 10
46.99351399739582
 20
169.9951499565971
 10
47.01831868489581
 20
169.7257434895831
 10
47.0548366970486
 20
169.5057810329859
 10
47.10444607204859
 20
169.3358964843748
 10
47.10444607204859
 20
169.3358964843748
 10
48.73466525607638
 20
169.3358964843748
 10
48.73466525607638
 20
169.3358964843748
 10
48.73466525607638
 20
169.3358964843748
 10
48.73466525607638
 20
169.7821603732636
 10
48.73466525607638
 20
169.7821603732636
 10
48.53278266059028
 20
169.9609194878471
 10
48.39153374565971
 20
170.3628105468748
 10
48.31160753038194
 20
170.9878335503471
 10
48.26062011718749
 20
171.3542263454858
 10
48.22548014322915
 20
171.9120562065971
 10
48.20549858940971
 20
172.6625909288193
 10
48.20549858940971
 20
172.6625909288193
 10
48.16140136718749
 20
175.3205234374999
 10
48.16140136718749
 20
175.3205234374999
 10
48.14141981336803
 20
176.4716814236109
 10
48.03462185329859
 20
177.3033550347219
 10
47.84169650607638
 20
177.8142764756942
 10
47.64808213975693
 20
178.3251979166665
 10
47.35800509982638
 20
178.7372313368054
 10
46.97077636718749
 20
179.0516445312498
 10
47.4021023220486
 20
179.5086846788193
 10
47.73765462239582
 20
180.1134229600693
 10
47.97743326822915
 20
180.8664932725692
 10
48.21721191406249
 20
181.6189296874999
 10
48.33779025607638
 20
182.5868912760414
 10
48.33779025607638
 20
183.7697441406248
 10
48.33779025607638
 20
186.0371957465275
 10
47.89061686197916
 20
187.5921464843749
 10
46.99695909288194
 20
188.4345963541665
 10
46.52567003038194
 20
188.8732534722221
 10
45.92966851128472
 20
189.0932159288193
 10
45.20895453559027
 20
189.0932159288193
 10
45.20895453559027
 20
189.0932159288193
 10
40.79716525607638
 20
189.0932159288193
 10
40.79716525607638
 20
189.0932159288193
 10
40.79716525607638
 20
189.0932159288193
 10
40.79716525607638
 20
169.3358964843748
 10
40.79716525607638
 20
169.3358964843748
 97
        0
 75
     0
 76
     1
 98
        0
  0
HATCH
  5
2411
330
2401
100
AcDbEntity
  8
0
  6
Continuous
100
AcDbHatch
 10
0.0
 20
0.0
 30
0.0
210
0.0
220
0.0
230
1.0
  2
SOLID
 70
     1
 71
     1
 91
        1
 92
        1
 93
        1
 72
     4
 94
        3
 73
     0
 74
     0
 95
       59
 96
       55
 40
0.0
 40
0.0
 40
0.0
 40
0.0
 40
1.0
 40
1.0
 40
1.0
 40
2.0
 40
2.0
 40
2.0
 40
3.0
 40
3.0
 40
3.0
 40
4.0
 40
4.0
 40
4.0
 40
5.0
 40
5.0
 40
5.0
 40
6.0
 40
6.0
 40
6.0
 40
7.0
 40
7.0
 40
7.0
 40
8.0
 40
8.0
 40
8.0
 40
9.0
 40
9.0
 40
9.0
 40
10.0
 40
10.0
 40
10.0
 40
11.0
 40
11.0
 40
11.0
 40
12.0
 40
12.0
 40
12.0
 40
13.0
 40
13.0
 40
13.0
 40
14.0
 40
14.0
 40
14.0
 40
15.0
 40
15.0
 40
15.0
 40
16.0
 40
16.0
 40
16.0
 40
17.0
 40
17.0
 40
17.0
 40
18.0
 40
18.0
 40
18.0
 40
18.0
 10
85.61871880425345
 20
187.4658355034721
 10
86.29120144314233
 20
186.1797124565971
 10
86.66671685112847
 20
184.7193364800346
 10
86.7452650282118
 20
183.0840874565969
 10
86.7452650282118
 20
183.0840874565969
 10
85.42234836154511
 20
183.0840874565969
 10
85.42234836154511
 20
183.0840874565969
 10
85.27696533203123
 20
184.315640190972
 10
84.99171142578125
 20
185.2917046440971
 10
84.56589762369791
 20
186.0122808159719
 10
84.14008382161458
 20
186.7322368706595
 10
83.53994818793401
 20
187.092524956597
 10
82.76617974175344
 20
187.092524956597
 10
81.81740044487847
 20
187.092524956597
 10
81.05258924696178
 20
186.4240386284721
 10
80.47243516710068
 20
185.0883062065971
 10
79.89159206814234
 20
183.7525737847219
 10
79.6015150282118
 20
181.7049468315971
 10
79.6015150282118
 20
178.9454253472221
 10
79.6015150282118
 20
176.684478081597
 10
79.86265326605901
 20
174.8514116753471
 10
80.38561876085069
 20
173.4456060112846
 10
80.90789523654512
 20
172.0391802300345
 10
81.69199896918403
 20
171.3365874565971
 10
82.73724093967013
 20
171.3365874565971
 10
83.69497748480901
 20
171.3365874565971
 10
84.42120361328125
 20
172.0794878472221
 10
84.91523030598958
 20
173.566528862847
 10
85.18601481119791
 20
174.349116753472
 10
85.38445231119791
 20
175.3785112847221
 10
85.51054280598959
 20
176.6547124565971
 10
85.51054280598959
 20
176.6547124565971
 10
86.83345947265625
 20
176.6547124565971
 10
86.83345947265625
 20
176.6547124565971
 10
86.72597249348957
 20
174.6157671440971
 10
86.35114610460069
 20
172.9061040581596
 10
85.70760226779514
 20
171.526343315972
 10
84.93727891710069
 20
169.8650493706596
 10
83.90375027126735
 20
169.0347124565971
 10
82.60701633029514
 20
169.0347124565971
 10
81.48598225911458
 20
169.0347124565971
 10
80.54547119140625
 20
169.7143608940971
 10
79.78479410807292
 20
171.0742778862845
 10
78.78020426432292
 20
172.8726177300345
 10
78.27859836154512
 20
175.6495024956596
 10
78.27859836154512
 20
179.4049321831595
 10
78.27859836154512
 20
182.2562310112846
 10
78.65342475043402
 20
184.594692925347
 10
79.40445556640622
 20
186.4196978081596
 10
80.22301025390625
 20
188.4028325737846
 10
81.34955647786458
 20
189.3943999565971
 10
82.78271620008679
 20
189.3943999565971
 10
84.00090196397568
 20
189.3943999565971
 10
84.94623616536458
 20
188.7513384331595
 10
85.61871880425345
 20
187.4658355034721
 97
        1
330
240A
 75
     0
 76
     1
 98
        1
 10
0.0
 20
0.0
  0
LINE
  5
2412
102
{ACAD_REACTORS
330
2421
102
}
330
2401
100
AcDbEntity
  8
LAYER_1
 62
     7
100
AcDbLine
 10
34.65766059027778
 20
177.4497853732638
 30
0.0
 11
36.19830729166666
 21
186.1658769531249
 31
0.0
  0
LINE
  5
2413
102
{ACAD_REACTORS
330
2421
102
}
330
2401
100
AcDbEntity
  8
LAYER_1
 62
     7
100
AcDbLine
 10
36.19830729166666
 20
186.1658769531249
 30
0.0
 11
37.67556423611111
 21
177.4497853732638
 31
0.0
  0
LINE
  5
2414
102
{ACAD_REACTORS
330
2421
102
}
330
2401
100
AcDbEntity
  8
LAYER_1
 62
     7
100
AcDbLine
 10
37.67556423611111
 20
177.4497853732638
 30
0.0
 11
34.65766059027778
 21
177.4497853732638
 31
0.0
  0
LINE
  5
2415
102
{ACAD_REACTORS
330
2421
102
}
330
2401
100
AcDbEntity
  8
LAYER_1
 62
     7
100
AcDbLine
 10
31.83957248263888
 20
169.3358964843748
 30
0.0
 11
33.22450086805555
 21
169.3358964843748
 31
0.0
  0
LINE
  5
2416
102
{ACAD_REACTORS
330
2421
102
}
330
2401
100
AcDbEntity
  8
LAYER_1
 62
     7
100
AcDbLine
 10
33.22450086805555
 20
169.3358964843748
 30
0.0
 11
34.27043185763887
 21
175.2590353732638
 31
0.0
  0
LINE
  5
2417
102
{ACAD_REACTORS
330
2421
102
}
330
2401
100
AcDbEntity
  8
LAYER_1
 62
     7
100
AcDbLine
 10
34.27043185763887
 20
175.2590353732638
 30
0.0
 11
38.04694552951389
 21
175.2590353732638
 31
0.0
  0
LINE
  5
2418
102
{ACAD_REACTORS
330
2421
102
}
330
2401
100
AcDbEntity
  8
LAYER_1
 62
     7
100
AcDbLine
 10
38.04694552951389
 20
175.2590353732638
 30
0.0
 11
39.05015733506942
 21
169.3358964843748
 31
0.0
  0
LINE
  5
2419
102
{ACAD_REACTORS
330
2421
102
}
330
2401
100
AcDbEntity
  8
LAYER_1
 62
     7
100
AcDbLine
 10
39.05015733506942
 20
169.3358964843748
 30
0.0
 11
40.43508572048611
 21
169.3358964843748
 31
0.0
  0
LINE
  5
241A
102
{ACAD_REACTORS
330
2421
102
}
330
2401
100
AcDbEntity
  8
LAYER_1
 62
     7
100
AcDbLine
 10
40.43508572048611
 20
169.3358964843748
 30
0.0
 11
36.952783203125
 21
189.0932159288193
 31
0.0
  0
LINE
  5
241B
102
{ACAD_REACTORS
330
2421
102
}
330
2401
100
AcDbEntity
  8
LAYER_1
 62
     7
100
AcDbLine
 10
36.952783203125
 20
189.0932159288193
 30
0.0
 11
35.47828233506943
 21
189.0932159288193
 31
0.0
  0
LINE
  5
241C
102
{ACAD_REACTORS
330
2421
102
}
330
2401
100
AcDbEntity
  8
LAYER_1
 62
     7
100
AcDbLine
 10
35.47828233506943
 20
189.0932159288193
 30
0.0
 11
31.83957248263888
 21
169.3358964843748
 31
0.0
  0
HATCH
  5
241D
330
2401
100
AcDbEntity
  8
0
  6
Continuous
100
AcDbHatch
 10
0.0
 20
0.0
 30
0.0
210
0.0
220
0.0
230
1.0
  2
SOLID
 70
     1
 71
     1
 91
        2
 92
       16
 93
        1
 72
     4
 94
        3
 73
     0
 74
     0
 95
       29
 96
       25
 40
0.0
 40
0.0
 40
0.0
 40
0.0
 40
1.0
 40
1.0
 40
1.0
 40
2.0
 40
2.0
 40
2.0
 40
3.0
 40
3.0
 40
3.0
 40
4.0
 40
4.0
 40
4.0
 40
5.0
 40
5.0
 40
5.0
 40
6.0
 40
6.0
 40
6.0
 40
7.0
 40
7.0
 40
7.0
 40
8.0
 40
8.0
 40
8.0
 40
8.0
 10
62.85697292751734
 20
171.3365874565971
 10
61.88338894314235
 20
171.3365874565971
 10
61.18058946397566
 20
172.0714263237844
 10
60.74857449001735
 20
173.5411040581595
 10
60.31587049696178
 20
175.0107817925344
 10
60.10020751953123
 20
176.8165630425344
 10
60.10020751953123
 20
178.9578276909721
 10
60.10020751953123
 20
181.6342534722221
 10
60.35101047092013
 20
183.6589360894095
 10
60.85261637369789
 20
185.032495659722
 10
61.35422227647566
 20
186.4054351128471
 10
62.00741238064235
 20
187.092524956597
 10
62.81218668619789
 20
187.092524956597
 10
63.6369425455729
 20
187.092524956597
 10
64.28806559244789
 20
186.3992339409721
 10
64.76486680772568
 20
185.0126519097221
 10
65.24166802300347
 20
183.6260698784719
 10
65.48006863064235
 20
181.7961040581595
 10
65.48006863064235
 20
179.5239946831596
 10
65.48006863064235
 20
177.3734282769096
 10
65.27336290147568
 20
175.471528862847
 10
64.86132948133678
 20
173.8176763237846
 10
64.4492960611979
 20
172.1632036675345
 10
63.78094753689235
 20
171.3365874565971
 10
62.85697292751734
 20
171.3365874565971
 97
        1
330
2407
 92
        1
 93
        1
 72
     4
 94
        3
 73
     0
 74
     0
 95
       29
 96
       25
 40
0.0
 40
0.0
 40
0.0
 40
0.0
 40
1.0
 40
1.0
 40
1.0
 40
2.0
 40
2.0
 40
2.0
 40
3.0
 40
3.0
 40
3.0
 40
4.0
 40
4.0
 40
4.0
 40
5.0
 40
5.0
 40
5.0
 40
6.0
 40
6.0
 40
6.0
 40
7.0
 40
7.0
 40
7.0
 40
8.0
 40
8.0
 40
8.0
 40
8.0
 10
62.76119927300346
 20
189.4340874565971
 10
61.47273356119789
 20
189.4340874565971
 10
60.50121663411457
 20
188.239741753472
 10
59.84733751085068
 20
185.8516704644094
 10
59.3395304361979
 20
183.9900786675345
 10
59.08597140842012
 20
181.7514556206596
 10
59.08597140842012
 20
179.1351812065971
 10
59.08597140842012
 20
176.2379937065971
 10
59.38362765842011
 20
173.8412407769095
 10
59.97894015842011
 20
171.9449224175346
 10
60.64246554904511
 20
169.9779106987846
 10
61.56023898654511
 20
168.9950249565971
 10
62.7315714518229
 20
168.9950249565971
 10
63.9904093424479
 20
168.9950249565971
 10
64.95641411675345
 20
170.118677300347
 10
65.63027479383679
 20
172.3659819878471
 10
66.20629475911457
 20
174.279663628472
 10
66.49430474175345
 20
176.6813774956594
 10
66.49430474175345
 20
179.5698833550345
 10
66.49430474175345
 20
182.2388677300344
 10
66.24005669487845
 20
184.4291216362844
 10
65.73293863932289
 20
186.141265190972
 10
65.08870578342011
 20
188.336480034722
 10
64.09789632161457
 20
189.4340874565971
 10
62.76119927300346
 20
189.4340874565971
 97
        0
 75
     0
 76
     1
 98
        0
  0
HATCH
  5
241E
330
2401
100
AcDbEntity
  8
0
  6
Continuous
100
AcDbHatch
 10
0.0
 20
0.0
 30
0.0
210
0.0
220
0.0
230
1.0
  2
SOLID
 70
     1
 71
     1
 91
        1
 92
        1
 93
        1
 72
     4
 94
        3
 73
     0
 74
     0
 95
       59
 96
       55
 40
0.0
 40
0.0
 40
0.0
 40
0.0
 40
1.0
 40
1.0
 40
1.0
 40
2.0
 40
2.0
 40
2.0
 40
3.0
 40
3.0
 40
3.0
 40
4.0
 40
4.0
 40
4.0
 40
5.0
 40
5.0
 40
5.0
 40
6.0
 40
6.0
 40
6.0
 40
7.0
 40
7.0
 40
7.0
 40
8.0
 40
8.0
 40
8.0
 40
9.0
 40
9.0
 40
9.0
 40
10.0
 40
10.0
 40
10.0
 40
11.0
 40
11.0
 40
11.0
 40
12.0
 40
12.0
 40
12.0
 40
13.0
 40
13.0
 40
13.0
 40
14.0
 40
14.0
 40
14.0
 40
15.0
 40
15.0
 40
15.0
 40
16.0
 40
16.0
 40
16.0
 40
17.0
 40
17.0
 40
17.0
 40
18.0
 40
18.0
 40
18.0
 40
18.0
 10
49.39440104166666
 20
189.0932159288193
 10
49.39440104166666
 20
189.0932159288193
 10
51.24786241319444
 20
189.0932159288193
 10
51.24786241319444
 20
189.0932159288193
 10
51.24786241319444
 20
189.0932159288193
 10
54.04665798611111
 20
172.3887471788193
 10
54.04665798611111
 20
172.3887471788193
 10
54.04665798611111
 20
172.3887471788193
 10
56.83994140624999
 20
189.0932159288193
 10
56.83994140624999
 20
189.0932159288193
 10
56.83994140624999
 20
189.0932159288193
 10
58.69891493055554
 20
189.0932159288193
 10
58.69891493055554
 20
189.0932159288193
 10
58.69891493055554
 20
189.0932159288193
 10
58.69891493055554
 20
169.3358964843748
 10
58.69891493055554
 20
169.3358964843748
 10
58.69891493055554
 20
169.3358964843748
 10
57.46419270833333
 20
169.3358964843748
 10
57.46419270833333
 20
169.3358964843748
 10
57.46419270833333
 20
169.3358964843748
 10
57.46419270833333
 20
180.9964422743054
 10
57.46419270833333
 20
180.9964422743054
 10
57.46419270833333
 20
181.3996011284721
 10
57.47108289930555
 20
182.0677291666664
 10
57.48624131944444
 20
183.0001924913193
 10
57.50071072048609
 20
183.9326558159721
 10
57.50828993055554
 20
184.932312282986
 10
57.50828993055554
 20
185.9997957899304
 10
57.50828993055554
 20
185.9997957899304
 10
54.700537109375
 20
169.3358964843748
 10
54.700537109375
 20
169.3358964843748
 10
54.700537109375
 20
169.3358964843748
 10
53.38382161458333
 20
169.3358964843748
 10
53.38382161458333
 20
169.3358964843748
 10
53.38382161458333
 20
169.3358964843748
 10
50.58502604166665
 20
185.9997957899304
 10
50.58502604166665
 20
185.9997957899304
 10
50.58502604166665
 20
185.9997957899304
 10
50.58502604166665
 20
185.3944236111109
 10
50.58502604166665
 20
185.3944236111109
 10
50.58502604166665
 20
184.9101258680554
 10
50.59191623263888
 20
184.1729029947915
 10
50.60707465277777
 20
183.1821210937498
 10
50.62154405381943
 20
182.1913391927082
 10
50.62912326388889
 20
181.4629908854165
 10
50.62912326388889
 20
180.9964422743054
 10
50.62912326388889
 20
180.9964422743054
 10
50.62912326388889
 20
169.3358964843748
 10
50.62912326388889
 20
169.3358964843748
 10
50.62912326388889
 20
169.3358964843748
 10
49.39440104166666
 20
169.3358964843748
 10
49.39440104166666
 20
169.3358964843748
 10
49.39440104166666
 20
169.3358964843748
 10
49.39440104166666
 20
189.0932159288193
 10
49.39440104166666
 20
189.0932159288193
 97
        1
330
2406
 75
     0
 76
     1
 98
        1
 10
0.0
 20
0.0
  0
HATCH
  5
241F
330
2401
100
AcDbEntity
  8
0
  6
Continuous
100
AcDbHatch
 10
0.0
 20
0.0
 30
0.0
210
0.0
220
0.0
230
1.0
  2
SOLID
 70
     1
 71
     1
 91
        2
 92
       16
 93
        1
 72
     4
 94
        3
 73
     0
 74
     0
 95
       32
 96
       28
 40
0.0
 40
0.0
 40
0.0
 40
0.0
 40
1.0
 40
1.0
 40
1.0
 40
2.0
 40
2.0
 40
2.0
 40
3.0
 40
3.0
 40
3.0
 40
4.0
 40
4.0
 40
4.0
 40
5.0
 40
5.0
 40
5.0
 40
6.0
 40
6.0
 40
6.0
 40
7.0
 40
7.0
 40
7.0
 40
8.0
 40
8.0
 40
8.0
 40
9.0
 40
9.0
 40
9.0
 40
9.0
 10
91.70051812065969
 20
171.6077853732636
 10
91.70051812065969
 20
171.6077853732636
 10
91.70051812065969
 20
186.7401881510414
 10
91.70051812065969
 20
186.7401881510414
 10
91.70051812065969
 20
186.7401881510414
 10
93.98668348524305
 20
186.7401881510414
 10
93.98668348524305
 20
186.7401881510414
 10
95.02159016927082
 20
186.7401881510414
 10
95.77331000434028
 20
186.0644533420137
 10
96.24322102864582
 20
184.7142515190969
 10
96.71313205295138
 20
183.3640496961804
 10
96.94808756510417
 20
181.4680620659721
 10
96.94808756510417
 20
179.026288628472
 10
96.94808756510417
 20
178.3911232638887
 10
96.91432562934028
 20
177.7027105034721
 10
96.84749077690971
 20
176.9604164496525
 10
96.7324245876736
 20
175.7167094184025
 10
96.55052354600693
 20
174.6974021267359
 10
96.30109863281248
 20
173.9018606770831
 10
95.98414984809028
 20
172.9091770833332
 10
95.57693956163193
 20
172.2378795572914
 10
95.07877875434026
 20
171.8892358940971
 10
94.79076877170138
 20
171.7016022135415
 10
94.43178982204859
 20
171.6077853732636
 10
94.00115288628471
 20
171.6077853732636
 10
94.00115288628471
 20
171.6077853732636
 10
91.70051812065969
 20
171.6077853732636
 10
91.70051812065969
 20
171.6077853732636
 97
        1
330
240B
 92
        1
 93
        1
 72
     4
 94
        3
 73
     0
 74
     0
 95
       26
 96
       22
 40
0.0
 40
0.0
 40
0.0
 40
0.0
 40
1.0
 40
1.0
 40
1.0
 40
2.0
 40
2.0
 40
2.0
 40
3.0
 40
3.0
 40
3.0
 40
4.0
 40
4.0
 40
4.0
 40
5.0
 40
5.0
 40
5.0
 40
6.0
 40
6.0
 40
6.0
 40
7.0
 40
7.0
 40
7.0
 40
7.0
 10
90.37760145399305
 20
169.3358964843748
 10
90.37760145399305
 20
169.3358964843748
 10
94.22990722656248
 20
169.3358964843748
 10
94.22990722656248
 20
169.3358964843748
 10
95.87115071614581
 20
169.3358964843748
 10
97.03008083767359
 20
170.8331625434026
 10
97.70600857204859
 20
173.8283285590275
 10
98.08221299913194
 20
175.5227367621525
 10
98.27100423177082
 20
177.4187243923609
 10
98.27100423177082
 20
179.5169253472221
 10
98.27100423177082
 20
182.233810329861
 10
97.94716525607638
 20
184.4619602864582
 10
97.30086534288195
 20
186.2013752170136
 10
96.57601725260416
 20
188.1290577256942
 10
95.5576470269097
 20
189.0932159288193
 10
94.24437662760416
 20
189.0932159288193
 10
94.24437662760416
 20
189.0932159288193
 10
90.37760145399305
 20
189.0932159288193
 10
90.37760145399305
 20
189.0932159288193
 10
90.37760145399305
 20
189.0932159288193
 10
90.37760145399305
 20
169.3358964843748
 10
90.37760145399305
 20
169.3358964843748
 97
        0
 75
     0
 76
     1
 98
        0
  0
HATCH
  5
2420
330
2401
100
AcDbEntity
  8
0
  6
Continuous
100
AcDbHatch
 10
0.0
 20
0.0
 30
0.0
210
0.0
220
0.0
230
1.0
  2
SOLID
 70
     1
 71
     1
 91
        2
 92
       16
 93
        1
 72
     4
 94
        3
 73
     0
 74
     0
 95
       26
 96
       22
 40
0.0
 40
0.0
 40
0.0
 40
0.0
 40
1.0
 40
1.0
 40
1.0
 40
2.0
 40
2.0
 40
2.0
 40
3.0
 40
3.0
 40
3.0
 40
4.0
 40
4.0
 40
4.0
 40
5.0
 40
5.0
 40
5.0
 40
6.0
 40
6.0
 40
6.0
 40
7.0
 40
7.0
 40
7.0
 40
7.0
 10
100.5623372395832
 20
180.0462298177081
 10
100.5623372395832
 20
180.0462298177081
 10
100.5623372395832
 20
186.7401881510414
 10
100.5623372395832
 20
186.7401881510414
 10
100.5623372395832
 20
186.7401881510414
 10
103.6732584635416
 20
186.7401881510414
 10
103.6732584635416
 20
186.7401881510414
 10
104.1107855902777
 20
186.7401881510414
 10
104.4580512152777
 20
186.6064357638887
 10
104.7150553385415
 20
186.3401987847219
 10
105.2097710503471
 20
185.8330807291664
 10
105.4571289062498
 20
184.8822343749997
 10
105.4571289062498
 20
183.4863919270832
 10
105.4571289062498
 20
182.188169704861
 10
105.280740017361
 20
181.2905707465276
 10
104.9286512586804
 20
180.7929611545137
 10
104.5765624999999
 20
180.2947176649304
 10
104.1011393229166
 20
180.0462298177081
 10
103.5023817274304
 20
180.0462298177081
 10
103.5023817274304
 20
180.0462298177081
 10
100.5623372395832
 20
180.0462298177081
 10
100.5623372395832
 20
180.0462298177081
 97
        1
330
240C
 92
        1
 93
        1
 72
     4
 94
        3
 73
     0
 74
     0
 95
       68
 96
       64
 40
0.0
 40
0.0
 40
0.0
 40
0.0
 40
1.0
 40
1.0
 40
1.0
 40
2.0
 40
2.0
 40
2.0
 40
3.0
 40
3.0
 40
3.0
 40
4.0
 40
4.0
 40
4.0
 40
5.0
 40
5.0
 40
5.0
 40
6.0
 40
6.0
 40
6.0
 40
7.0
 40
7.0
 40
7.0
 40
8.0
 40
8.0
 40
8.0
 40
9.0
 40
9.0
 40
9.0
 40
10.0
 40
10.0
 40
10.0
 40
11.0
 40
11.0
 40
11.0
 40
12.0
 40
12.0
 40
12.0
 40
13.0
 40
13.0
 40
13.0
 40
14.0
 40
14.0
 40
14.0
 40
15.0
 40
15.0
 40
15.0
 40
16.0
 40
16.0
 40
16.0
 40
17.0
 40
17.0
 40
17.0
 40
18.0
 40
18.0
 40
18.0
 40
19.0
 40
19.0
 40
19.0
 40
20.0
 40
20.0
 40
20.0
 40
21.0
 40
21.0
 40
21.0
 40
21.0
 10
99.23942057291661
 20
169.3358964843748
 10
99.23942057291661
 20
169.3358964843748
 10
100.5623372395832
 20
169.3358964843748
 10
100.5623372395832
 20
169.3358964843748
 10
100.5623372395832
 20
169.3358964843748
 10
100.5623372395832
 20
177.8149103732637
 10
100.5623372395832
 20
177.8149103732637
 10
100.5623372395832
 20
177.8149103732637
 10
103.4472601996527
 20
177.8149103732637
 10
103.4472601996527
 20
177.8149103732637
 10
103.9681586371527
 20
177.8149103732637
 10
104.3519422743053
 20
177.6938359374998
 10
104.5986111111109
 20
177.451687065972
 10
105.0244249131943
 20
177.0117621527776
 10
105.2518012152777
 20
176.1458580729164
 10
105.280740017361
 20
174.8539748263887
 10
105.280740017361
 20
174.8539748263887
 10
105.3689344618053
 20
171.5564396701386
 10
105.3689344618053
 20
171.5564396701386
 10
105.3882269965277
 20
170.7843524305554
 10
105.4109646267359
 20
170.2639225260415
 10
105.4357693142359
 20
169.9951499565971
 10
105.4605740017359
 20
169.7257434895831
 10
105.4970920138888
 20
169.5057810329859
 10
105.5467013888887
 20
169.3358964843748
 10
105.5467013888887
 20
169.3358964843748
 10
107.1769205729166
 20
169.3358964843748
 10
107.1769205729166
 20
169.3358964843748
 10
107.1769205729166
 20
169.3358964843748
 10
107.1769205729166
 20
169.7821603732636
 10
107.1769205729166
 20
169.7821603732636
 10
106.9750379774303
 20
169.9609194878471
 10
106.8337890624998
 20
170.3628105468748
 10
106.7538628472221
 20
170.9878335503471
 10
106.7028754340275
 20
171.3542263454858
 10
106.6677354600692
 20
171.9120562065971
 10
106.6477539062498
 20
172.6625909288193
 10
106.6477539062498
 20
172.6625909288193
 10
106.6036566840277
 20
175.3205234374999
 10
106.6036566840277
 20
175.3205234374999
 10
106.5836751302082
 20
176.4716814236109
 10
106.4768771701387
 20
177.3033550347219
 10
106.2839518229166
 20
177.8142764756942
 10
106.0903374565971
 20
178.3251979166665
 10
105.8002604166666
 20
178.7372313368054
 10
105.4130316840277
 20
179.0516445312498
 10
105.8443576388887
 20
179.5086846788193
 10
106.179909939236
 20
180.1134229600693
 10
106.4196885850692
 20
180.8664932725692
 10
106.6594672309027
 20
181.6189296874999
 10
106.7800455729166
 20
182.5868912760414
 10
106.7800455729166
 20
183.7697441406248
 10
106.7800455729166
 20
186.0371957465275
 10
106.3328721788193
 20
187.5921464843749
 10
105.4392144097221
 20
188.4345963541665
 10
104.9679253472221
 20
188.8732534722221
 10
104.3719238281249
 20
189.0932159288193
 10
103.6512098524303
 20
189.0932159288193
 10
103.6512098524303
 20
189.0932159288193
 10
99.23942057291661
 20
189.0932159288193
 10
99.23942057291661
 20
189.0932159288193
 10
99.23942057291661
 20
189.0932159288193
 10
99.23942057291661
 20
169.3358964843748
 10
99.23942057291661
 20
169.3358964843748
 97
        0
 75
     0
 76
     1
 98
        0
  0
HATCH
  5
2421
330
2401
100
AcDbEntity
  8
0
  6
Continuous
100
AcDbHatch
 10
0.0
 20
0.0
 30
0.0
210
0.0
220
0.0
230
1.0
  2
SOLID
 70
     1
 71
     1
 91
        2
 92
        1
 93
        8
 72
     1
 10
35.47828233506943
 20
189.0932159288193
 11
31.83957248263888
 21
169.3358964843748
 72
     1
 10
31.83957248263888
 20
169.3358964843748
 11
33.22450086805555
 21
169.3358964843748
 72
     1
 10
33.22450086805555
 20
169.3358964843748
 11
34.27043185763887
 21
175.2590353732638
 72
     1
 10
34.27043185763887
 20
175.2590353732638
 11
38.04694552951389
 21
175.2590353732638
 72
     1
 10
38.04694552951389
 20
175.2590353732638
 11
39.05015733506942
 21
169.3358964843748
 72
     1
 10
39.05015733506942
 20
169.3358964843748
 11
40.43508572048611
 21
169.3358964843748
 72
     1
 10
40.43508572048611
 20
169.3358964843748
 11
36.952783203125
 21
189.0932159288193
 72
     1
 10
36.952783203125
 20
189.0932159288193
 11
35.47828233506943
 21
189.0932159288193
 97
        8
330
241C
330
2415
330
2416
330
2417
330
2418
330
2419
330
241A
330
241B
 92
       16
 93
        3
 72
     1
 10
37.67556423611111
 20
177.4497853732638
 11
34.65766059027778
 21
177.4497853732638
 72
     1
 10
34.65766059027778
 20
177.4497853732638
 11
36.19830729166666
 21
186.1658769531249
 72
     1
 10
36.19830729166666
 20
186.1658769531249
 11
37.67556423611111
 21
177.4497853732638
 97
        3
330
2414
330
2412
330
2413
 75
     0
 76
     1
 98
        1
 10
0.0
 20
0.0
  0
HATCH
  5
2422
330
2401
100
AcDbEntity
  8
0
  6
Continuous
100
AcDbHatch
 10
0.0
 20
0.0
 30
0.0
210
0.0
220
0.0
230
1.0
  2
SOLID
 70
     1
 71
     1
 91
        1
 92
        1
 93
        1
 72
     4
 94
        3
 73
     0
 74
     0
 95
      113
 96
      109
 40
0.0
 40
0.0
 40
0.0
 40
0.0
 40
1.0
 40
1.0
 40
1.0
 40
2.0
 40
2.0
 40
2.0
 40
3.0
 40
3.0
 40
3.0
 40
4.0
 40
4.0
 40
4.0
 40
5.0
 40
5.0
 40
5.0
 40
6.0
 40
6.0
 40
6.0
 40
7.0
 40
7.0
 40
7.0
 40
8.0
 40
8.0
 40
8.0
 40
9.0
 40
9.0
 40
9.0
 40
10.0
 40
10.0
 40
10.0
 40
11.0
 40
11.0
 40
11.0
 40
12.0
 40
12.0
 40
12.0
 40
13.0
 40
13.0
 40
13.0
 40
14.0
 40
14.0
 40
14.0
 40
15.0
 40
15.0
 40
15.0
 40
16.0
 40
16.0
 40
16.0
 40
17.0
 40
17.0
 40
17.0
 40
18.0
 40
18.0
 40
18.0
 40
19.0
 40
19.0
 40
19.0
 40
20.0
 40
20.0
 40
20.0
 40
21.0
 40
21.0
 40
21.0
 40
22.0
 40
22.0
 40
22.0
 40
23.0
 40
23.0
 40
23.0
 40
24.0
 40
24.0
 40
24.0
 40
25.0
 40
25.0
 40
25.0
 40
26.0
 40
26.0
 40
26.0
 40
27.0
 40
27.0
 40
27.0
 40
28.0
 40
28.0
 40
28.0
 40
29.0
 40
29.0
 40
29.0
 40
30.0
 40
30.0
 40
30.0
 40
31.0
 40
31.0
 40
31.0
 40
32.0
 40
32.0
 40
32.0
 40
33.0
 40
33.0
 40
33.0
 40
34.0
 40
34.0
 40
34.0
 40
35.0
 40
35.0
 40
35.0
 40
36.0
 40
36.0
 40
36.0
 40
36.0
 10
193.3039632161458
 20
186.1548733181423
 10
193.3039632161458
 20
186.1860514322916
 10
193.3039632161458
 20
219.6932223849826
 10
193.3039632161458
 20
219.6932223849826
 10
193.3039632161458
 20
219.6932223849826
 10
193.2974175347219
 20
219.7488606770833
 10
193.2974175347219
 20
219.7488606770833
 10
191.5293945312499
 20
235.455740017361
 10
175.1458984374999
 20
235.2467949761284
 10
174.9808783637151
 20
235.2428331163193
 10
174.9808783637151
 20
235.2428331163193
 10
125.8827555338541
 20
235.2430053710937
 10
125.8827555338541
 20
235.2430053710937
 10
125.8827555338541
 20
235.2430053710937
 10
125.8827555338541
 20
255.5278998480901
 10
125.8827555338541
 20
255.5278998480901
 10
125.8827555338541
 20
255.5278998480901
 10
84.5626247829861
 20
255.5278998480901
 10
84.5626247829861
 20
255.5278998480901
 10
84.5626247829861
 20
255.5278998480901
 10
84.55711263020829
 20
233.7919311523436
 10
84.55711263020829
 20
233.7919311523436
 10
84.55711263020829
 20
233.7919311523436
 10
64.42052951388888
 20
233.7919311523436
 10
64.42052951388888
 20
233.7919311523436
 10
64.42052951388888
 20
233.7919311523436
 10
64.41501736111111
 20
255.5278998480901
 10
64.41501736111111
 20
255.5278998480901
 10
64.41501736111111
 20
255.5278998480901
 10
23.91757541232637
 20
255.5278998480901
 10
23.91757541232637
 20
255.5278998480901
 10
23.91757541232637
 20
255.5278998480901
 10
23.91757541232637
 20
233.2393378363715
 10
23.91757541232637
 20
233.2393378363715
 10
23.91757541232637
 20
233.2393378363715
 10
43.65624999999999
 20
233.2393378363715
 10
43.65624999999999
 20
233.2393378363715
 10
43.65624999999999
 20
233.2393378363715
 10
43.65624999999999
 20
211.5188720703125
 10
43.65624999999999
 20
211.5188720703125
 10
43.65624999999999
 20
211.5188720703125
 10
23.91757541232637
 20
211.5188720703125
 10
23.91757541232637
 20
211.5188720703125
 10
23.91757541232637
 20
211.5188720703125
 10
23.91757541232637
 20
189.2303100585936
 10
23.91757541232637
 20
189.2303100585936
 10
23.91757541232637
 20
189.2303100585936
 10
64.41501736111111
 20
189.2303100585936
 10
64.41501736111111
 20
189.2303100585936
 10
64.41501736111111
 20
189.2303100585936
 10
64.42052951388888
 20
211.069976128472
 10
64.42052951388888
 20
211.069976128472
 10
64.42052951388888
 20
211.069976128472
 10
84.55711263020829
 20
211.069976128472
 10
84.55711263020829
 20
211.069976128472
 10
84.55711263020829
 20
211.069976128472
 10
84.5626247829861
 20
189.2303100585936
 10
84.5626247829861
 20
189.2303100585936
 10
84.5626247829861
 20
189.2303100585936
 10
125.8827555338541
 20
189.2303100585936
 10
125.8827555338541
 20
189.2303100585936
 10
125.8827555338541
 20
189.2303100585936
 10
125.8827555338541
 20
211.5188720703125
 10
125.8827555338541
 20
211.5188720703125
 10
125.8827555338541
 20
211.5188720703125
 10
105.3213921440971
 20
211.5188720703125
 10
105.3213921440971
 20
211.5188720703125
 10
105.3213921440971
 20
211.5188720703125
 10
105.3213921440971
 20
233.2393378363715
 10
105.3213921440971
 20
233.2393378363715
 10
105.3213921440971
 20
233.2393378363715
 10
175.0046495225693
 20
233.243127441406
 10
175.0046495225693
 20
233.243127441406
 10
175.6268337673611
 20
233.2560465494791
 10
189.7165852864583
 20
233.3962619357638
 10
191.3037407769094
 20
219.5690266927083
 10
191.3037407769094
 20
219.4332899305555
 10
191.3037407769094
 20
186.1142211914062
 10
191.3037407769094
 20
186.1142211914062
 10
191.3037407769094
 20
186.1142211914062
 10
191.3051188151039
 20
186.0880384657115
 10
191.3051188151039
 20
186.0880384657115
 10
191.3054633246526
 20
186.0787367078991
 10
191.3109754774304
 20
185.9566080729166
 10
191.3109754774304
 20
185.7399115668401
 10
191.3109754774304
 20
184.2090833875865
 10
191.0488037109374
 20
177.9643310546874
 10
186.9866916232638
 20
173.5652886284722
 10
184.2540418836804
 20
170.6064683702255
 10
180.3224989149304
 20
169.0308539496526
 10
175.300927734375
 20
168.8825425889756
 10
175.300927734375
 20
168.8825425889756
 10
107.0094889322916
 20
168.8828870985243
 10
107.0094889322916
 20
168.8828870985243
 10
107.0094889322916
 20
168.8828870985243
 10
107.0094889322916
 20
166.8830091688368
 10
107.0094889322916
 20
166.8830091688368
 10
107.0094889322916
 20
166.8830091688368
 10
175.3305555555555
 20
166.8830091688368
 10
175.3305555555555
 20
166.8830091688368
 10
180.9467502170138
 20
167.0485460069444
 10
185.3571614583333
 20
168.8448187934026
 10
188.4687717013888
 20
172.2223904079861
 10
192.9649658203124
 20
177.1034016927083
 10
193.3136094835069
 20
183.7202243381076
 10
193.3136094835069
 20
185.6520616319443
 10
193.3136094835069
 20
185.9247409396701
 10
193.3070638020833
 20
186.0868326822916
 10
193.3039632161458
 20
186.1548733181423
 97
        1
330
2402
 75
     0
 76
     1
 98
        1
 10
0.0
 20
0.0
  0
HATCH
  5
2423
330
2401
100
AcDbEntity
  8
0
  6
Continuous
100
AcDbHatch
 10
0.0
 20
0.0
 30
0.0
210
0.0
220
0.0
230
1.0
  2
SOLID
 70
     1
 71
     1
 91
        2
 92
        1
 93
        1
 72
     4
 94
        3
 73
     0
 74
     0
 95
       23
 96
       19
 40
0.0
 40
0.0
 40
0.0
 40
0.0
 40
1.0
 40
1.0
 40
1.0
 40
2.0
 40
2.0
 40
2.0
 40
3.0
 40
3.0
 40
3.0
 40
4.0
 40
4.0
 40
4.0
 40
5.0
 40
5.0
 40
5.0
 40
6.0
 40
6.0
 40
6.0
 40
6.0
 10
148.6593153211804
 20
211.3929538302949
 10
148.6593153211804
 20
211.3929538302949
 10
148.6593153211804
 20
189.630802408854
 10
148.6593153211804
 20
189.630802408854
 10
148.6593153211804
 20
189.630802408854
 10
161.3152180989583
 20
189.630802408854
 10
161.3152180989583
 20
189.630802408854
 10
162.8431179470484
 20
189.630802408854
 10
170.4657362196179
 20
190.1880466037324
 10
170.4657362196179
 20
201.1911648220484
 10
170.4657362196179
 20
211.1288872612845
 10
162.3356553819444
 20
211.3914035373261
 10
162.2536621093749
 20
211.3927815755205
 10
162.2536621093749
 20
211.3927815755205
 10
149.6594265407986
 20
211.3929538302949
 10
149.6594265407986
 20
211.3929538302949
 10
149.6594265407986
 20
211.3929538302949
 10
148.6593153211804
 20
211.3929538302949
 10
148.6593153211804
 20
211.3929538302949
 97
        1
330
2403
 92
       16
 93
        1
 72
     4
 94
        3
 73
     0
 74
     0
 95
       20
 96
       16
 40
0.0
 40
0.0
 40
0.0
 40
0.0
 40
1.0
 40
1.0
 40
1.0
 40
2.0
 40
2.0
 40
2.0
 40
3.0
 40
3.0
 40
3.0
 40
4.0
 40
4.0
 40
4.0
 40
5.0
 40
5.0
 40
5.0
 40
5.0
 10
162.2354031032985
 20
209.3930759006075
 10
162.467947048611
 20
209.3861857096352
 10
168.4655137803819
 20
209.1283203124997
 10
168.4655137803819
 20
201.1911648220484
 10
168.4655137803819
 20
192.3202162000866
 10
162.9926350911458
 20
191.6306803385414
 10
161.3152180989583
 20
191.6306803385414
 10
161.3152180989583
 20
191.6306803385414
 10
152.3310980902776
 20
191.6306803385414
 10
150.6595377604166
 20
191.6306803385414
 10
150.6595377604166
 20
193.3373806423609
 10
150.6595377604166
 20
207.686375596788
 10
150.6595377604166
 20
209.3930759006075
 10
152.353835720486
 20
209.3930759006075
 10
162.2354031032985
 20
209.3930759006075
 10
162.2354031032985
 20
209.3930759006075
 97
        0
 75
     0
 76
     1
 98
        0
  0
ENDBLK
  5
2425
330
2401
100
AcDbEntity
  8
0
100
AcDbBlockEnd
  0
BLOCK
  5
2428
330
2426
100
AcDbEntity
  8
0
100
AcDbBlockBegin
  2
HD logo-new
 70
     0
 10
0.0
 20
0.0
 30
0.0
  3
HD logo-new
  1

  0
INSERT
  5
2427
330
2426
100
AcDbEntity
  8
0
 62
     3
100
AcDbBlockReference
  2
HD_LLC_logo_OT5
 10
-27.1607188578505
 20
-68.37367811463031
 30
0.0
 41
0.2999999999999971
 42
0.3000000000000007
 43
0.3
  0
ENDBLK
  5
2429
330
2426
100
AcDbEntity
  8
0
100
AcDbBlockEnd
  0
BLOCK
  5
242C
330
242A
100
AcDbEntity
  8
0
100
AcDbBlockBegin
  2
HD Logo
 70
     0
 10
0.0
 20
0.0
 30
0.0
  3
HD Logo
  1

  0
INSERT
  5
242B
330
242A
100
AcDbEntity
  8
0
100
AcDbBlockReference
  2
HD logo-new
 10
0.9700256734946606
 20
7.273795608420527
 30
0.0
  0
ENDBLK
  5
242D
330
242A
100
AcDbEntity
  8
0
100
AcDbBlockEnd
  0
BLOCK
  5
2444
330
2442
100
AcDbEntity
  8
0
100
AcDbBlockBegin
  2
Harmonic Drive LLC
 70
     0
 10
0.0
 20
0.0
 30
0.0
  3
Harmonic Drive LLC
  1

  0
MTEXT
  5
2443
330
2442
100
AcDbEntity
  8
0
100
AcDbMText
 10
8.730232253264317
 20
-1.454758693481394
 30
0.0
 40
5.25
 41
158.5992
 71
     5
 72
     5
  1
{\fArial|b0|i0|c0|p34;Harmonic Drive LLC\P800-921-3332\Pwww.harmonicdrive.net}
 73
     1
 44
1.0
  0
ENDBLK
  5
2445
330
2442
100
AcDbEntity
  8
0
100
AcDbBlockEnd
  0
BLOCK
  5
2458
330
2455
100
AcDbEntity
  8
0
100
AcDbBlockBegin
  2
NTC
 70
     0
 10
0.0
 20
0.0
 30
0.0
  3
NTC
  1

  0
LWPOLYLINE
  5
2456
330
2455
100
AcDbEntity
  8
0
100
AcDbPolyline
 90
        8
 70
     1
 43
0.0
 10
4.581008201925953
 20
-10.78862239032818
 10
319.3921777697513
 20
-10.78862239032818
 42
-0.4142135623730951
 10
324.9046777697513
 20
-16.30112239032816
 10
324.9046777697513
 20
-117.4075202476924
 42
-0.4142135623730951
 10
319.3921777697513
 20
-122.9200202476925
 10
4.581008201925838
 20
-122.9200202476925
 42
-0.4142135623730951
 10
-0.9314917980741483
 20
-117.4075202476924
 10
-0.9314917980740915
 20
-16.30112239032816
 42
-0.4142135623730951
  0
MTEXT
  5
2457
330
2455
100
AcDbEntity
  8
0
  6
Continuous
370
    30
100
AcDbMText
 10
21.65307678143926
 20
-17.4535155144544
 30
0.0
 40
8.75
 41
294.5432999999998
 71
     1
 72
     5
  3
{\fTxt|b1|i0|c0|p2;Notice:\P\Ftxt.shx;\H0.5714x;All specifications and dimensions shown in the drawing are subject to change without notice. This drawing is the property of Harmonic Drive LLC.   This data is believed to be accurate, however, Harmonic
  1
 Drive LLC assumes no liability for any errors or omissions in the specifications, models, or drawings.\P\PHarmonic Drive LLC\PTel: 800-921-3332\Pwww.harmonicdrive.net}
 73
     1
 44
1.0
  0
ENDBLK
  5
2459
330
2455
100
AcDbEntity
  8
0
100
AcDbBlockEnd
  0
ENDSEC
  0
SECTION
  2
ENTITIES
  0
LINE
  5
2156
330
2136
100
AcDbEntity
  8
1
  6
CENTER
 62
     3
100
AcDbLine
 10
145.7901784440339
 20
184.6200911515364
 30
0.0
 11
159.2901783087635
 21
184.620091151537
 31
0.0
  0
LINE
  5
2157
330
2136
100
AcDbEntity
  8
1
  6
CENTER
 62
     3
100
AcDbLine
 10
145.7901784440339
 20
184.6200911515364
 30
0.0
 11
159.2901783087635
 21
184.620091151537
 31
0.0
  0
LINE
  5
2158
330
2136
100
AcDbEntity
  8
1
  6
CENTER
 62
     3
100
AcDbLine
 10
64.2901783087636
 20
184.620091151537
 30
0.0
 11
145.2901789470925
 21
184.6200911515364
 31
0.0
  0
LINE
  5
2159
330
2136
100
AcDbEntity
  8
1
 62
     7
100
AcDbLine
 10
252.2436619455708
 20
213.1265911515364
 30
0.0
 11
253.0439323852078
 21
213.1056353325699
 31
0.0
  0
LINE
  5
215A
330
2136
100
AcDbEntity
  8
1
 62
     7
100
AcDbLine
 10
251.2836619455708
 20
213.1265911515364
 30
0.0
 11
252.2436619455708
 21
213.1265911515364
 31
0.0
  0
LINE
  5
215B
330
2136
100
AcDbEntity
  8
1
 62
     7
100
AcDbLine
 10
251.0336619455708
 20
212.8765911515364
 30
0.0
 11
251.0336619455708
 21
211.3826777585301
 31
0.0
  0
LINE
  5
215C
330
2136
100
AcDbEntity
  8
1
 62
     7
100
AcDbLine
 10
250.8180990042506
 20
209.627058487388
 30
0.0
 11
251.0336619455708
 21
211.3826777585301
 31
0.0
  0
LINE
  5
215D
330
2136
100
AcDbEntity
  8
1
 62
     7
100
AcDbLine
 10
252.2436619455708
 20
209.3465911515364
 30
0.0
 11
252.2436619455708
 21
213.1265911515364
 31
0.0
  0
LINE
  5
215E
330
2136
100
AcDbEntity
  8
1
 62
     7
100
AcDbLine
 10
252.2436619455708
 20
159.8865911515366
 30
0.0
 11
253.1091385620657
 21
159.8865911515366
 31
0.0
  0
LINE
  5
215F
330
2136
100
AcDbEntity
  8
1
 62
     7
100
AcDbLine
 10
252.2436619455708
 20
156.1065911515368
 30
0.0
 11
252.2436619455708
 21
159.8865911515366
 31
0.0
  0
LINE
  5
2160
330
2136
100
AcDbEntity
  8
1
 62
     7
100
AcDbLine
 10
252.2436619455708
 20
159.8865911515366
 30
0.0
 11
251.0662355421611
 21
159.8865911515366
 31
0.0
  0
LINE
  5
2161
330
2136
100
AcDbEntity
  8
1
 62
     7
100
AcDbLine
 10
251.0336619455708
 20
157.8505045445431
 30
0.0
 11
250.8180990042506
 21
159.6061238156854
 31
0.0
  0
LINE
  5
2162
330
2136
100
AcDbEntity
  8
1
 62
     7
100
AcDbLine
 10
252.2436619455708
 20
156.1065911515368
 30
0.0
 11
251.2836619455708
 21
156.1065911515368
 31
0.0
  0
LINE
  5
2163
330
2136
100
AcDbEntity
  8
1
 62
     7
100
AcDbLine
 10
253.0439323852078
 20
156.127546970503
 30
0.0
 11
252.2436619455708
 21
156.1065911515368
 31
0.0
  0
LINE
  5
2164
330
2136
100
AcDbEntity
  8
1
 62
     7
100
AcDbLine
 10
255.1217869455708
 20
207.2225911515368
 30
0.0
 11
257.9967869455708
 21
207.2225911515368
 31
0.0
  0
LINE
  5
2165
330
2136
100
AcDbEntity
  8
1
 62
     7
100
AcDbLine
 10
258.2967869455708
 20
207.5225911515368
 30
0.0
 11
257.9967869455708
 21
207.2225911515368
 31
0.0
  0
LINE
  5
2166
330
2136
100
AcDbEntity
  8
1
 62
     7
100
AcDbLine
 10
252.2467869455708
 20
207.2225911515368
 30
0.0
 11
255.1217869455708
 21
207.2225911515368
 31
0.0
  0
LINE
  5
2167
330
2136
100
AcDbEntity
  8
1
 62
     7
100
AcDbLine
 10
252.2467869455708
 20
207.2225911515368
 30
0.0
 11
251.9467869455708
 21
207.5225911515368
 31
0.0
  0
LINE
  5
216C
330
2136
100
AcDbEntity
  8
1
  6
CENTER
 62
     3
100
AcDbLine
 10
336.3067869448692
 20
214.1732080552837
 30
0.0
 11
332.9317869447334
 21
220.0188795307502
 31
0.0
  0
LINE
  5
216D
330
2136
100
AcDbEntity
  8
1
  6
CENTER
 62
     3
100
AcDbLine
 10
323.8161700410159
 20
201.6825911508492
 30
0.0
 11
317.9704985653927
 21
205.057591150713
 31
0.0
  0
LINE
  5
216E
330
2136
100
AcDbEntity
  8
1
  6
CENTER
 62
     3
100
AcDbLine
 10
323.8161700418098
 20
167.5575911508493
 30
0.0
 11
317.9704985663434
 21
164.1825911507133
 31
0.0
  0
LINE
  5
216F
330
2136
100
AcDbEntity
  8
1
  6
CENTER
 62
     3
100
AcDbLine
 10
336.3067869462444
 20
155.0669742469958
 30
0.0
 11
332.9317869463803
 21
149.2213027713725
 31
0.0
  0
LINE
  5
2170
330
2136
100
AcDbEntity
  8
1
  6
DIVIDE
 62
     7
100
AcDbLine
 10
261.8692869454414
 20
217.6200911515368
 30
0.0
 11
260.3692869454415
 21
217.6200911515368
 31
0.0
  0
LINE
  5
2171
330
2136
100
AcDbEntity
  8
1
  6
DIVIDE
 62
     7
100
AcDbLine
 10
261.8692869454414
 20
208.3959286939264
 30
0.0
 11
261.8692869454414
 21
217.6200911515368
 31
0.0
  0
LINE
  5
2172
330
2136
100
AcDbEntity
  8
1
  6
DIVIDE
 62
     7
100
AcDbLine
 10
261.8692869454414
 20
208.3959286939264
 30
0.0
 11
261.8692869454414
 21
217.6200911515368
 31
0.0
  0
LINE
  5
2173
330
2136
100
AcDbEntity
  8
1
  6
DIVIDE
 62
     7
100
AcDbLine
 10
227.369286945253
 20
208.9309849855011
 30
0.0
 11
227.369286945253
 21
217.6200911515368
 31
0.0
  0
LINE
  5
2174
330
2136
100
AcDbEntity
  8
1
  6
DIVIDE
 62
     7
100
AcDbLine
 10
227.369286945253
 20
217.6200911515368
 30
0.0
 11
238.5299924244434
 21
217.6200911515368
 31
0.0
  0
LINE
  5
2175
330
2136
100
AcDbEntity
  8
1
  6
CENTER
 62
     3
100
AcDbLine
 10
111.7901789470925
 20
232.1200905132078
 30
0.0
 11
111.7901789470925
 21
137.1200905132079
 31
0.0
  0
LINE
  5
2176
330
2136
100
AcDbEntity
  8
1
  6
CENTER
 62
     3
100
AcDbLine
 10
264.9578286336967
 20
184.6200911515364
 30
0.0
 11
220.5957552194948
 21
184.6200911515364
 31
0.0
  0
LINE
  5
2177
330
2136
100
AcDbEntity
  8
1
  6
DIVIDE
 62
     7
100
AcDbLine
 10
227.369286945253
 20
151.6200911515368
 30
0.0
 11
227.369286945253
 21
160.3091973175724
 31
0.0
  0
LINE
  5
2178
330
2136
100
AcDbEntity
  8
1
  6
DIVIDE
 62
     7
100
AcDbLine
 10
238.5299924244434
 20
151.6200911515368
 30
0.0
 11
227.369286945253
 21
151.6200911515368
 31
0.0
  0
LINE
  5
2179
330
2136
100
AcDbEntity
  8
1
  6
DIVIDE
 62
     7
100
AcDbLine
 10
261.8692869454414
 20
151.6200911515368
 30
0.0
 11
261.8692869454414
 21
160.844253609147
 31
0.0
  0
LINE
  5
217A
330
2136
100
AcDbEntity
  8
1
 62
     7
100
AcDbLine
 10
260.3692869454415
 20
151.6200911515368
 30
0.0
 11
260.3692869455231
 21
152.6170911515364
 31
0.0
  0
LINE
  5
217B
330
2136
100
AcDbEntity
  8
1
  6
DIVIDE
 62
     7
100
AcDbLine
 10
260.3692869454415
 20
151.6200911515368
 30
0.0
 11
261.8692869454414
 21
151.6200911515368
 31
0.0
  0
LINE
  5
217C
330
2136
100
AcDbEntity
  8
1
 62
     7
100
AcDbLine
 10
250.8692869455418
 20
162.0140914910703
 30
0.0
 11
250.8692869455418
 21
171.6200911515366
 31
0.0
  0
LINE
  5
217D
330
2136
100
AcDbEntity
  8
1
 62
     7
100
AcDbLine
 10
250.8692869455418
 20
207.2260908120135
 30
0.0
 11
250.8692869455418
 21
197.6200909562875
 31
0.0
  0
LINE
  5
217E
330
2136
100
AcDbEntity
  8
1
 62
     7
100
AcDbLine
 10
260.3692869455231
 20
152.6170911515364
 30
0.0
 11
260.3692869455379
 21
152.8010911515368
 31
0.0
  0
LINE
  5
217F
330
2136
100
AcDbEntity
  8
1
 62
     7
100
AcDbLine
 10
260.3692869455231
 20
152.6170911515364
 30
0.0
 11
247.3692869768651
 21
152.6170911515364
 31
0.0
  0
LINE
  5
2180
330
2136
100
AcDbEntity
  8
1
 62
     7
100
AcDbLine
 10
247.7692869455708
 20
153.2010911515367
 30
0.0
 11
247.3692869562077
 21
152.8010911515368
 31
0.0
  0
LINE
  5
2181
330
2136
100
AcDbEntity
  8
1
 62
     7
100
AcDbLine
 10
259.9692869455708
 20
153.2010911515367
 30
0.0
 11
260.3692869455379
 21
152.8010911515368
 31
0.0
  0
LINE
  5
2182
330
2136
100
AcDbEntity
  8
1
 62
     7
100
AcDbLine
 10
247.3692869562077
 20
152.8010911515368
 30
0.0
 11
247.3692869902721
 21
151.5200911452483
 31
0.0
  0
LINE
  5
2183
330
2136
100
AcDbEntity
  8
1
 62
     7
100
AcDbLine
 10
259.9692869455708
 20
153.2010911515367
 30
0.0
 11
247.7692869455708
 21
153.2010911515367
 31
0.0
  0
LINE
  5
2184
330
2136
100
AcDbEntity
  8
1
 62
     7
100
AcDbLine
 10
260.3692869452574
 20
149.37009171488
 30
0.0
 11
260.3692869454415
 21
151.6200911515368
 31
0.0
  0
LINE
  5
2185
330
2136
100
AcDbEntity
  8
1
 62
     7
100
AcDbLine
 10
259.9692869455708
 20
216.0390911515368
 30
0.0
 11
260.3692869455708
 21
216.4390911515368
 31
0.0
  0
LINE
  5
2186
330
2136
100
AcDbEntity
  8
1
 62
     7
100
AcDbLine
 10
247.3692869562742
 20
216.4390911515368
 30
0.0
 11
247.7692869455708
 21
216.0390911515368
 31
0.0
  0
LINE
  5
2187
330
2136
100
AcDbEntity
  8
1
 62
     7
100
AcDbLine
 10
260.3692869455708
 20
216.6230911515368
 30
0.0
 11
260.3692869455708
 21
216.4390911515368
 31
0.0
  0
LINE
  5
2188
330
2136
100
AcDbEntity
  8
1
 62
     7
100
AcDbLine
 10
247.3692869455708
 20
216.6230911515368
 30
0.0
 11
260.3692869455708
 21
216.6230911515368
 31
0.0
  0
LINE
  5
2189
330
2136
100
AcDbEntity
  8
1
 62
     7
100
AcDbLine
 10
247.3692869562742
 20
216.4390911515368
 30
0.0
 11
247.3692869905518
 21
217.7200911576275
 31
0.0
  0
LINE
  5
218A
330
2136
100
AcDbEntity
  8
1
 62
     7
100
AcDbLine
 10
259.9692869455708
 20
216.0390911515368
 30
0.0
 11
247.7692869455708
 21
216.0390911515368
 31
0.0
  0
LINE
  5
218B
330
2136
100
AcDbEntity
  8
0
 62
     7
100
AcDbLine
 10
260.3692869455759
 20
219.8700911515368
 30
0.0
 11
260.3692869455836
 21
224.3700911515368
 31
0.0
  0
LINE
  5
218C
330
2136
100
AcDbEntity
  8
1
 62
     7
100
AcDbLine
 10
260.3692869455759
 20
219.8700911515368
 30
0.0
 11
260.3692869455836
 21
219.8700911515368
 31
0.0
  0
LINE
  5
218D
330
2136
100
AcDbEntity
  8
1
 62
     7
100
AcDbLine
 10
260.3692869455759
 20
219.8700911515368
 30
0.0
 11
260.3692869455708
 21
216.6230911515368
 31
0.0
  0
LINE
  5
218E
330
2136
100
AcDbEntity
  8
2
  6
CENTER
 62
     3
100
AcDbLine
 10
366.3692869455295
 20
184.6200911515364
 30
0.0
 11
400.8692863072862
 21
184.6200911515364
 31
0.0
  0
LINE
  5
218F
330
2136
100
AcDbEntity
  8
0
 62
     7
100
AcDbLine
 10
353.8026202723114
 20
171.671193005505
 30
0.0
 11
353.8026202723114
 21
168.3700913956968
 31
0.0
  0
LINE
  5
2190
330
2136
100
AcDbEntity
  8
0
 62
     7
100
AcDbLine
 10
352.935953618666
 20
171.671193005505
 30
0.0
 11
352.935953618666
 21
168.3700913956968
 31
0.0
  0
LINE
  5
2191
330
2136
100
AcDbEntity
  8
0
 62
     7
100
AcDbLine
 10
352.935953618666
 20
168.3700913956968
 30
0.0
 11
350.0759536616204
 21
168.3700913956968
 31
0.0
  0
LINE
  5
2192
330
2136
100
AcDbEntity
  8
0
 62
     7
100
AcDbLine
 10
349.2092870079989
 20
169.2367580493626
 30
0.0
 11
349.2092870079989
 21
171.0000975382932
 31
0.0
  0
LINE
  5
2193
330
2136
100
AcDbEntity
  8
0
 62
     7
100
AcDbLine
 10
357.5292868829927
 20
169.2367580493626
 30
0.0
 11
357.5292868829927
 21
171.0000975382932
 31
0.0
  0
LINE
  5
2194
330
2136
100
AcDbEntity
  8
0
 62
     7
100
AcDbLine
 10
353.8026202723114
 20
168.3700913956968
 30
0.0
 11
356.6626202293603
 21
168.3700913956968
 31
0.0
  0
LINE
  5
2195
330
2136
100
AcDbEntity
  8
0
 62
     7
100
AcDbLine
 10
250.8692869455418
 20
207.2260908120135
 30
0.0
 11
258.2692869455418
 21
207.2260908120135
 31
0.0
  0
LINE
  5
2196
330
2136
100
AcDbEntity
  8
0
 62
     7
100
AcDbLine
 10
258.2692869455418
 20
207.2260908120135
 30
0.0
 11
258.2692869455418
 21
197.8700909525244
 31
0.0
  0
LINE
  5
2197
330
2136
100
AcDbEntity
  8
0
 62
     7
100
AcDbLine
 10
258.2692869455418
 20
197.8700909525244
 30
0.0
 11
250.8692869455418
 21
197.8700909525244
 31
0.0
  0
LINE
  5
2198
330
2136
100
AcDbEntity
  8
0
 62
     7
100
AcDbLine
 10
254.5967869534806
 20
197.8700909525244
 30
0.0
 11
254.5967869534806
 21
207.2260908120135
 31
0.0
  0
LINE
  5
2199
330
2136
100
AcDbEntity
  8
0
 62
     7
100
AcDbLine
 10
254.5967869534806
 20
200.6200909112354
 30
0.0
 11
250.8692869455418
 21
200.6200909112354
 31
0.0
  0
LINE
  5
219A
330
2136
100
AcDbEntity
  8
0
 62
     7
100
AcDbLine
 10
258.2692869454958
 20
162.0140914910703
 30
0.0
 11
258.2692869454958
 21
171.3700913505595
 31
0.0
  0
LINE
  5
219B
330
2136
100
AcDbEntity
  8
0
 62
     7
100
AcDbLine
 10
258.2692869454958
 20
171.3700913505595
 30
0.0
 11
250.8692869455418
 21
171.3700913505595
 31
0.0
  0
LINE
  5
219C
330
2136
100
AcDbEntity
  8
0
 62
     7
100
AcDbLine
 10
254.5967869534806
 20
171.3700913505595
 30
0.0
 11
254.5967869534806
 21
168.6200913918459
 31
0.0
  0
LINE
  5
219D
330
2136
100
AcDbEntity
  8
0
 62
     7
100
AcDbLine
 10
254.5967869534806
 20
168.6200913918459
 30
0.0
 11
250.8692869455418
 21
168.6200913918459
 31
0.0
  0
LINE
  5
219E
330
2136
100
AcDbEntity
  8
0
 62
     7
100
AcDbLine
 10
243.1692869454834
 20
206.1200908286599
 30
0.0
 11
243.1692869454834
 21
163.1200914744186
 31
0.0
  0
LINE
  5
219F
330
2136
100
AcDbEntity
  8
0
 62
     7
100
AcDbLine
 10
243.1692869454834
 20
206.1200908286599
 30
0.0
 11
246.869286945483
 21
206.1200908286599
 31
0.0
  0
LINE
  5
21A0
330
2136
100
AcDbEntity
  8
0
 62
     7
100
AcDbLine
 10
246.869286945483
 20
206.1200908286599
 30
0.0
 11
246.869286945483
 21
198.0200909502685
 31
0.0
  0
LINE
  5
21A1
330
2136
100
AcDbEntity
  8
0
 62
     7
100
AcDbLine
 10
247.2692869394744
 20
197.6200909562875
 30
0.0
 11
259.3467868821388
 21
197.6200909562875
 31
0.0
  0
LINE
  5
21A2
330
2136
100
AcDbEntity
  8
0
 62
     7
100
AcDbLine
 10
259.3467868821388
 20
197.6200909562875
 30
0.0
 11
259.3467868821388
 21
197.0700909645626
 31
0.0
  0
LINE
  5
21A3
330
2136
100
AcDbEntity
  8
0
 62
     7
100
AcDbLine
 10
259.3467868821388
 20
197.0700909645626
 30
0.0
 11
260.6692869455708
 21
197.0700909645626
 31
0.0
  0
LINE
  5
21A4
330
2136
100
AcDbEntity
  8
0
 62
     7
100
AcDbLine
 10
260.6692869455708
 20
197.0700909645626
 30
0.0
 11
260.6692869455708
 21
197.6200909562875
 31
0.0
  0
LINE
  5
21A5
330
2136
100
AcDbEntity
  8
0
 62
     7
100
AcDbLine
 10
260.6692869455708
 20
197.6200909562875
 30
0.0
 11
262.8692869530821
 21
197.6200909562393
 31
0.0
  0
LINE
  5
21A6
330
2136
100
AcDbEntity
  8
0
 62
     7
100
AcDbLine
 10
263.3692869455708
 20
196.8700909675494
 30
0.0
 11
263.3692869455708
 21
184.6200911515364
 31
0.0
  0
LINE
  5
21A7
330
2136
100
AcDbEntity
  8
0
 62
     7
100
AcDbLine
 10
262.8692869530821
 20
197.6200909562875
 30
0.0
 11
263.3692869455708
 21
197.1200909637632
 31
0.0
  0
LINE
  5
21A8
330
2136
100
AcDbEntity
  8
0
 62
     7
100
AcDbLine
 10
263.3692869455708
 20
197.1200909637632
 30
0.0
 11
263.3692869455708
 21
196.8700909675494
 31
0.0
  0
LINE
  5
21A9
330
2136
100
AcDbEntity
  8
0
 62
     7
100
AcDbLine
 10
243.1692869454834
 20
163.1200914744186
 30
0.0
 11
246.869286945483
 21
163.1200914744186
 31
0.0
  0
LINE
  5
21AA
330
2136
100
AcDbEntity
  8
0
 62
     7
100
AcDbLine
 10
246.869286945483
 20
163.1200914744186
 30
0.0
 11
246.869286945483
 21
171.2200913528126
 31
0.0
  0
LINE
  5
21AB
330
2136
100
AcDbEntity
  8
0
 62
     7
100
AcDbLine
 10
247.2692869394744
 20
171.6200913468038
 30
0.0
 11
259.3467868821388
 21
171.6200913468038
 31
0.0
  0
LINE
  5
21AC
330
2136
100
AcDbEntity
  8
0
 62
     7
100
AcDbLine
 10
259.3467868821388
 20
171.6200913468038
 30
0.0
 11
259.3467868821388
 21
172.170091338516
 31
0.0
  0
LINE
  5
21AD
330
2136
100
AcDbEntity
  8
0
 62
     7
100
AcDbLine
 10
259.3467868821388
 20
172.170091338516
 30
0.0
 11
260.6692869455708
 21
172.170091338516
 31
0.0
  0
LINE
  5
21AE
330
2136
100
AcDbEntity
  8
0
 62
     7
100
AcDbLine
 10
260.6692869455708
 20
172.170091338516
 30
0.0
 11
260.6692869455708
 21
171.6200913468038
 31
0.0
  0
LINE
  5
21AF
330
2136
100
AcDbEntity
  8
0
 62
     7
100
AcDbLine
 10
260.6692869455708
 20
171.6200913468038
 30
0.0
 11
262.8692869530821
 21
171.6200913468545
 31
0.0
  0
LINE
  5
21B0
330
2136
100
AcDbEntity
  8
0
 62
     7
100
AcDbLine
 10
263.3692869455708
 20
172.3700913355369
 30
0.0
 11
263.3692869455708
 21
184.6200911515364
 31
0.0
  0
LINE
  5
21B1
330
2136
100
AcDbEntity
  8
0
 62
     7
100
AcDbLine
 10
262.8692869530821
 20
171.6200913468038
 30
0.0
 11
263.3692869455708
 21
172.120091339318
 31
0.0
  0
LINE
  5
21B2
330
2136
100
AcDbEntity
  8
0
 62
     7
100
AcDbLine
 10
263.3692869455708
 20
172.120091339318
 30
0.0
 11
263.3692869455708
 21
172.3700913355369
 31
0.0
  0
LINE
  5
21B3
330
2136
100
AcDbEntity
  8
0
 62
     7
100
AcDbLine
 10
247.3692869380248
 20
198.1200909487635
 30
0.0
 11
250.3967870165801
 21
198.1200909487635
 31
0.0
  0
LINE
  5
21B4
330
2136
100
AcDbEntity
  8
0
 62
     7
100
AcDbLine
 10
247.3692869380248
 20
198.1200909487635
 30
0.0
 11
247.3692869380248
 21
199.6200909262833
 31
0.0
  0
LINE
  5
21B5
330
2136
100
AcDbEntity
  8
0
 62
     7
100
AcDbLine
 10
246.869286945534
 20
199.6200909262833
 30
0.0
 11
246.869286945534
 21
198.1200909487635
 31
0.0
  0
LINE
  5
21B6
330
2136
100
AcDbEntity
  8
0
 62
     7
100
AcDbLine
 10
248.3967870466154
 20
205.6200908361355
 30
0.0
 11
248.3967870466154
 21
211.1200907534915
 31
0.0
  0
LINE
  5
21B7
330
2136
100
AcDbEntity
  8
0
 62
     7
100
AcDbLine
 10
248.3967870466154
 20
211.1200907534915
 30
0.0
 11
249.8967870240863
 21
211.1200907534915
 31
0.0
  0
LINE
  5
21B8
330
2136
100
AcDbEntity
  8
0
 62
     7
100
AcDbLine
 10
246.869286945534
 20
199.6200909262833
 30
0.0
 11
246.869286945534
 21
205.6200908361355
 31
0.0
  0
LINE
  5
21B9
330
2136
100
AcDbEntity
  8
0
 62
     7
100
AcDbLine
 10
246.869286945534
 20
205.6200908361355
 30
0.0
 11
248.3967870466154
 21
205.6200908361355
 31
0.0
  0
LINE
  5
21BA
330
2136
100
AcDbEntity
  8
0
 62
     7
100
AcDbLine
 10
247.3692869380248
 20
199.6200909262833
 30
0.0
 11
246.869286945534
 21
199.6200909262833
 31
0.0
  0
LINE
  5
21BB
330
2136
100
AcDbEntity
  8
0
 62
     7
100
AcDbLine
 10
249.8967870240863
 20
211.1200907534915
 30
0.0
 11
249.8967870240863
 21
205.6200908361355
 31
0.0
  0
LINE
  5
21BC
330
2136
100
AcDbEntity
  8
0
 62
     7
100
AcDbLine
 10
249.8967870240863
 20
205.6200908361355
 30
0.0
 11
254.3967869565155
 21
205.6200908361355
 31
0.0
  0
LINE
  5
21BD
330
2136
100
AcDbEntity
  8
0
 62
     7
100
AcDbLine
 10
254.3967869565155
 20
205.6200908361355
 30
0.0
 11
254.3967869565155
 21
200.8700909074746
 31
0.0
  0
LINE
  5
21BE
330
2136
100
AcDbEntity
  8
0
 62
     7
100
AcDbLine
 10
254.3967869565155
 20
200.8700909074746
 30
0.0
 11
250.3967870165801
 21
200.8700909074746
 31
0.0
  0
LINE
  5
21BF
330
2136
100
AcDbEntity
  8
0
 62
     7
100
AcDbLine
 10
250.3967870165801
 20
198.1200909487635
 30
0.0
 11
250.3967870165801
 21
200.8700909074746
 31
0.0
  0
LINE
  5
21C0
330
2136
100
AcDbEntity
  8
0
 62
     7
100
AcDbLine
 10
247.3692869380248
 20
171.1200913543151
 30
0.0
 11
250.3967870165801
 21
171.1200913543151
 31
0.0
  0
LINE
  5
21C1
330
2136
100
AcDbEntity
  8
0
 62
     7
100
AcDbLine
 10
249.8967870240863
 20
163.6200914669583
 30
0.0
 11
249.8967870240863
 21
158.1200915496328
 31
0.0
  0
LINE
  5
21C2
330
2136
100
AcDbEntity
  8
0
 62
     7
100
AcDbLine
 10
249.8967870240863
 20
158.1200915496328
 30
0.0
 11
248.3967870466154
 21
158.1200915496328
 31
0.0
  0
LINE
  5
21C3
330
2136
100
AcDbEntity
  8
0
 62
     7
100
AcDbLine
 10
248.3967870466154
 20
158.1200915496328
 30
0.0
 11
248.3967870466154
 21
163.6200914669583
 31
0.0
  0
LINE
  5
21C4
330
2136
100
AcDbEntity
  8
0
 62
     7
100
AcDbLine
 10
250.8692869455543
 20
163.6200914669583
 30
0.0
 11
249.8967870240863
 21
163.6200914669583
 31
0.0
  0
LINE
  5
21C5
330
2136
100
AcDbEntity
  8
0
 62
     7
100
AcDbLine
 10
248.3967870466154
 20
163.6200914669583
 30
0.0
 11
243.3967871216637
 21
163.6200914669583
 31
0.0
  0
LINE
  5
21C6
330
2136
100
AcDbEntity
  8
0
 62
     7
100
AcDbLine
 10
243.3967871216637
 20
163.6200914669583
 30
0.0
 11
243.3967871216637
 21
169.6200913768485
 31
0.0
  0
LINE
  5
21C7
330
2136
100
AcDbEntity
  8
0
 62
     7
100
AcDbLine
 10
243.3967871216637
 20
169.6200913768485
 30
0.0
 11
246.869286945534
 21
169.6200913768485
 31
0.0
  0
LINE
  5
21C8
330
2136
100
AcDbEntity
  8
0
 62
     7
100
AcDbLine
 10
246.869286945534
 20
169.6200913768485
 30
0.0
 11
246.869286945534
 21
171.1200913543151
 31
0.0
  0
LINE
  5
21C9
330
2136
100
AcDbEntity
  8
0
 62
     7
100
AcDbLine
 10
246.869286945534
 20
169.6200913768485
 30
0.0
 11
246.869286945534
 21
163.6200914669583
 31
0.0
  0
LINE
  5
21CA
330
2136
100
AcDbEntity
  8
0
 62
     7
100
AcDbLine
 10
246.869286945534
 20
169.6200913768485
 30
0.0
 11
247.3692869380248
 21
169.6200913768485
 31
0.0
  0
LINE
  5
21CB
330
2136
100
AcDbEntity
  8
0
 62
     7
100
AcDbLine
 10
247.3692869380248
 20
169.6200913768485
 30
0.0
 11
247.3692869380248
 21
171.1200913543151
 31
0.0
  0
LINE
  5
21CC
330
2136
100
AcDbEntity
  8
0
 62
     7
100
AcDbLine
 10
250.3967870165801
 20
171.1200913543151
 30
0.0
 11
250.3967870165801
 21
168.3700913956014
 31
0.0
  0
LINE
  5
21CD
330
2136
100
AcDbEntity
  8
0
 62
     7
100
AcDbLine
 10
250.3967870165801
 20
168.3700913956014
 30
0.0
 11
250.8692869455543
 21
168.3700913956014
 31
0.0
  0
LINE
  5
21CE
330
2136
100
AcDbEntity
  8
0
 62
     7
100
AcDbLine
 10
246.869286945534
 20
198.1200909487635
 30
0.0
 11
246.869286945534
 21
197.6200909562875
 31
0.0
  0
LINE
  5
21CF
330
2136
100
AcDbEntity
  8
0
 62
     7
100
AcDbLine
 10
247.3692869380248
 20
198.1200909487635
 30
0.0
 11
247.3692869380248
 21
197.6200909562875
 31
0.0
  0
LINE
  5
21D0
330
2136
100
AcDbEntity
  8
0
 62
     7
100
AcDbLine
 10
250.3967870165801
 20
198.1200909487635
 30
0.0
 11
250.3967870165801
 21
197.6200909562875
 31
0.0
  0
LINE
  5
21D1
330
2136
100
AcDbEntity
  8
0
 62
     7
100
AcDbLine
 10
250.8692869455543
 20
197.6200909562875
 30
0.0
 11
250.8692869455418
 21
197.6200909562875
 31
0.0
  0
LINE
  5
21D2
330
2136
100
AcDbEntity
  8
0
 62
     7
100
AcDbLine
 10
246.869286945534
 20
171.1200913543151
 30
0.0
 11
246.869286945534
 21
171.6200913468545
 31
0.0
  0
LINE
  5
21D3
330
2136
100
AcDbEntity
  8
0
 62
     7
100
AcDbLine
 10
247.3692869380248
 20
171.1200913543151
 30
0.0
 11
247.3692869380248
 21
171.6200913468545
 31
0.0
  0
LINE
  5
21D4
330
2136
100
AcDbEntity
  8
0
 62
     7
100
AcDbLine
 10
250.3967870165801
 20
171.1200913543151
 30
0.0
 11
250.3967870165801
 21
171.6200913468545
 31
0.0
  0
LINE
  5
21D5
330
2136
100
AcDbEntity
  8
0
 62
     7
100
AcDbLine
 10
263.3692869455708
 20
172.120091339318
 30
0.0
 11
263.3692869455708
 21
172.3700913355369
 31
0.0
  0
LINE
  5
21D6
330
2136
100
AcDbEntity
  8
0
 62
     7
100
AcDbLine
 10
243.1692869454834
 20
191.9200910419181
 30
0.0
 11
263.3692869455708
 21
191.9200910419181
 31
0.0
  0
LINE
  5
21D7
330
2136
100
AcDbEntity
  8
0
 62
     7
100
AcDbLine
 10
243.1692869454834
 20
190.120091068936
 30
0.0
 11
263.3692869455708
 21
190.120091068936
 31
0.0
  0
LINE
  5
21D8
330
2136
100
AcDbEntity
  8
0
 62
     7
100
AcDbLine
 10
243.1692869454834
 20
179.1200912341605
 30
0.0
 11
263.3692869455708
 21
179.1200912341605
 31
0.0
  0
LINE
  5
21D9
330
2136
100
AcDbEntity
  8
0
 62
     7
100
AcDbLine
 10
243.1692869454834
 20
171.1200913543151
 30
0.0
 11
246.869286945534
 21
171.1200913543151
 31
0.0
  0
LINE
  5
21DA
330
2136
100
AcDbEntity
  8
0
 62
     7
100
AcDbLine
 10
258.2967868978872
 20
202.1200908887117
 30
0.0
 11
259.3467868821388
 21
202.1200908887117
 31
0.0
  0
LINE
  5
21DB
330
2136
100
AcDbEntity
  8
0
 62
     7
100
AcDbLine
 10
259.3467868821388
 20
202.1200908887117
 30
0.0
 11
259.3467868821388
 21
197.6200909562875
 31
0.0
  0
LINE
  5
21DC
330
2136
100
AcDbEntity
  8
0
 62
     7
100
AcDbLine
 10
259.3467868821388
 20
198.1200909487635
 30
0.0
 11
258.2692869455215
 21
198.1200909487635
 31
0.0
  0
LINE
  5
21DD
330
2136
100
AcDbEntity
  8
0
 62
     7
100
AcDbLine
 10
259.3467868821388
 20
200.6200909112354
 30
0.0
 11
260.6692869455708
 21
200.6200909112354
 31
0.0
  0
LINE
  5
21DE
330
2136
100
AcDbEntity
  8
0
 62
     7
100
AcDbLine
 10
260.6692869455708
 20
200.6200909112354
 30
0.0
 11
260.6692869455708
 21
197.6200909562875
 31
0.0
  0
LINE
  5
21DF
330
2136
100
AcDbEntity
  8
0
 62
     7
100
AcDbLine
 10
258.2692869454755
 20
167.1200914144304
 30
0.0
 11
259.3467868821388
 21
167.1200914144304
 31
0.0
  0
LINE
  5
21E0
330
2136
100
AcDbEntity
  8
0
 62
     7
100
AcDbLine
 10
259.3467868821388
 20
167.1200914144304
 30
0.0
 11
259.3467868821388
 21
171.6200913468038
 31
0.0
  0
LINE
  5
21E1
330
2136
100
AcDbEntity
  8
0
 62
     7
100
AcDbLine
 10
259.3467868821388
 20
171.1200913543151
 30
0.0
 11
258.2692869454755
 21
171.1200913543151
 31
0.0
  0
LINE
  5
21E2
330
2136
100
AcDbEntity
  8
0
 62
     7
100
AcDbLine
 10
259.3467868821388
 20
168.6200913918459
 30
0.0
 11
260.6692869455708
 21
168.6200913918459
 31
0.0
  0
LINE
  5
21E3
330
2136
100
AcDbEntity
  8
0
 62
     7
100
AcDbLine
 10
260.6692869455708
 20
168.6200913918459
 30
0.0
 11
260.6692869455708
 21
171.6200913468038
 31
0.0
  0
LINE
  5
21E4
330
2136
100
AcDbEntity
  8
0
 62
     7
100
AcDbLine
 10
260.3692869455993
 20
226.7200905191407
 30
0.0
 11
259.9692869514452
 21
227.1200905131063
 31
0.0
  0
LINE
  5
21E5
330
2136
100
AcDbEntity
  8
0
 62
     7
100
AcDbLine
 10
259.9692869514452
 20
227.1200905131063
 30
0.0
 11
250.7692869395766
 21
227.1200905133857
 31
0.0
  0
LINE
  5
21E6
330
2136
100
AcDbEntity
  8
0
 62
     7
100
AcDbLine
 10
250.7692869395766
 20
227.1200905133857
 30
0.0
 11
250.3692869455604
 21
226.7200905193182
 31
0.0
  0
LINE
  5
21E7
330
2136
100
AcDbEntity
  8
0
 62
     7
100
AcDbLine
 10
250.3692869455604
 20
226.7200905193182
 30
0.0
 11
250.3692869455708
 21
224.3700911515368
 31
0.0
  0
LINE
  5
21E8
330
2136
100
AcDbEntity
  8
0
 62
     7
100
AcDbLine
 10
250.0692869501181
 20
218.1200911515174
 30
0.0
 11
247.7692869846189
 21
218.1200911515935
 31
0.0
  0
LINE
  5
21E9
330
2136
100
AcDbEntity
  8
0
 62
     7
100
AcDbLine
 10
247.7692869846189
 20
218.1200911515935
 30
0.0
 11
247.3692869905518
 21
217.7200911576275
 31
0.0
  0
LINE
  5
21EA
330
2136
100
AcDbEntity
  8
0
 62
     7
100
AcDbLine
 10
260.3692869452375
 20
142.5200917840854
 30
0.0
 11
259.9692869510795
 21
142.1200917899924
 31
0.0
  0
LINE
  5
21EB
330
2136
100
AcDbEntity
  8
0
 62
     7
100
AcDbLine
 10
259.9692869510795
 20
142.1200917899924
 30
0.0
 11
250.7692869392973
 21
142.1200917899924
 31
0.0
  0
LINE
  5
21EC
330
2136
100
AcDbEntity
  8
0
 62
     7
100
AcDbLine
 10
250.7692869392973
 20
142.1200917899924
 30
0.0
 11
250.3692869452811
 21
142.5200917838312
 31
0.0
  0
LINE
  5
21ED
330
2136
100
AcDbEntity
  8
0
 62
     7
100
AcDbLine
 10
250.3692869452811
 20
142.5200917838312
 30
0.0
 11
250.369286945253
 21
144.8700917148801
 31
0.0
  0
LINE
  5
21EE
330
2136
100
AcDbEntity
  8
0
 62
     7
100
AcDbLine
 10
250.069286949737
 20
151.1200911514098
 30
0.0
 11
247.7692869842634
 21
151.1200911516638
 31
0.0
  0
LINE
  5
21EF
330
2136
100
AcDbEntity
  8
0
 62
     7
100
AcDbLine
 10
247.7692869842634
 20
151.1200911516638
 30
0.0
 11
247.3692869902721
 21
151.5200911452483
 31
0.0
  0
LINE
  5
21F0
330
2136
100
AcDbEntity
  8
0
 62
     7
100
AcDbLine
 10
260.3692869452375
 20
142.5200917840854
 30
0.0
 11
260.3692869452574
 21
144.8700917148801
 31
0.0
  0
LINE
  5
21F1
330
2136
100
AcDbEntity
  8
0
 62
     7
100
AcDbLine
 10
250.3692869455746
 20
220.4700911515363
 30
0.0
 11
250.3692869455708
 21
220.1200911515368
 31
0.0
  0
LINE
  5
21F2
330
2136
100
AcDbEntity
  8
0
 62
     7
100
AcDbLine
 10
260.3692869455759
 20
219.8700911515368
 30
0.0
 11
260.3692869455836
 21
219.8700911515368
 31
0.0
  0
LINE
  5
21F3
330
2136
100
AcDbEntity
  8
2
  6
CENTER
 62
     3
100
AcDbLine
 10
353.3692869455709
 20
232.1200905133349
 30
0.0
 11
353.3692869454879
 21
137.1200905133349
 31
0.0
  0
LINE
  5
21F4
330
2136
100
AcDbEntity
  8
2
  6
CENTER
 62
     3
100
AcDbLine
 10
304.3692869464075
 20
184.6200911515364
 30
0.0
 11
366.3692869455295
 21
184.6200911515364
 31
0.0
  0
LINE
  5
21F5
330
2136
100
AcDbEntity
  8
1
 62
     7
100
AcDbLine
 10
351.3692869757869
 20
189.7435664576923
 30
0.0
 11
351.3692869757869
 21
191.9200910420503
 31
0.0
  0
LINE
  5
21F6
330
2136
100
AcDbEntity
  8
1
 62
     7
100
AcDbLine
 10
355.3692869154431
 20
191.9200910420503
 30
0.0
 11
355.3692869154431
 21
189.7435664576923
 31
0.0
  0
LINE
  5
21F7
330
2136
100
AcDbEntity
  8
1
 62
     7
100
AcDbLine
 10
351.3692869757869
 20
191.9200910420503
 30
0.0
 11
355.3692869154431
 21
191.9200910420503
 31
0.0
  0
LINE
  5
21F8
330
2136
100
AcDbEntity
  8
1
  6
CENTER
 62
     3
100
AcDbLine
 10
91.35267894709247
 20
220.0188795312257
 30
0.0
 11
94.72767894709248
 21
214.1732080556808
 31
0.0
  0
LINE
  5
21F9
330
2136
100
AcDbEntity
  8
1
  6
CENTER
 62
     3
100
AcDbLine
 10
76.39139056740359
 20
205.0575911515367
 30
0.0
 11
82.23706204294851
 21
201.6825911515367
 31
0.0
  0
LINE
  5
21FA
330
2136
100
AcDbEntity
  8
1
  6
CENTER
 62
     3
100
AcDbLine
 10
76.39139056740359
 20
164.1825911515365
 30
0.0
 11
82.23706204294851
 21
167.5575911515368
 31
0.0
  0
LINE
  5
21FB
330
2136
100
AcDbEntity
  8
1
  6
CENTER
 62
     3
100
AcDbLine
 10
91.35267894709247
 20
149.2213027718478
 30
0.0
 11
94.72767894709248
 21
155.0669742473928
 31
0.0
  0
LINE
  5
21FC
330
2136
100
AcDbEntity
  8
1
  6
CENTER
 62
     3
100
AcDbLine
 10
132.2276789470925
 20
149.2213027718478
 30
0.0
 11
128.8526789470923
 21
155.0669742473928
 31
0.0
  0
LINE
  5
21FD
330
2136
100
AcDbEntity
  8
1
  6
CENTER
 62
     3
100
AcDbLine
 10
147.1889673267814
 20
164.1825911515365
 30
0.0
 11
141.3432958512364
 21
167.5575911515368
 31
0.0
  0
LINE
  5
21FE
330
2136
100
AcDbEntity
  8
1
  6
CENTER
 62
     3
100
AcDbLine
 10
147.1889673267814
 20
205.0575911515367
 30
0.0
 11
141.3432958512364
 21
201.6825911515367
 31
0.0
  0
LINE
  5
21FF
330
2136
100
AcDbEntity
  8
1
  6
CENTER
 62
     3
100
AcDbLine
 10
132.2276789470925
 20
220.0188795312257
 30
0.0
 11
128.8526789470923
 21
214.1732080556808
 31
0.0
  0
LINE
  5
2200
330
2136
100
AcDbEntity
  8
1
  6
CENTER
 62
     3
100
AcDbLine
 10
122.2723502737446
 20
223.740087116244
 30
0.0
 11
120.7194360031291
 21
217.9445321585094
 31
0.0
  0
LINE
  5
2201
330
2136
100
AcDbEntity
  8
1
  6
CENTER
 62
     3
100
AcDbLine
 10
101.3080076204404
 20
145.5000951868294
 30
0.0
 11
102.8609218910555
 21
151.2956501445638
 31
0.0
  0
LINE
  5
2202
330
2136
100
AcDbEntity
  8
1
  6
CENTER
 62
     3
100
AcDbLine
 10
97.68339866242094
 20
198.7268714362084
 30
0.0
 11
104.6837557961677
 21
191.7265143024611
 31
0.0
  0
LINE
  5
2203
330
2136
100
AcDbEntity
  8
1
  6
CENTER
 62
     3
100
AcDbLine
 10
97.68339866242094
 20
170.5133108668652
 30
0.0
 11
104.6837557961677
 21
177.513668000612
 31
0.0
  0
LINE
  5
2204
330
2136
100
AcDbEntity
  8
1
  6
CENTER
 62
     3
100
AcDbLine
 10
125.8969592317638
 20
170.5133108668652
 30
0.0
 11
118.8966020980174
 21
177.513668000612
 31
0.0
  0
LINE
  5
2205
330
2136
100
AcDbEntity
  8
1
  6
CENTER
 62
     3
100
AcDbLine
 10
125.8969592317638
 20
198.7268714362084
 30
0.0
 11
118.8966020980174
 21
191.7265143024614
 31
0.0
  0
LINE
  5
2206
330
2136
100
AcDbEntity
  8
1
  6
CENTER
 62
     3
100
AcDbLine
 10
104.1365102997904
 20
203.0976818017628
 30
0.0
 11
106.4326108939807
 21
197.5544046066951
 31
0.0
  0
LINE
  5
2207
330
2136
100
AcDbEntity
  8
1
  6
CENTER
 62
     3
100
AcDbLine
 10
119.4438475943936
 20
166.1425005013109
 30
0.0
 11
117.147747000203
 21
171.6857776963788
 31
0.0
  0
LINE
  5
2208
330
2136
100
AcDbEntity
  8
1
  6
CENTER
 62
     3
100
AcDbLine
 10
373.8067869447116
 20
149.2213027713725
 30
0.0
 11
370.4317869448477
 21
155.0669742469958
 31
0.0
  0
LINE
  5
2209
330
2136
100
AcDbEntity
  8
1
  6
CENTER
 62
     3
100
AcDbLine
 10
388.7680753247487
 20
164.1825911507133
 30
0.0
 11
382.9224038492818
 21
167.5575911508493
 31
0.0
  0
LINE
  5
220A
330
2136
100
AcDbEntity
  8
1
  6
CENTER
 62
     3
100
AcDbLine
 10
388.7680753256994
 20
205.057591150713
 30
0.0
 11
382.9224038500758
 21
201.6825911508492
 31
0.0
  0
LINE
  5
220B
330
2136
100
AcDbEntity
  8
1
  6
CENTER
 62
     3
100
AcDbLine
 10
373.8067869463587
 20
220.0188795307502
 30
0.0
 11
370.4317869462227
 21
214.1732080552837
 31
0.0
  0
LINE
  5
220C
330
2136
100
AcDbEntity
  8
1
  6
CENTER
 62
     3
100
AcDbLine
 10
342.8871156188836
 20
223.7400871162443
 30
0.0
 11
344.4400298894988
 21
217.9445321585095
 31
0.0
  0
LINE
  5
220D
330
2136
100
AcDbEntity
  8
1
  6
CENTER
 62
     3
100
AcDbLine
 10
363.8514582721863
 20
145.5000951868294
 30
0.0
 11
362.2985440015712
 21
151.2956501445638
 31
0.0
  0
LINE
  5
220E
330
2136
100
AcDbEntity
  8
1
 62
     3
100
AcDbLine
 10
250.3692869455708
 20
224.1200911515368
 30
0.0
 11
256.2249493782815
 21
224.1200911515368
 31
0.0
  0
LINE
  5
220F
330
2136
100
AcDbEntity
  8
0
 62
     7
100
AcDbLine
 10
250.3692869455708
 20
224.1200911515368
 30
0.0
 11
250.3692869455708
 21
223.7200911515369
 31
0.0
  0
LINE
  5
2210
330
2136
100
AcDbEntity
  8
0
 62
     7
100
AcDbLine
 10
250.3692869455708
 20
220.1200911515368
 30
0.0
 11
250.3692869455708
 21
219.8700911515368
 31
0.0
  0
LINE
  5
2211
330
2136
100
AcDbEntity
  8
1
 62
     7
100
AcDbLine
 10
250.3692869455708
 20
223.7200911515369
 30
0.0
 11
255.9940092706054
 21
223.7200911515369
 31
0.0
  0
LINE
  5
2212
330
2136
100
AcDbEntity
  8
0
 62
     7
100
AcDbLine
 10
250.3692869455708
 20
223.7200911515369
 30
0.0
 11
250.3692869455708
 21
220.5200911515368
 31
0.0
  0
LINE
  5
2213
330
2136
100
AcDbEntity
  8
0
 62
     7
100
AcDbLine
 10
250.3692869455708
 20
220.5200911515368
 30
0.0
 11
250.3692869455746
 21
220.4700911515363
 31
0.0
  0
LINE
  5
2214
330
2136
100
AcDbEntity
  8
1
  6
CENTER
 62
     3
100
AcDbLine
 10
247.1692869936322
 20
222.1200911515368
 30
0.0
 11
266.5967867734016
 21
222.1200911515368
 31
0.0
  0
LINE
  5
2215
330
2136
100
AcDbEntity
  8
0
 62
     7
100
AcDbLine
 10
250.3692869455708
 20
219.8700911515368
 30
0.0
 11
250.3692869455858
 21
218.4200911469849
 31
0.0
  0
LINE
  5
2216
330
2136
100
AcDbEntity
  8
0
 62
     7
100
AcDbLine
 10
260.3692869455836
 20
219.8700911515368
 30
0.0
 11
260.3692869455759
 21
219.8700911515368
 31
0.0
  0
LINE
  5
2217
330
2136
100
AcDbEntity
  8
0
 62
     7
100
AcDbLine
 10
260.3692869455836
 20
219.8700911515368
 30
0.0
 11
260.3692869455759
 21
219.8700911515368
 31
0.0
  0
LINE
  5
2218
330
2136
100
AcDbEntity
  8
0
 62
     7
100
AcDbLine
 10
250.3692869455708
 20
224.3700911515368
 30
0.0
 11
250.3692869455708
 21
224.1200911515368
 31
0.0
  0
LINE
  5
2219
330
2136
100
AcDbEntity
  8
0
 62
     7
100
AcDbLine
 10
260.3692869455836
 20
224.3700911515368
 30
0.0
 11
260.3692869455993
 21
226.7200905191407
 31
0.0
  0
LINE
  5
221A
330
2136
100
AcDbEntity
  8
1
 62
     7
100
AcDbLine
 10
256.369286945579
 20
224.3700911515368
 30
0.0
 11
260.3692869455836
 21
224.3700911515368
 31
0.0
  0
LINE
  5
221B
330
2136
100
AcDbEntity
  8
1
 62
     7
100
AcDbLine
 10
256.3692869455891
 20
219.8700911515368
 30
0.0
 11
260.3692869455759
 21
219.8700911515368
 31
0.0
  0
LINE
  5
221C
330
2136
100
AcDbEntity
  8
1
 62
     7
100
AcDbLine
 10
256.369286945579
 20
224.3700911515368
 30
0.0
 11
255.9940092706054
 21
223.7200911515369
 31
0.0
  0
LINE
  5
221D
330
2136
100
AcDbEntity
  8
1
 62
     7
100
AcDbLine
 10
255.9940092706054
 20
223.7200911515369
 30
0.0
 11
255.994009270616
 21
220.5200911515368
 31
0.0
  0
LINE
  5
221E
330
2136
100
AcDbEntity
  8
1
 62
     7
100
AcDbLine
 10
255.994009270616
 20
220.5200911515368
 30
0.0
 11
250.3692869455708
 21
220.5200911515368
 31
0.0
  0
LINE
  5
221F
330
2136
100
AcDbEntity
  8
1
 62
     7
100
AcDbLine
 10
255.994009270616
 20
220.5200911515368
 30
0.0
 11
256.3692869455891
 21
219.8700911515368
 31
0.0
  0
LINE
  5
2220
330
2136
100
AcDbEntity
  8
1
 62
     7
100
AcDbLine
 10
256.3692869455891
 20
219.8700911515368
 30
0.0
 11
256.369286945579
 21
224.3700911515368
 31
0.0
  0
LINE
  5
2221
330
2136
100
AcDbEntity
  8
1
 62
     3
100
AcDbLine
 10
256.2249493782918
 20
220.1200911515368
 30
0.0
 11
250.3692869455708
 21
220.1200911515368
 31
0.0
  0
LINE
  5
2222
330
2136
100
AcDbEntity
  8
1
  6
CENTER
 62
     3
100
AcDbLine
 10
247.169286993316
 20
147.12009171488
 30
0.0
 11
266.5967867730735
 21
147.12009171488
 31
0.0
  0
LINE
  5
2223
330
2136
100
AcDbEntity
  8
1
 62
     7
100
AcDbLine
 10
250.369286945253
 20
144.8700917148801
 30
0.0
 11
260.3692869452574
 21
144.8700917148801
 31
0.0
  0
LINE
  5
2224
330
2136
100
AcDbEntity
  8
0
 62
     7
100
AcDbLine
 10
250.369286945253
 20
144.8700917148801
 30
0.0
 11
250.369286945253
 21
149.37009171488
 31
0.0
  0
LINE
  5
2225
330
2136
100
AcDbEntity
  8
0
 62
     7
100
AcDbLine
 10
260.3692869452574
 20
144.8700917148801
 30
0.0
 11
260.3692869452574
 21
149.37009171488
 31
0.0
  0
LINE
  5
2226
330
2136
100
AcDbEntity
  8
1
 62
     7
100
AcDbLine
 10
250.369286945253
 20
149.37009171488
 30
0.0
 11
260.3692869452574
 21
149.37009171488
 31
0.0
  0
LINE
  5
2227
330
2136
100
AcDbEntity
  8
0
 62
     7
100
AcDbLine
 10
250.369286945253
 20
149.37009171488
 30
0.0
 11
250.3692869452303
 21
150.8200911559674
 31
0.0
  0
LINE
  5
2228
330
2136
100
AcDbEntity
  8
1
  6
CENTER
 62
     3
100
AcDbLine
 10
64.2901783087636
 20
184.620091151537
 30
0.0
 11
145.2901789470925
 21
184.6200911515364
 31
0.0
  0
LINE
  5
2229
330
2136
100
AcDbEntity
  8
1
 62
     7
100
AcDbLine
 10
251.0336619455708
 20
157.8505045445431
 30
0.0
 11
251.0336619455708
 21
156.3565911515368
 31
0.0
  0
LINE
  5
222A
330
2136
100
AcDbEntity
  8
1
 62
     7
100
AcDbLine
 10
251.0662355421028
 20
209.3465911515364
 30
0.0
 11
253.1091385620073
 21
209.3465911515364
 31
0.0
  0
LINE
  5
222B
330
2136
100
AcDbEntity
  8
1
 62
     7
100
AcDbLine
 10
242.4792869455123
 20
153.5530911515365
 30
0.0
 11
230.8062869455123
 21
153.5530911515368
 31
0.0
  0
LINE
  5
222C
330
2136
100
AcDbEntity
  8
1
 62
     7
100
AcDbLine
 10
259.3692869455125
 20
154.0530911515368
 30
0.0
 11
230.9322869455124
 21
154.0530911515368
 31
0.0
  0
LINE
  5
222D
330
2136
100
AcDbEntity
  8
1
 62
     7
100
AcDbLine
 10
260.3692869455124
 20
161.8998048020525
 30
0.0
 11
260.3692869455124
 21
153.4950911515368
 31
0.0
  0
LINE
  5
222E
330
2136
100
AcDbEntity
  8
1
 62
     7
100
AcDbLine
 10
260.3692869455124
 20
154.0006833722537
 30
0.0
 11
259.3692869455125
 21
154.0530911515368
 31
0.0
  0
LINE
  5
222F
330
2136
100
AcDbEntity
  8
1
 62
     7
100
AcDbLine
 10
249.1076695309969
 20
152.6783226554034
 30
0.0
 11
254.1192869455124
 21
152.6170911515368
 31
0.0
  0
LINE
  5
2230
330
2136
100
AcDbEntity
  8
1
 62
     7
100
AcDbLine
 10
260.3692869455124
 20
153.4950911515368
 30
0.0
 11
259.5185063945052
 21
152.6443106005299
 31
0.0
  0
LINE
  5
2231
330
2136
100
AcDbEntity
  8
1
 62
     7
100
AcDbLine
 10
254.1192869455124
 20
152.6170911515368
 30
0.0
 11
257.1192869455125
 21
152.6170911515368
 31
0.0
  0
LINE
  5
2232
330
2136
100
AcDbEntity
  8
1
 62
     7
100
AcDbLine
 10
259.5185063945052
 20
152.6443106005299
 30
0.0
 11
257.1192869455125
 21
152.6170911515368
 31
0.0
  0
LINE
  5
2233
330
2136
100
AcDbEntity
  8
1
 62
     7
100
AcDbLine
 10
251.114286945512
 20
154.0460911515368
 30
0.0
 11
250.6142869455123
 21
154.3347662861314
 31
0.0
  0
LINE
  5
2234
330
2136
100
AcDbEntity
  8
1
 62
     7
100
AcDbLine
 10
259.6292869455123
 20
154.3347662861314
 30
0.0
 11
259.1292869455123
 21
154.0460911515368
 31
0.0
  0
LINE
  5
2235
330
2136
100
AcDbEntity
  8
1
 62
     7
100
AcDbLine
 10
259.1292869455123
 20
154.0460911515368
 30
0.0
 11
251.114286945512
 21
154.0460911515368
 31
0.0
  0
LINE
  5
2236
330
2136
100
AcDbEntity
  8
1
 62
     7
100
AcDbLine
 10
259.6292869455123
 20
154.3347662861314
 30
0.0
 11
259.6292869455123
 21
158.4240911515363
 31
0.0
  0
LINE
  5
2237
330
2136
100
AcDbEntity
  8
1
 62
     7
100
AcDbLine
 10
250.8142869455121
 20
155.3635911515368
 30
0.0
 11
250.6142869455123
 21
155.1635911515367
 31
0.0
  0
LINE
  5
2238
330
2136
100
AcDbEntity
  8
1
 62
     7
100
AcDbLine
 10
259.6292869455123
 20
155.1635911515367
 30
0.0
 11
259.4292869455122
 21
155.3635911515368
 31
0.0
  0
LINE
  5
2239
330
2136
100
AcDbEntity
  8
1
 62
     7
100
AcDbLine
 10
259.4292869455122
 20
155.3635911515368
 30
0.0
 11
255.6998254525558
 21
155.3635911515368
 31
0.0
  0
LINE
  5
223A
330
2136
100
AcDbEntity
  8
1
 62
     7
100
AcDbLine
 10
254.5437484384688
 20
155.3635911515368
 30
0.0
 11
250.8142869455121
 21
155.3635911515368
 31
0.0
  0
LINE
  5
223B
330
2136
100
AcDbEntity
  8
1
 62
     7
100
AcDbLine
 10
250.6142869455123
 20
154.3347662861314
 30
0.0
 11
250.6142869455123
 21
158.4240911515363
 31
0.0
  0
LINE
  5
223C
330
2136
100
AcDbEntity
  8
1
 62
     7
100
AcDbLine
 10
257.9967869455123
 20
160.5310911515368
 30
0.0
 11
255.9324023078297
 21
160.5310911515368
 31
0.0
  0
LINE
  5
223D
330
2136
100
AcDbEntity
  8
1
 62
     7
100
AcDbLine
 10
254.3111715831948
 20
160.5310911515368
 30
0.0
 11
252.2467869455123
 21
160.5310911515368
 31
0.0
  0
LINE
  5
223E
330
2136
100
AcDbEntity
  8
1
 62
     7
100
AcDbLine
 10
251.9467869455124
 20
160.8310911515367
 30
0.0
 11
252.2467869455123
 21
160.5310911515368
 31
0.0
  0
LINE
  5
223F
330
2136
100
AcDbEntity
  8
1
 62
     7
100
AcDbLine
 10
251.9467869455124
 20
160.8310911515367
 30
0.0
 11
251.9467869455124
 21
161.7105911515368
 31
0.0
  0
LINE
  5
2240
330
2136
100
AcDbEntity
  8
1
 62
     7
100
AcDbLine
 10
251.9467869455124
 20
161.7105911515368
 30
0.0
 11
252.2467869455123
 21
162.0105911515364
 31
0.0
  0
LINE
  5
2241
330
2136
100
AcDbEntity
  8
1
 62
     7
100
AcDbLine
 10
258.2967869455123
 20
161.7105911515368
 30
0.0
 11
258.2967869455123
 21
160.8310911515367
 31
0.0
  0
LINE
  5
2242
330
2136
100
AcDbEntity
  8
1
 62
     7
100
AcDbLine
 10
257.9967869455123
 20
160.5310911515368
 30
0.0
 11
258.2967869455123
 21
160.8310911515367
 31
0.0
  0
LINE
  5
2243
330
2136
100
AcDbEntity
  8
1
 62
     7
100
AcDbLine
 10
257.9967869455123
 20
162.0105911515364
 30
0.0
 11
258.2967869455123
 21
161.7105911515368
 31
0.0
  0
LINE
  5
2244
330
2136
100
AcDbEntity
  8
1
 62
     7
100
AcDbLine
 10
257.9967869455123
 20
162.0105911515364
 30
0.0
 11
252.2467869455123
 21
162.0105911515364
 31
0.0
  0
LINE
  5
2245
330
2136
100
AcDbEntity
  8
1
 62
     7
100
AcDbLine
 10
228.8692869455124
 20
174.6200911515368
 30
0.0
 11
229.3692869455123
 21
174.1200911515364
 31
0.0
  0
LINE
  5
2246
330
2136
100
AcDbEntity
  8
1
 62
     7
100
AcDbLine
 10
229.3692869455123
 20
195.1200911515368
 30
0.0
 11
228.8692869455124
 21
194.6200911515368
 31
0.0
  0
LINE
  5
2247
330
2136
100
AcDbEntity
  8
1
 62
     7
100
AcDbLine
 10
226.8692869455124
 20
164.6200911515365
 30
0.0
 11
228.7432869455123
 21
164.6200911515369
 31
0.0
  0
LINE
  5
2248
330
2136
100
AcDbEntity
  8
1
 62
     7
100
AcDbLine
 10
226.8692869455124
 20
164.6200911515365
 30
0.0
 11
226.3692869455125
 21
165.1200911515368
 31
0.0
  0
LINE
  5
2249
330
2136
100
AcDbEntity
  8
1
 62
     7
100
AcDbLine
 10
229.3692869455123
 20
213.6240911515364
 30
0.0
 11
229.3692869455123
 21
155.6160911515368
 31
0.0
  0
LINE
  5
224A
330
2136
100
AcDbEntity
  8
1
 62
     7
100
AcDbLine
 10
228.7432869455123
 20
204.6200911515366
 30
0.0
 11
226.8692869455124
 21
204.6200911515366
 31
0.0
  0
LINE
  5
224B
330
2136
100
AcDbEntity
  8
1
 62
     7
100
AcDbLine
 10
228.9932869455123
 20
155.3660911515371
 30
0.0
 11
228.9932869455123
 21
164.3900911515368
 31
0.0
  0
LINE
  5
224C
330
2136
100
AcDbEntity
  8
1
 62
     7
100
AcDbLine
 10
228.9932869455123
 20
204.8900911515368
 30
0.0
 11
228.9932869455123
 21
213.8940911515367
 31
0.0
  0
LINE
  5
224D
330
2136
100
AcDbEntity
  8
1
 62
     7
100
AcDbLine
 10
226.3692869455125
 20
195.1200911515368
 30
0.0
 11
226.8692869455124
 21
194.6200911515368
 31
0.0
  0
LINE
  5
224E
330
2136
100
AcDbEntity
  8
1
 62
     7
100
AcDbLine
 10
226.3692869455125
 20
174.1200911515364
 30
0.0
 11
226.8692869455124
 21
174.6200911515368
 31
0.0
  0
LINE
  5
224F
330
2136
100
AcDbEntity
  8
1
 62
     7
100
AcDbLine
 10
226.3692869455125
 20
204.1200911515367
 30
0.0
 11
226.8692869455124
 21
204.6200911515366
 31
0.0
  0
LINE
  5
2250
330
2136
100
AcDbEntity
  8
1
 62
     7
100
AcDbLine
 10
226.8692869455124
 20
194.6200911515368
 30
0.0
 11
228.8692869455124
 21
194.6200911515368
 31
0.0
  0
LINE
  5
2251
330
2136
100
AcDbEntity
  8
1
 62
     7
100
AcDbLine
 10
226.8692869455124
 20
164.6200911515365
 30
0.0
 11
226.3692869455125
 21
165.1200911515368
 31
0.0
  0
LINE
  5
2252
330
2136
100
AcDbEntity
  8
1
 62
     7
100
AcDbLine
 10
228.8692869455124
 20
174.6200911515368
 30
0.0
 11
226.8692869455124
 21
174.6200911515368
 31
0.0
  0
LINE
  5
2253
330
2136
100
AcDbEntity
  8
1
 62
     7
100
AcDbLine
 10
229.3692869455123
 20
202.9200911515366
 30
0.0
 11
226.3692869455125
 21
202.9200911515366
 31
0.0
  0
LINE
  5
2254
330
2136
100
AcDbEntity
  8
1
 62
     7
100
AcDbLine
 10
229.3692869455123
 20
196.3200911515368
 30
0.0
 11
226.3692869455125
 21
196.3200911515368
 31
0.0
  0
LINE
  5
2255
330
2136
100
AcDbEntity
  8
1
  6
CENTER
 62
     3
100
AcDbLine
 10
230.4503122467121
 20
199.6200911515368
 30
0.0
 11
225.1088504631608
 21
199.6200911515368
 31
0.0
  0
LINE
  5
2256
330
2136
100
AcDbEntity
  8
1
 62
     3
100
AcDbLine
 10
226.3692869455125
 20
165.6200911515368
 30
0.0
 11
229.3692869455123
 21
165.6200911515368
 31
0.0
  0
LINE
  5
2257
330
2136
100
AcDbEntity
  8
1
 62
     3
100
AcDbLine
 10
226.3692869455125
 20
169.6200911515368
 30
0.0
 11
229.3692869455123
 21
169.6200911515368
 31
0.0
  0
LINE
  5
2258
330
2136
100
AcDbEntity
  8
1
  6
CENTER
 62
     3
100
AcDbLine
 10
225.7692869455123
 20
167.6200911515365
 30
0.0
 11
229.9692869455123
 21
167.6200911515365
 31
0.0
  0
LINE
  5
2259
330
2136
100
AcDbEntity
  8
1
 62
     7
100
AcDbLine
 10
226.3692869455125
 20
166.0200911515364
 30
0.0
 11
229.3692869455123
 21
166.0200911515364
 31
0.0
  0
LINE
  5
225A
330
2136
100
AcDbEntity
  8
1
 62
     7
100
AcDbLine
 10
226.3692869455125
 20
169.2200911515367
 30
0.0
 11
229.3692869455123
 21
169.2200911515367
 31
0.0
  0
LINE
  5
225B
330
2136
100
AcDbEntity
  8
1
 62
     7
100
AcDbLine
 10
226.3692869455125
 20
165.1200911515368
 30
0.0
 11
226.3692869455125
 21
204.1200911515367
 31
0.0
  0
LINE
  5
225C
330
2136
100
AcDbEntity
  8
1
 62
     7
100
AcDbLine
 10
230.9322869455124
 20
215.1870911515368
 30
0.0
 11
259.3692869455125
 21
215.1870911515368
 31
0.0
  0
LINE
  5
225D
330
2136
100
AcDbEntity
  8
1
 62
     7
100
AcDbLine
 10
230.8262869455122
 20
215.6870911515368
 30
0.0
 11
242.4992869455123
 21
215.6870911515368
 31
0.0
  0
LINE
  5
225E
330
2136
100
AcDbEntity
  8
1
 62
     7
100
AcDbLine
 10
250.6142869455123
 20
214.8984160169418
 30
0.0
 11
250.6142869455123
 21
210.8090911515364
 31
0.0
  0
LINE
  5
225F
330
2136
100
AcDbEntity
  8
1
 62
     7
100
AcDbLine
 10
250.6142869455123
 20
214.8984160169418
 30
0.0
 11
251.114286945512
 21
215.1870911515368
 31
0.0
  0
LINE
  5
2260
330
2136
100
AcDbEntity
  8
1
 62
     7
100
AcDbLine
 10
250.6142869455123
 20
214.0765911515368
 30
0.0
 11
250.8142869455121
 21
213.8765911515368
 31
0.0
  0
LINE
  5
2261
330
2136
100
AcDbEntity
  8
1
 62
     7
100
AcDbLine
 10
250.8142869455121
 20
213.8765911515368
 30
0.0
 11
254.5437484384688
 21
213.8765911515368
 31
0.0
  0
LINE
  5
2262
330
2136
100
AcDbEntity
  8
1
 62
     7
100
AcDbLine
 10
259.1292869455123
 20
215.1870911515368
 30
0.0
 11
259.6292869455123
 21
214.8984160169418
 31
0.0
  0
LINE
  5
2263
330
2136
100
AcDbEntity
  8
1
 62
     7
100
AcDbLine
 10
251.114286945512
 20
215.1870911515368
 30
0.0
 11
259.1292869455123
 21
215.1870911515368
 31
0.0
  0
LINE
  5
2264
330
2136
100
AcDbEntity
  8
1
 62
     7
100
AcDbLine
 10
255.6998254525558
 20
213.8765911515368
 30
0.0
 11
259.4292869455122
 21
213.8765911515368
 31
0.0
  0
LINE
  5
2265
330
2136
100
AcDbEntity
  8
1
 62
     7
100
AcDbLine
 10
259.6292869455123
 20
214.8984160169418
 30
0.0
 11
259.6292869455123
 21
210.8090911515364
 31
0.0
  0
LINE
  5
2266
330
2136
100
AcDbEntity
  8
1
 62
     7
100
AcDbLine
 10
259.4292869455122
 20
213.8765911515368
 30
0.0
 11
259.6292869455123
 21
214.0765911515368
 31
0.0
  0
LINE
  5
2267
330
2136
100
AcDbEntity
  8
1
 62
     7
100
AcDbLine
 10
252.2467869455123
 20
208.7090911515367
 30
0.0
 11
254.3111715831948
 21
208.7090911515367
 31
0.0
  0
LINE
  5
2268
330
2136
100
AcDbEntity
  8
1
 62
     7
100
AcDbLine
 10
252.2467869455123
 20
208.7090911515367
 30
0.0
 11
251.9467869455124
 21
208.4090911515364
 31
0.0
  0
LINE
  5
2269
330
2136
100
AcDbEntity
  8
1
 62
     7
100
AcDbLine
 10
251.9467869455124
 20
207.5225911515368
 30
0.0
 11
251.9467869455124
 21
208.4090911515364
 31
0.0
  0
LINE
  5
226A
330
2136
100
AcDbEntity
  8
1
 62
     7
100
AcDbLine
 10
255.9324023078297
 20
208.7090911515367
 30
0.0
 11
257.9967869455123
 21
208.7090911515367
 31
0.0
  0
LINE
  5
226B
330
2136
100
AcDbEntity
  8
1
 62
     7
100
AcDbLine
 10
258.2967869455123
 20
208.4090911515364
 30
0.0
 11
257.9967869455123
 21
208.7090911515367
 31
0.0
  0
LINE
  5
226C
330
2136
100
AcDbEntity
  8
1
 62
     7
100
AcDbLine
 10
258.2967869455123
 20
208.4090911515364
 30
0.0
 11
258.2967869455123
 21
207.5225911515368
 31
0.0
  0
LINE
  5
226D
330
2136
100
AcDbEntity
  8
1
 62
     7
100
AcDbLine
 10
252.2467869455123
 20
207.2225911515368
 30
0.0
 11
251.9467869455124
 21
207.5225911515368
 31
0.0
  0
LINE
  5
226E
330
2136
100
AcDbEntity
  8
1
 62
     7
100
AcDbLine
 10
258.2967869455123
 20
207.5225911515368
 30
0.0
 11
257.9967869455123
 21
207.2225911515368
 31
0.0
  0
LINE
  5
226F
330
2136
100
AcDbEntity
  8
1
 62
     7
100
AcDbLine
 10
252.2467869455123
 20
207.2225911515368
 30
0.0
 11
257.9967869455123
 21
207.2225911515368
 31
0.0
  0
LINE
  5
2270
330
2136
100
AcDbEntity
  8
1
 62
     7
100
AcDbLine
 10
260.3692869455124
 20
215.7450911515367
 30
0.0
 11
260.3692869455124
 21
207.2225911515368
 31
0.0
  0
LINE
  5
2271
330
2136
100
AcDbEntity
  8
1
 62
     7
100
AcDbLine
 10
259.3692869455125
 20
215.1870911515368
 30
0.0
 11
260.3692869455124
 21
215.2394989308199
 31
0.0
  0
LINE
  5
2272
330
2136
100
AcDbEntity
  8
1
 62
     7
100
AcDbLine
 10
259.5185063945052
 20
216.5958717025437
 30
0.0
 11
260.3692869455124
 21
215.7450911515367
 31
0.0
  0
LINE
  5
2273
330
2136
100
AcDbEntity
  8
1
 62
     7
100
AcDbLine
 10
254.1192869455124
 20
216.6230911515368
 30
0.0
 11
249.0313948739196
 21
216.5609277305711
 31
0.0
  0
LINE
  5
2274
330
2136
100
AcDbEntity
  8
1
 62
     7
100
AcDbLine
 10
257.1192869455125
 20
216.6230911515368
 30
0.0
 11
254.1192869455124
 21
216.6230911515368
 31
0.0
  0
LINE
  5
2275
330
2136
100
AcDbEntity
  8
1
 62
     7
100
AcDbLine
 10
257.1192869455125
 20
216.6230911515368
 30
0.0
 11
259.5185063945052
 21
216.5958717025437
 31
0.0
  0
LINE
  5
2276
330
2136
100
AcDbEntity
  8
1
 62
     7
100
AcDbLine
 10
250.8692869455418
 20
162.0140914910703
 30
0.0
 11
258.2692869454958
 21
162.0140914910703
 31
0.0
  0
LINE
  5
2277
330
2136
100
AcDbEntity
  8
1
  6
CENTER
 62
     3
100
AcDbLine
 10
145.2901789470925
 20
184.6200911515364
 30
0.0
 11
145.7901784440339
 21
184.6200911515364
 31
0.0
  0
LINE
  5
2278
330
2136
100
AcDbEntity
  8
1
  6
CENTER
 62
     3
100
AcDbLine
 10
145.2901789470925
 20
184.6200911515364
 30
0.0
 11
145.7901784440339
 21
184.6200911515364
 31
0.0
  0
ARC
  5
2279
330
2136
100
AcDbEntity
  8
1
 62
     7
100
AcDbCircle
 10
353.3692869455463
 20
184.6200911515364
 30
0.0
 40
28.51000000000007
100
AcDbArc
 50
79.36634927834373
 51
84.98147680861249
  0
ARC
  5
227A
330
2136
100
AcDbEntity
  8
1
 62
     7
100
AcDbCircle
 10
360.5580219130253
 20
210.277022272919
 30
0.0
 40
3.049999999999922
100
AcDbArc
 50
129.203269103487
 51
205.8417107915164
  0
ARC
  5
227B
330
2136
100
AcDbEntity
  8
1
 62
     7
100
AcDbCircle
 10
353.3692869455463
 20
184.6200911515364
 30
0.0
 40
24.73000000000007
100
AcDbArc
 50
79.64830543687776
 51
84.69952065007818
  0
ARC
  5
227C
330
2136
100
AcDbEntity
  8
1
 62
     7
100
AcDbCircle
 10
353.3692869455463
 20
211.2650911515368
 30
0.0
 40
3.050000000000149
100
AcDbArc
 50
318.5061152954411
 51
35.14455698346823
  0
ARC
  5
227D
330
2136
100
AcDbEntity
  8
1
 62
     7
100
AcDbCircle
 10
360.5580219130253
 20
210.277022272919
 30
0.0
 40
3.05000000000006
100
AcDbArc
 50
302.8539413823966
 51
19.49238307042364
  0
ARC
  5
227E
330
2136
100
AcDbEntity
  8
1
 62
     7
100
AcDbCircle
 10
353.3692869455463
 20
184.6200911515364
 30
0.0
 40
24.73000000000011
100
AcDbArc
 50
63.9961315238342
 51
69.04734673703481
  0
ARC
  5
227F
330
2136
100
AcDbEntity
  8
1
 62
     7
100
AcDbCircle
 10
367.2136012942401
 20
207.3860961856776
 30
0.0
 40
3.049999999999982
100
AcDbArc
 50
113.5510951904449
 51
190.1895368784715
  0
ARC
  5
2280
330
2136
100
AcDbEntity
  8
1
 62
     7
100
AcDbCircle
 10
353.3692869455463
 20
184.6200911515364
 30
0.0
 40
28.51000000000004
100
AcDbArc
 50
63.71417536530051
 51
69.32930289556866
  0
ARC
  5
2281
330
2136
100
AcDbEntity
  8
1
 62
     7
100
AcDbCircle
 10
370.184625222114
 20
163.9512638107175
 30
0.0
 40
3.050000000000181
100
AcDbArc
 50
177.6365500780495
 51
233.4736168551976
  0
ARC
  5
2282
330
2136
100
AcDbEntity
  8
1
 62
     7
100
AcDbCircle
 10
353.3692869455463
 20
184.6200911515364
 30
0.0
 40
24.73
100
AcDbArc
 50
298.7787402194864
 51
303.8299554326868
  0
ARC
  5
2283
330
2136
100
AcDbEntity
  8
1
 62
     7
100
AcDbCircle
 10
363.9846839844995
 20
160.1809960229238
 30
0.0
 40
3.04999999999995
100
AcDbArc
 50
348.333703886098
 51
64.97214557412667
  0
ARC
  5
2284
330
2136
100
AcDbEntity
  8
1
 62
     7
100
AcDbCircle
 10
353.3692869455463
 20
184.6200911515364
 30
0.0
 40
28.51
100
AcDbArc
 50
298.4967840609531
 51
301.7444251288071
  0
ARC
  5
2285
330
2136
100
AcDbEntity
  8
1
 62
     7
100
AcDbCircle
 10
363.9846839844995
 20
160.1809960229238
 30
0.0
 40
3.05000000000005
100
AcDbArc
 50
161.9843761650044
 51
238.6228178530329
  0
ARC
  5
2286
330
2136
100
AcDbEntity
  8
1
 62
     7
100
AcDbCircle
 10
353.3692869455463
 20
184.6200911515364
 30
0.0
 40
24.73
100
AcDbArc
 50
283.1265663064431
 51
288.1777815196439
  0
ARC
  5
2287
330
2136
100
AcDbEntity
  8
1
 62
     7
100
AcDbCircle
 10
356.9974473107158
 20
158.2232641193986
 30
0.0
 40
3.049999999999978
100
AcDbArc
 50
332.6815299730516
 51
49.31997166107962
  0
ARC
  5
2288
330
2136
100
AcDbEntity
  8
1
 62
     7
100
AcDbCircle
 10
353.3692869455463
 20
184.6200911515364
 30
0.0
 40
28.51
100
AcDbArc
 50
282.8446101479091
 51
288.4597376781776
  0
ARC
  5
2289
330
2136
100
AcDbEntity
  8
1
 62
     7
100
AcDbCircle
 10
356.9974473107158
 20
158.2232641193986
 30
0.0
 40
3.049999999999971
100
AcDbArc
 50
146.3322022519608
 51
222.9706439399911
  0
ARC
  5
228A
330
2136
100
AcDbEntity
  8
1
 62
     7
100
AcDbCircle
 10
353.3692869455463
 20
184.6200911515364
 30
0.0
 40
24.72999999999994
100
AcDbArc
 50
267.4743923933998
 51
272.5256076066004
  0
ARC
  5
228B
330
2136
100
AcDbEntity
  8
1
 62
     7
100
AcDbCircle
 10
349.7411265803768
 20
158.2232641193986
 30
0.0
 40
3.049999999999823
100
AcDbArc
 50
317.0293560600085
 51
33.66779774803828
  0
ARC
  5
228C
330
2136
100
AcDbEntity
  8
1
 62
     7
100
AcDbCircle
 10
353.3692869455463
 20
184.6200911515364
 30
0.0
 40
28.50999999999989
100
AcDbArc
 50
267.1924362348659
 51
272.8075637651343
  0
ARC
  5
228D
330
2136
100
AcDbEntity
  8
1
 62
     7
100
AcDbCircle
 10
349.7411265803768
 20
158.2232641193986
 30
0.0
 40
3.050000000000018
100
AcDbArc
 50
130.6800283389192
 51
207.3184700269478
  0
ARC
  5
228E
330
2136
100
AcDbEntity
  8
1
 62
     7
100
AcDbCircle
 10
353.3692869455463
 20
184.6200911515364
 30
0.0
 40
24.72999999999994
100
AcDbArc
 50
251.8222184803561
 51
256.8734336935568
  0
ARC
  5
228F
330
2136
100
AcDbEntity
  8
1
 62
     7
100
AcDbCircle
 10
342.7538899065928
 20
160.1809960229241
 30
0.0
 40
3.05000000000006
100
AcDbArc
 50
301.3771821469678
 51
18.01562383499376
  0
ARC
  5
2290
330
2136
100
AcDbEntity
  8
1
 62
     7
100
AcDbCircle
 10
353.3692869455463
 20
184.6200911515364
 30
0.0
 40
28.50999999999989
100
AcDbArc
 50
251.5402623218227
 51
257.1553898520908
  0
ARC
  5
2291
330
2136
100
AcDbEntity
  8
1
 62
     7
100
AcDbCircle
 10
342.7538899065928
 20
160.1809960229241
 30
0.0
 40
3.049999999999891
100
AcDbArc
 50
115.027854425874
 51
191.6662961139044
  0
ARC
  5
2292
330
2136
100
AcDbEntity
  8
1
 62
     7
100
AcDbCircle
 10
353.3692869455463
 20
184.6200911515364
 30
0.0
 40
24.72999999999986
100
AcDbArc
 50
236.1700445673132
 51
241.2212597805134
  0
ARC
  5
2293
330
2136
100
AcDbEntity
  8
1
 62
     7
100
AcDbCircle
 10
336.5539486689787
 20
163.9512638107175
 30
0.0
 40
3.050000000000001
100
AcDbArc
 50
285.7250082339231
 51
2.363449921950469
  0
ARC
  5
2294
330
2136
100
AcDbEntity
  8
1
 62
     7
100
AcDbCircle
 10
353.3692869455463
 20
184.6200911515364
 30
0.0
 40
28.50999999999987
100
AcDbArc
 50
235.8880884087791
 51
241.5032159390472
  0
ARC
  5
2295
330
2136
100
AcDbEntity
  8
1
 62
     7
100
AcDbCircle
 10
336.5539486689787
 20
163.9512638107175
 30
0.0
 40
3.050000000000038
100
AcDbArc
 50
99.375680512835
 51
176.0141222008599
  0
ARC
  5
2296
330
2136
100
AcDbEntity
  8
1
 62
     7
100
AcDbCircle
 10
353.3692869455463
 20
184.6200911515364
 30
0.0
 40
24.73
100
AcDbArc
 50
220.5178706542688
 51
225.5690858674696
  0
ARC
  5
2297
330
2136
100
AcDbEntity
  8
1
 62
     7
100
AcDbCircle
 10
331.6011241462831
 20
169.2544439687861
 30
0.0
 40
3.049999999999946
100
AcDbArc
 50
270.0728343208786
 51
346.7112760089075
  0
ARC
  5
2298
330
2136
100
AcDbEntity
  8
1
 62
     7
100
AcDbCircle
 10
353.3692869455463
 20
184.6200911515364
 30
0.0
 40
28.50999999999989
100
AcDbArc
 50
220.2359144957353
 51
225.8510420260035
  0
ARC
  5
2299
330
2136
100
AcDbEntity
  8
1
 62
     7
100
AcDbCircle
 10
331.6011241462831
 20
169.2544439687861
 30
0.0
 40
3.050000000000076
100
AcDbArc
 50
83.72350659978705
 51
160.361948287818
  0
ARC
  5
229A
330
2136
100
AcDbEntity
  8
1
 62
     7
100
AcDbCircle
 10
353.3692869455463
 20
184.6200911515364
 30
0.0
 40
24.72999999999996
100
AcDbArc
 50
204.8656967412258
 51
209.9169119544263
  0
ARC
  5
229B
330
2136
100
AcDbEntity
  8
1
 62
     7
100
AcDbCircle
 10
328.2627446756904
 20
175.6972238852409
 30
0.0
 40
3.049999999999998
100
AcDbArc
 50
254.4206604078349
 51
331.0591020958621
  0
ARC
  5
229C
330
2136
100
AcDbEntity
  8
1
 62
     7
100
AcDbCircle
 10
353.3692869455463
 20
184.6200911515364
 30
0.0
 40
28.50999999999985
100
AcDbArc
 50
204.5837405826921
 51
210.19886811296
  0
ARC
  5
229D
330
2136
100
AcDbEntity
  8
1
 62
     7
100
AcDbCircle
 10
328.2627446756904
 20
175.6972238852409
 30
0.0
 40
3.050000000000001
100
AcDbArc
 50
68.07133268674758
 51
144.709774374775
  0
ARC
  5
229E
330
2136
100
AcDbEntity
  8
1
 62
     7
100
AcDbCircle
 10
353.3692869455463
 20
184.6200911515364
 30
0.0
 40
24.72999999999994
100
AcDbArc
 50
189.2135228281821
 51
194.2647380413824
  0
ARC
  5
229F
330
2136
100
AcDbEntity
  8
1
 62
     7
100
AcDbCircle
 10
326.7864025904643
 20
182.8017720474351
 30
0.0
 40
3.050000000000026
100
AcDbArc
 50
238.7684864947904
 51
315.4069281828186
  0
ARC
  5
22A0
330
2136
100
AcDbEntity
  8
1
 62
     7
100
AcDbCircle
 10
353.3692869455463
 20
184.6200911515364
 30
0.0
 40
28.50999999999994
100
AcDbArc
 50
188.9315666696479
 51
194.5466941999168
  0
ARC
  5
22A1
330
2136
100
AcDbEntity
  8
1
 62
     7
100
AcDbCircle
 10
326.7864025904643
 20
182.8017720474351
 30
0.0
 40
3.050000000000011
100
AcDbArc
 50
52.41915877370164
 51
129.0576004617314
  0
ARC
  5
22A2
330
2136
100
AcDbEntity
  8
1
 62
     7
100
AcDbCircle
 10
353.3692869455463
 20
184.6200911515364
 30
0.0
 40
24.72999999999981
100
AcDbArc
 50
173.561348915139
 51
178.612564128339
  0
ARC
  5
22A3
330
2136
100
AcDbEntity
  8
1
 62
     7
100
AcDbCircle
 10
327.2815914292507
 20
190.0411766193241
 30
0.0
 40
3.050000000000046
100
AcDbArc
 50
223.1163125817468
 51
299.7547542697768
  0
ARC
  5
22A4
330
2136
100
AcDbEntity
  8
1
 62
     7
100
AcDbCircle
 10
353.3692869455463
 20
184.6200911515364
 30
0.0
 40
28.50999999999998
100
AcDbArc
 50
173.2793927566044
 51
178.8945202868733
  0
ARC
  5
22A5
330
2136
100
AcDbEntity
  8
1
 62
     7
100
AcDbCircle
 10
327.2815914292507
 20
190.0411766193241
 30
0.0
 40
3.049999999999943
100
AcDbArc
 50
36.7669848606587
 51
113.4054265486864
  0
ARC
  5
22A6
330
2136
100
AcDbEntity
  8
1
 62
     7
100
AcDbCircle
 10
353.3692869455463
 20
184.6200911515364
 30
0.0
 40
24.72999999999994
100
AcDbArc
 50
157.9091750020952
 51
162.9603902152958
  0
ARC
  5
22A7
330
2136
100
AcDbEntity
  8
1
 62
     7
100
AcDbCircle
 10
329.7115853012151
 20
196.878524081883
 30
0.0
 40
3.050000000000068
100
AcDbArc
 50
207.4641386687035
 51
284.1025803567316
  0
ARC
  5
22A8
330
2136
100
AcDbEntity
  8
1
 62
     7
100
AcDbCircle
 10
353.3692869455463
 20
184.6200911515364
 30
0.0
 40
28.51
100
AcDbArc
 50
157.6272188435611
 51
163.2423463738296
  0
ARC
  5
22A9
330
2136
100
AcDbEntity
  8
1
 62
     7
100
AcDbCircle
 10
329.7115853012151
 20
196.878524081883
 30
0.0
 40
3.050000000000046
100
AcDbArc
 50
21.11481094761451
 51
97.75325263564205
  0
ARC
  5
22AA
330
2136
100
AcDbEntity
  8
1
 62
     7
100
AcDbCircle
 10
353.3692869455463
 20
184.6200911515364
 30
0.0
 40
24.72999999999993
100
AcDbArc
 50
142.2570010890519
 51
147.3082163022521
  0
ARC
  5
22AB
330
2136
100
AcDbEntity
  8
1
 62
     7
100
AcDbCircle
 10
333.8961626773559
 20
202.8067196525979
 30
0.0
 40
3.049999999999982
100
AcDbArc
 50
191.8119647556627
 51
268.4504064436885
  0
ARC
  5
22AC
330
2136
100
AcDbEntity
  8
1
 62
     7
100
AcDbCircle
 10
353.3692869455463
 20
184.6200911515364
 30
0.0
 40
28.50999999999988
100
AcDbArc
 50
141.9750449305174
 51
147.5901724607861
  0
ARC
  5
22AD
330
2136
100
AcDbEntity
  8
1
 62
     7
100
AcDbCircle
 10
333.8961626773559
 20
202.8067196525979
 30
0.0
 40
3.049999999999911
100
AcDbArc
 50
5.462637034571288
 51
82.10107872260126
  0
ARC
  5
22AE
330
2136
100
AcDbEntity
  8
1
 62
     7
100
AcDbCircle
 10
353.3692869455463
 20
184.6200911515364
 30
0.0
 40
24.72999999999987
100
AcDbArc
 50
126.6048271760078
 51
131.6560423892088
  0
ARC
  5
22AF
330
2136
100
AcDbEntity
  8
1
 62
     7
100
AcDbCircle
 10
339.5249725968523
 20
207.3860961856776
 30
0.0
 40
3.050000000000181
100
AcDbArc
 50
176.1597908426185
 51
252.7982325306468
  0
ARC
  5
22B0
330
2136
100
AcDbEntity
  8
1
 62
     7
100
AcDbCircle
 10
353.3692869455463
 20
184.6200911515364
 30
0.0
 40
28.51
100
AcDbArc
 50
126.3228710174745
 51
131.9379985477428
  0
ARC
  5
22B1
330
2136
100
AcDbEntity
  8
1
 62
     7
100
AcDbCircle
 10
339.5249725968523
 20
207.3860961856776
 30
0.0
 40
3.049999999999946
100
AcDbArc
 50
349.8104631215277
 51
66.44890480955685
  0
ARC
  5
22B2
330
2136
100
AcDbEntity
  8
1
 62
     7
100
AcDbCircle
 10
353.3692869455463
 20
184.6200911515364
 30
0.0
 40
24.72999999999996
100
AcDbArc
 50
110.9526532629649
 51
116.0038684761654
  0
ARC
  5
22B3
330
2136
100
AcDbEntity
  8
1
 62
     7
100
AcDbCircle
 10
346.1805519780674
 20
210.2770222729188
 30
0.0
 40
3.049999999999922
100
AcDbArc
 50
160.5076169295745
 51
237.1460586176024
  0
ARC
  5
22B4
330
2136
100
AcDbEntity
  8
1
 62
     7
100
AcDbCircle
 10
353.3692869455463
 20
184.6200911515364
 30
0.0
 40
28.50999999999996
100
AcDbArc
 50
110.6706971044306
 51
116.285824634699
  0
ARC
  5
22B5
330
2136
100
AcDbEntity
  8
1
 62
     7
100
AcDbCircle
 10
346.1805519780674
 20
210.2770222729188
 30
0.0
 40
3.050000000000034
100
AcDbArc
 50
334.1582892084853
 51
50.79673089651343
  0
ARC
  5
22B6
330
2136
100
AcDbEntity
  8
1
 62
     7
100
AcDbCircle
 10
353.3692869455463
 20
184.6200911515364
 30
0.0
 40
24.73000000000003
100
AcDbArc
 50
95.3004793499214
 51
100.3516945631218
  0
ARC
  5
22B7
330
2136
100
AcDbEntity
  8
1
 62
     7
100
AcDbCircle
 10
353.3692869455463
 20
211.2650911515368
 30
0.0
 40
3.049999999999778
100
AcDbArc
 50
144.8554430165299
 51
221.4938847045603
  0
ARC
  5
22B8
330
2136
100
AcDbEntity
  8
1
 62
     7
100
AcDbCircle
 10
353.3692869455463
 20
184.6200911515364
 30
0.0
 40
28.51000000000003
100
AcDbArc
 50
95.01852319138711
 51
100.6336507216557
  0
ARC
  5
22B9
330
2136
100
AcDbEntity
  8
1
 62
     7
100
AcDbCircle
 10
353.3692869455295
 20
184.6200911515364
 30
0.0
 40
28.51000000000004
100
AcDbArc
 50
79.36634927834416
 51
84.98147680861249
  0
ARC
  5
22BA
330
2136
100
AcDbEntity
  8
1
 62
     7
100
AcDbCircle
 10
353.3692869455295
 20
211.2650911515368
 30
0.0
 40
3.050000000000063
100
AcDbArc
 50
318.5061152954396
 51
35.1445569834689
  0
ARC
  5
22BB
330
2136
100
AcDbEntity
  8
1
 62
     7
100
AcDbCircle
 10
353.3692869455295
 20
184.6200911515364
 30
0.0
 40
24.73000000000005
100
AcDbArc
 50
79.64830543687816
 51
84.69952065007859
  0
ARC
  5
22BC
330
2136
100
AcDbEntity
  8
1
 62
     7
100
AcDbCircle
 10
360.5580219130083
 20
210.2770222729188
 30
0.0
 40
3.04999999999999
100
AcDbArc
 50
129.2032691034864
 51
205.8417107915154
  0
ARC
  5
22BD
330
2136
100
AcDbEntity
  8
1
 62
     7
100
AcDbCircle
 10
353.3692869455295
 20
184.6200911515364
 30
0.0
 40
28.50999999999996
100
AcDbArc
 50
63.71417536530087
 51
69.32930289556892
  0
ARC
  5
22BE
330
2136
100
AcDbEntity
  8
1
 62
     7
100
AcDbCircle
 10
360.5580219130083
 20
210.2770222729188
 30
0.0
 40
3.050000000000022
100
AcDbArc
 50
302.8539413823978
 51
19.49238307042542
  0
ARC
  5
22BF
330
2136
100
AcDbEntity
  8
1
 62
     7
100
AcDbCircle
 10
353.3692869455295
 20
184.6200911515364
 30
0.0
 40
24.73000000000004
100
AcDbArc
 50
63.99613152383454
 51
69.04734673703481
  0
ARC
  5
22C0
330
2136
100
AcDbEntity
  8
1
 62
     7
100
AcDbCircle
 10
367.2136012942236
 20
207.3860961856776
 30
0.0
 40
3.049999999999982
100
AcDbArc
 50
113.5510951904449
 51
190.1895368784715
  0
ARC
  5
22C1
330
2136
100
AcDbEntity
  8
1
 62
     7
100
AcDbCircle
 10
353.3692869455295
 20
184.6200911515364
 30
0.0
 40
28.50999999999999
100
AcDbArc
 50
48.06200145225711
 51
53.67712898252534
  0
ARC
  5
22C2
330
2136
100
AcDbEntity
  8
1
 62
     7
100
AcDbCircle
 10
367.2136012942236
 20
207.3860961856776
 30
0.0
 40
3.050000000000022
100
AcDbArc
 50
287.2017674693531
 51
3.840209157381451
  0
ARC
  5
22C3
330
2136
100
AcDbEntity
  8
1
 62
     7
100
AcDbCircle
 10
353.3692869455295
 20
184.6200911515364
 30
0.0
 40
24.73000000000001
100
AcDbArc
 50
48.34395761079109
 51
53.39517282399185
  0
ARC
  5
22C4
330
2136
100
AcDbEntity
  8
1
 62
     7
100
AcDbCircle
 10
372.84241121372
 20
202.8067196525979
 30
0.0
 40
3.049999999999907
100
AcDbArc
 50
97.89892127740076
 51
174.5373629654285
  0
ARC
  5
22C5
330
2136
100
AcDbEntity
  8
1
 62
     7
100
AcDbCircle
 10
353.3692869455295
 20
184.6200911515364
 30
0.0
 40
28.50999999999998
100
AcDbArc
 50
32.40982753921382
 51
38.02495506948222
  0
ARC
  5
22C6
330
2136
100
AcDbEntity
  8
1
 62
     7
100
AcDbCircle
 10
372.84241121372
 20
202.8067196525979
 30
0.0
 40
3.050000000000068
100
AcDbArc
 50
271.5495935563091
 51
348.1880352443373
  0
ARC
  5
22C7
330
2136
100
AcDbEntity
  8
1
 62
     7
100
AcDbCircle
 10
353.3692869455295
 20
184.6200911515364
 30
0.0
 40
24.72999999999996
100
AcDbArc
 50
32.69178369774774
 51
37.74299891094797
  0
ARC
  5
22C8
330
2136
100
AcDbEntity
  8
1
 62
     7
100
AcDbCircle
 10
377.0269885898608
 20
196.878524081883
 30
0.0
 40
3.049999999999986
100
AcDbArc
 50
82.24674736435797
 51
158.8851890523854
  0
ARC
  5
22C9
330
2136
100
AcDbEntity
  8
1
 62
     7
100
AcDbCircle
 10
353.3692869455295
 20
184.6200911515364
 30
0.0
 40
28.50999999999991
100
AcDbArc
 50
16.75765362617028
 51
22.37278115643876
  0
ARC
  5
22CA
330
2136
100
AcDbEntity
  8
1
 62
     7
100
AcDbCircle
 10
377.0269885898608
 20
196.878524081883
 30
0.0
 40
3.05000000000005
100
AcDbArc
 50
255.8974196432671
 51
332.5358613312952
  0
ARC
  5
22CB
330
2136
100
AcDbEntity
  8
1
 62
     7
100
AcDbCircle
 10
353.3692869455295
 20
184.6200911515364
 30
0.0
 40
24.73000000000002
100
AcDbArc
 50
17.03960978470417
 51
22.0908249979048
  0
ARC
  5
22CC
330
2136
100
AcDbEntity
  8
1
 62
     7
100
AcDbCircle
 10
379.4569824618247
 20
190.0411766193241
 30
0.0
 40
3.049999999999943
100
AcDbArc
 50
66.59457345131535
 51
143.2330151393414
  0
ARC
  5
22CD
330
2136
100
AcDbEntity
  8
1
 62
     7
100
AcDbCircle
 10
353.3692869455295
 20
184.6200911515364
 30
0.0
 40
28.51
100
AcDbArc
 50
1.105479713126672
 51
6.720607243395415
  0
ARC
  5
22CE
330
2136
100
AcDbEntity
  8
1
 62
     7
100
AcDbCircle
 10
379.4569824618247
 20
190.0411766193241
 30
0.0
 40
3.050000000000038
100
AcDbArc
 50
240.2452457302229
 51
316.8836874182511
  0
ARC
  5
22CF
330
2136
100
AcDbEntity
  8
1
 62
     7
100
AcDbCircle
 10
353.3692869455295
 20
184.6200911515364
 30
0.0
 40
24.72999999999996
100
AcDbArc
 50
1.387435871660749
 51
6.438651084860977
  0
ARC
  5
22D0
330
2136
100
AcDbEntity
  8
1
 62
     7
100
AcDbCircle
 10
379.9521713006112
 20
182.8017720474351
 30
0.0
 40
3.050000000000001
100
AcDbArc
 50
50.94239953827004
 51
127.580841226298
  0
ARC
  5
22D1
330
2136
100
AcDbEntity
  8
1
 62
     7
100
AcDbCircle
 10
353.3692869455295
 20
184.6200911515364
 30
0.0
 40
28.51
100
AcDbArc
 50
345.4533058000831
 51
351.0684333303517
  0
ARC
  5
22D2
330
2136
100
AcDbEntity
  8
1
 62
     7
100
AcDbCircle
 10
379.9521713006112
 20
182.8017720474351
 30
0.0
 40
3.050000000000014
100
AcDbArc
 50
224.5930718171794
 51
301.2315135052076
  0
ARC
  5
22D3
330
2136
100
AcDbEntity
  8
1
 62
     7
100
AcDbCircle
 10
353.3692869455295
 20
184.6200911515364
 30
0.0
 40
24.72999999999994
100
AcDbArc
 50
345.7352619586174
 51
350.7864771718177
  0
ARC
  5
22D4
330
2136
100
AcDbEntity
  8
1
 62
     7
100
AcDbCircle
 10
378.4758292153852
 20
175.6972238852409
 30
0.0
 40
3.050000000000038
100
AcDbArc
 50
35.29022562522522
 51
111.9286673132537
  0
ARC
  5
22D5
330
2136
100
AcDbEntity
  8
1
 62
     7
100
AcDbCircle
 10
353.3692869455295
 20
184.6200911515364
 30
0.0
 40
28.51000000000003
100
AcDbArc
 50
329.8011318870397
 51
335.4162594173079
  0
ARC
  5
22D6
330
2136
100
AcDbEntity
  8
1
 62
     7
100
AcDbCircle
 10
378.4758292153852
 20
175.6972238852409
 30
0.0
 40
3.049999999999871
100
AcDbArc
 50
208.9408979041372
 51
285.5793395921649
  0
ARC
  5
22D7
330
2136
100
AcDbEntity
  8
1
 62
     7
100
AcDbCircle
 10
353.3692869455295
 20
184.6200911515364
 30
0.0
 40
24.72999999999989
100
AcDbArc
 50
330.0830880455734
 51
335.1343032587741
  0
ARC
  5
22D8
330
2136
100
AcDbEntity
  8
1
 62
     7
100
AcDbCircle
 10
375.1374497447927
 20
169.2544439687861
 30
0.0
 40
3.050000000000056
100
AcDbArc
 50
19.63805171218276
 51
96.27649340021179
  0
ARC
  5
22D9
330
2136
100
AcDbEntity
  8
1
 62
     7
100
AcDbCircle
 10
353.3692869455295
 20
184.6200911515364
 30
0.0
 40
28.51
100
AcDbArc
 50
314.1489579739961
 51
319.7640855042643
  0
ARC
  5
22DA
330
2136
100
AcDbEntity
  8
1
 62
     7
100
AcDbCircle
 10
375.1374497447927
 20
169.2544439687861
 30
0.0
 40
3.049999999999875
100
AcDbArc
 50
193.2887239910921
 51
269.927165679122
  0
ARC
  5
22DB
330
2136
100
AcDbEntity
  8
1
 62
     7
100
AcDbCircle
 10
353.3692869455295
 20
184.6200911515364
 30
0.0
 40
24.72999999999996
100
AcDbArc
 50
314.43091413253
 51
319.4821293457308
  0
ARC
  5
22DC
330
2136
100
AcDbEntity
  8
1
 62
     7
100
AcDbCircle
 10
370.184625222097
 20
163.9512638107175
 30
0.0
 40
3.050000000000038
100
AcDbArc
 50
3.98587779913976
 51
80.62431948716705
  0
ARC
  5
22DD
330
2136
100
AcDbEntity
  8
1
 62
     7
100
AcDbCircle
 10
353.3692869455295
 20
184.6200911515364
 30
0.0
 40
28.50999999999992
100
AcDbArc
 50
298.4967840609527
 51
304.1119115912207
  0
ARC
  5
22DE
330
2136
100
AcDbEntity
  8
1
 62
     7
100
AcDbCircle
 10
370.184625222097
 20
163.9512638107175
 30
0.0
 40
3.050000000000063
100
AcDbArc
 50
177.6365500780495
 51
254.2749917660767
  0
ARC
  5
22DF
330
2136
100
AcDbEntity
  8
1
 62
     7
100
AcDbCircle
 10
353.3692869455295
 20
184.6200911515364
 30
0.0
 40
24.72999999999996
100
AcDbArc
 50
298.7787402194864
 51
303.8299554326868
  0
ARC
  5
22E0
330
2136
100
AcDbEntity
  8
1
 62
     7
100
AcDbCircle
 10
363.9846839844825
 20
160.1809960229241
 30
0.0
 40
3.049999999999973
100
AcDbArc
 50
348.3337038860956
 51
64.97214557412373
  0
ARC
  5
22E1
330
2136
100
AcDbEntity
  8
1
 62
     7
100
AcDbCircle
 10
353.3692869455295
 20
184.6200911515364
 30
0.0
 40
28.51
100
AcDbArc
 50
282.8446101479091
 51
288.4597376781771
  0
ARC
  5
22E2
330
2136
100
AcDbEntity
  8
1
 62
     7
100
AcDbCircle
 10
363.9846839844825
 20
160.1809960229241
 30
0.0
 40
3.049999999999962
100
AcDbArc
 50
161.984376165006
 51
238.6228178530343
  0
ARC
  5
22E3
330
2136
100
AcDbEntity
  8
1
 62
     7
100
AcDbCircle
 10
353.3692869455295
 20
184.6200911515364
 30
0.0
 40
24.72999999999996
100
AcDbArc
 50
283.126566306443
 51
288.1777815196439
  0
ARC
  5
22E4
330
2136
100
AcDbEntity
  8
1
 62
     7
100
AcDbCircle
 10
356.9974473106987
 20
158.2232641193986
 30
0.0
 40
3.049999999999926
100
AcDbArc
 50
332.6815299730516
 51
49.31997166108189
  0
ARC
  5
22E5
330
2136
100
AcDbEntity
  8
1
 62
     7
100
AcDbCircle
 10
353.3692869455295
 20
184.6200911515364
 30
0.0
 40
28.50999999999989
100
AcDbArc
 50
267.1924362348659
 51
272.807563765134
  0
ARC
  5
22E6
330
2136
100
AcDbEntity
  8
1
 62
     7
100
AcDbCircle
 10
356.9974473106987
 20
158.2232641193986
 30
0.0
 40
3.050000000000018
100
AcDbArc
 50
146.3322022519616
 51
222.9706439399892
  0
ARC
  5
22E7
330
2136
100
AcDbEntity
  8
1
 62
     7
100
AcDbCircle
 10
353.3692869455295
 20
184.6200911515364
 30
0.0
 40
24.72999999999994
100
AcDbArc
 50
267.4743923933994
 51
272.5256076066004
  0
ARC
  5
22E8
330
2136
100
AcDbEntity
  8
1
 62
     7
100
AcDbCircle
 10
349.74112658036
 20
158.2232641193986
 30
0.0
 40
3.049999999999906
100
AcDbArc
 50
317.0293560600106
 51
33.66779774803828
  0
ARC
  5
22E9
330
2136
100
AcDbEntity
  8
1
 62
     7
100
AcDbCircle
 10
353.3692869455295
 20
184.6200911515364
 30
0.0
 40
28.50999999999994
100
AcDbArc
 50
251.5402623218223
 51
257.1553898520908
  0
ARC
  5
22EA
330
2136
100
AcDbEntity
  8
1
 62
     7
100
AcDbCircle
 10
349.74112658036
 20
158.2232641193986
 30
0.0
 40
3.049999999999982
100
AcDbArc
 50
130.6800283389181
 51
207.3184700269478
  0
ARC
  5
22EB
330
2136
100
AcDbEntity
  8
1
 62
     7
100
AcDbCircle
 10
353.3692869455295
 20
184.6200911515364
 30
0.0
 40
24.72999999999994
100
AcDbArc
 50
251.8222184803561
 51
256.8734336935568
  0
ARC
  5
22EC
330
2136
100
AcDbEntity
  8
1
 62
     7
100
AcDbCircle
 10
342.7538899065763
 20
160.1809960229238
 30
0.0
 40
3.049999999999907
100
AcDbArc
 50
301.377182146967
 51
18.01562383499556
  0
ARC
  5
22ED
330
2136
100
AcDbEntity
  8
1
 62
     7
100
AcDbCircle
 10
353.3692869455295
 20
184.6200911515364
 30
0.0
 40
28.50999999999999
100
AcDbArc
 50
238.2555748711933
 51
241.5032159390468
  0
ARC
  5
22EE
330
2136
100
AcDbEntity
  8
1
 62
     7
100
AcDbCircle
 10
342.7538899065763
 20
160.1809960229238
 30
0.0
 40
3.050000000000038
100
AcDbArc
 50
115.0278544258753
 51
191.6662961139018
  0
ARC
  5
22EF
330
2136
100
AcDbEntity
  8
1
 62
     7
100
AcDbCircle
 10
353.3692869455295
 20
184.6200911515364
 30
0.0
 40
24.72999999999994
100
AcDbArc
 50
236.1700445673128
 51
241.221259780513
  0
ARC
  5
22F0
330
2136
100
AcDbEntity
  8
1
 62
     7
100
AcDbCircle
 10
336.5539486689618
 20
163.9512638107175
 30
0.0
 40
3.050000000000035
100
AcDbArc
 50
306.5263831448023
 51
2.363449921950469
  0
ARC
  5
22F1
330
2136
100
AcDbEntity
  8
1
 62
     7
100
AcDbCircle
 10
353.3692869455295
 20
184.6200911515364
 30
0.0
 40
28.51
100
AcDbArc
 50
110.6706971044313
 51
116.2858246346994
  0
ARC
  5
22F2
330
2136
100
AcDbEntity
  8
1
 62
     7
100
AcDbCircle
 10
339.5249725968351
 20
207.3860961856776
 30
0.0
 40
3.049999999999946
100
AcDbArc
 50
349.8104631215277
 51
66.44890480955685
  0
ARC
  5
22F3
330
2136
100
AcDbEntity
  8
1
 62
     7
100
AcDbCircle
 10
353.3692869455295
 20
184.6200911515364
 30
0.0
 40
24.73000000000001
100
AcDbArc
 50
110.9526532629649
 51
116.0038684761654
  0
ARC
  5
22F4
330
2136
100
AcDbEntity
  8
1
 62
     7
100
AcDbCircle
 10
346.1805519780507
 20
210.277022272919
 30
0.0
 40
3.049999999999998
100
AcDbArc
 50
160.5076169295763
 51
237.1460586176036
  0
ARC
  5
22F5
330
2136
100
AcDbEntity
  8
1
 62
     7
100
AcDbCircle
 10
353.3692869455295
 20
211.2650911515368
 30
0.0
 40
3.049999999999917
100
AcDbArc
 50
144.8554430165317
 51
221.4938847045603
  0
ARC
  5
22F6
330
2136
100
AcDbEntity
  8
1
 62
     7
100
AcDbCircle
 10
353.3692869455295
 20
184.6200911515364
 30
0.0
 40
24.73000000000003
100
AcDbArc
 50
95.3004793499214
 51
100.351694563122
  0
ARC
  5
22F7
330
2136
100
AcDbEntity
  8
1
 62
     7
100
AcDbCircle
 10
346.1805519780507
 20
210.277022272919
 30
0.0
 40
3.049999999999966
100
AcDbArc
 50
334.1582892084835
 51
50.79673089651278
  0
ARC
  5
22F8
330
2136
100
AcDbEntity
  8
1
 62
     7
100
AcDbCircle
 10
353.3692869455295
 20
184.6200911515364
 30
0.0
 40
28.51000000000005
100
AcDbArc
 50
95.01852319138752
 51
100.6336507216557
  0
ARC
  5
22F9
330
2136
100
AcDbEntity
  8
1
 62
     7
100
AcDbCircle
 10
353.3692869455463
 20
184.6200911515364
 30
0.0
 40
22.60599999999999
100
AcDbArc
 50
180.0
 51
311.5704654307902
  0
ARC
  5
22FA
330
2136
100
AcDbEntity
  8
1
 62
     7
100
AcDbCircle
 10
353.3692869455463
 20
184.6200911515364
 30
0.0
 40
22.60600000000013
100
AcDbArc
 50
48.42953456921001
 51
180.0
  0
ARC
  5
22FB
330
2136
100
AcDbEntity
  8
1
 62
     7
100
AcDbCircle
 10
353.3692869455463
 20
184.6200911515364
 30
0.0
 40
24.19249999999999
100
AcDbArc
 50
180.0
 51
308.3180965288756
  0
ARC
  5
22FC
330
2136
100
AcDbEntity
  8
1
 62
     7
100
AcDbCircle
 10
353.3692869455463
 20
184.6200911515364
 30
0.0
 40
24.19250000000013
100
AcDbArc
 50
51.68190347112461
 51
180.0
  0
ARC
  5
22FD
330
2136
100
AcDbEntity
  8
1
 62
     7
100
AcDbCircle
 10
353.3692869455463
 20
184.6200911515364
 30
0.0
 40
29.15999999999985
100
AcDbArc
 50
180.0
 51
300.9575785404056
  0
ARC
  5
22FE
330
2136
100
AcDbEntity
  8
1
 62
     7
100
AcDbCircle
 10
353.3692869455463
 20
184.6200911515364
 30
0.0
 40
29.16000000000011
100
AcDbArc
 50
59.0424214595946
 51
180.0
  0
ARC
  5
22FF
330
2136
100
AcDbEntity
  8
1
 62
     7
100
AcDbCircle
 10
353.3692869455463
 20
184.6200911515364
 30
0.0
 40
30.6705
100
AcDbArc
 50
180.0
 51
299.2794277764831
  0
ARC
  5
2300
330
2136
100
AcDbEntity
  8
1
 62
     7
100
AcDbCircle
 10
353.3692869455463
 20
184.6200911515364
 30
0.0
 40
30.67050000000011
100
AcDbArc
 50
60.72057222351673
 51
180.0
  0
ARC
  5
2301
330
2136
100
AcDbEntity
  8
1
 62
     7
100
AcDbCircle
 10
346.1805519780674
 20
210.2770222729188
 30
0.0
 40
2.77812499999996
100
AcDbArc
 50
132.030578534053
 51
259.070103724737
  0
ARC
  5
2302
330
2136
100
AcDbEntity
  8
1
 62
     7
100
AcDbCircle
 10
339.5249725968523
 20
207.3860961856776
 30
0.0
 40
2.778125000000187
100
AcDbArc
 50
147.6827524471011
 51
274.7222776377798
  0
ARC
  5
2303
330
2136
100
AcDbEntity
  8
1
 62
     7
100
AcDbCircle
 10
333.8961626773559
 20
202.8067196525979
 30
0.0
 40
2.77812499999996
100
AcDbArc
 50
163.3349263601431
 51
290.3744515508236
  0
ARC
  5
2304
330
2136
100
AcDbEntity
  8
1
 62
     7
100
AcDbCircle
 10
329.7115853012151
 20
196.878524081883
 30
0.0
 40
2.77812500000012
100
AcDbArc
 50
178.9871002731858
 51
306.0266254638674
  0
ARC
  5
2305
330
2136
100
AcDbEntity
  8
1
 62
     7
100
AcDbCircle
 10
327.2815914292507
 20
190.0411766193241
 30
0.0
 40
2.778125000000133
100
AcDbArc
 50
194.6392741862288
 51
321.6787993769136
  0
ARC
  5
2306
330
2136
100
AcDbEntity
  8
1
 62
     7
100
AcDbCircle
 10
326.7864025904643
 20
182.8017720474351
 30
0.0
 40
2.77812500000002
100
AcDbArc
 50
210.2914480992734
 51
337.330973289957
  0
ARC
  5
2307
330
2136
100
AcDbEntity
  8
1
 62
     7
100
AcDbCircle
 10
328.2627446756904
 20
175.6972238852409
 30
0.0
 40
2.778125000000029
100
AcDbArc
 50
225.9436220123152
 51
352.9831472029996
  0
ARC
  5
2308
330
2136
100
AcDbEntity
  8
1
 62
     7
100
AcDbCircle
 10
331.6011241462831
 20
169.2544439687861
 30
0.0
 40
2.778124999999949
100
AcDbArc
 50
241.595795925361
 51
8.63532111604413
  0
ARC
  5
2309
330
2136
100
AcDbEntity
  8
1
 62
     7
100
AcDbCircle
 10
336.5539486689787
 20
163.9512638107175
 30
0.0
 40
2.778125000000065
100
AcDbArc
 50
257.2479698384018
 51
24.28749502908527
  0
ARC
  5
230A
330
2136
100
AcDbEntity
  8
1
 62
     7
100
AcDbCircle
 10
342.7538899065928
 20
160.1809960229241
 30
0.0
 40
2.778124999999979
100
AcDbArc
 50
272.9001437514464
 51
39.93966894212764
  0
ARC
  5
230B
330
2136
100
AcDbEntity
  8
1
 62
     7
100
AcDbCircle
 10
349.7411265803768
 20
158.2232641193986
 30
0.0
 40
2.778124999999882
100
AcDbArc
 50
288.5523176644884
 51
55.59184285517339
  0
ARC
  5
230C
330
2136
100
AcDbEntity
  8
1
 62
     7
100
AcDbCircle
 10
356.9974473107158
 20
158.2232641193986
 30
0.0
 40
2.778124999999983
100
AcDbArc
 50
304.2044915775356
 51
71.24401676821654
  0
ARC
  5
230D
330
2136
100
AcDbEntity
  8
1
 62
     7
100
AcDbCircle
 10
363.9846839844995
 20
160.1809960229238
 30
0.0
 40
2.778124999999843
100
AcDbArc
 50
319.8566654905777
 51
86.89619068126317
  0
ARC
  5
230E
330
2136
100
AcDbEntity
  8
1
 62
     7
100
AcDbCircle
 10
367.2136012942401
 20
207.3860961856776
 30
0.0
 40
2.77812499999999
100
AcDbArc
 50
85.07405679492665
 51
212.1135819856088
  0
ARC
  5
230F
330
2136
100
AcDbEntity
  8
1
 62
     7
100
AcDbCircle
 10
360.5580219130253
 20
210.277022272919
 30
0.0
 40
2.778125000000004
100
AcDbArc
 50
100.7262307079713
 51
227.7657558986508
  0
ARC
  5
2310
330
2136
100
AcDbEntity
  8
1
 62
     7
100
AcDbCircle
 10
346.1805519780674
 20
210.2770222729188
 30
0.0
 40
2.778125000000068
100
AcDbArc
 50
312.2342441013488
 51
79.2737692920288
  0
ARC
  5
2311
330
2136
100
AcDbEntity
  8
1
 62
     7
100
AcDbCircle
 10
339.5249725968523
 20
207.3860961856776
 30
0.0
 40
2.77812499999991
100
AcDbArc
 50
327.8864180143902
 51
94.92594320507581
  0
ARC
  5
2312
330
2136
100
AcDbEntity
  8
1
 62
     7
100
AcDbCircle
 10
333.8961626773559
 20
202.8067196525979
 30
0.0
 40
2.778124999999922
100
AcDbArc
 50
343.5385919274339
 51
110.5781171181168
  0
ARC
  5
2313
330
2136
100
AcDbEntity
  8
1
 62
     7
100
AcDbCircle
 10
329.7115853012151
 20
196.878524081883
 30
0.0
 40
2.778124999999818
100
AcDbArc
 50
359.1907658404779
 51
126.2302910311625
  0
ARC
  5
2314
330
2136
100
AcDbEntity
  8
1
 62
     7
100
AcDbCircle
 10
327.2815914292507
 20
190.0411766193241
 30
0.0
 40
2.778124999999863
100
AcDbArc
 50
14.84293975352214
 51
141.8824649442081
  0
ARC
  5
2315
330
2136
100
AcDbEntity
  8
1
 62
     7
100
AcDbCircle
 10
326.7864025904643
 20
182.8017720474351
 30
0.0
 40
2.778124999999906
100
AcDbArc
 50
30.49511366656763
 51
157.5346388572502
  0
ARC
  5
2316
330
2136
100
AcDbEntity
  8
1
 62
     7
100
AcDbCircle
 10
328.2627446756904
 20
175.6972238852409
 30
0.0
 40
2.778124999999949
100
AcDbArc
 50
46.1472875796099
 51
173.1868127702911
  0
ARC
  5
2317
330
2136
100
AcDbEntity
  8
1
 62
     7
100
AcDbCircle
 10
331.6011241462831
 20
169.2544439687861
 30
0.0
 40
2.778124999999968
100
AcDbArc
 50
61.79946149265344
 51
188.838986683335
  0
ARC
  5
2318
330
2136
100
AcDbEntity
  8
1
 62
     7
100
AcDbCircle
 10
336.5539486689787
 20
163.9512638107175
 30
0.0
 40
2.778125000000016
100
AcDbArc
 50
77.45163540569859
 51
204.4911605963787
  0
ARC
  5
2319
330
2136
100
AcDbEntity
  8
1
 62
     7
100
AcDbCircle
 10
342.7538899065928
 20
160.1809960229241
 30
0.0
 40
2.778124999999948
100
AcDbArc
 50
93.10380931874046
 51
220.1433345094243
  0
ARC
  5
231A
330
2136
100
AcDbEntity
  8
1
 62
     7
100
AcDbCircle
 10
349.7411265803768
 20
158.2232641193986
 30
0.0
 40
2.778125000000061
100
AcDbArc
 50
108.7559832317867
 51
235.7955084224653
  0
ARC
  5
231B
330
2136
100
AcDbEntity
  8
1
 62
     7
100
AcDbCircle
 10
356.9974473107158
 20
158.2232641193986
 30
0.0
 40
2.778125000000044
100
AcDbArc
 50
124.4081571448258
 51
251.4476823355084
  0
ARC
  5
231C
330
2136
100
AcDbEntity
  8
1
 62
     7
100
AcDbCircle
 10
363.9846839844995
 20
160.1809960229238
 30
0.0
 40
2.778125000000033
100
AcDbArc
 50
140.060331057869
 51
267.0998562485501
  0
ARC
  5
231D
330
2136
100
AcDbEntity
  8
1
 62
     7
100
AcDbCircle
 10
370.184625222114
 20
163.9512638107175
 30
0.0
 40
2.77812500000012
100
AcDbArc
 50
155.7125049709154
 51
229.1985243709119
  0
ARC
  5
231E
330
2136
100
AcDbEntity
  8
1
 62
     7
100
AcDbCircle
 10
367.2136012942401
 20
207.3860961856776
 30
0.0
 40
2.778124999999976
100
AcDbArc
 50
265.2777223622176
 51
294.581981603788
  0
ARC
  5
231F
330
2136
100
AcDbEntity
  8
1
 62
     7
100
AcDbCircle
 10
360.5580219130253
 20
210.277022272919
 30
0.0
 40
2.778125000000049
100
AcDbArc
 50
280.9298962752567
 51
47.96942146594577
  0
ARC
  5
2320
330
2136
100
AcDbEntity
  8
1
 62
     7
100
AcDbCircle
 10
353.3692869455463
 20
211.2650911515368
 30
0.0
 40
2.778125000000041
100
AcDbArc
 50
296.5820701883041
 51
63.62159537898676
  0
ARC
  5
2321
330
2136
100
AcDbEntity
  8
1
 62
     7
100
AcDbCircle
 10
353.3692869455463
 20
211.2650911515368
 30
0.0
 40
2.778124999999854
100
AcDbArc
 50
116.3784046210099
 51
243.4179298116986
  0
ARC
  5
2322
330
2136
100
AcDbEntity
  8
1
 62
     7
100
AcDbCircle
 10
353.3692869455295
 20
211.2650911515368
 30
0.0
 40
2.778125000000016
100
AcDbArc
 50
296.5820701883033
 51
63.62159537898786
  0
ARC
  5
2323
330
2136
100
AcDbEntity
  8
1
 62
     7
100
AcDbCircle
 10
353.3692869455295
 20
211.2650911515368
 30
0.0
 40
2.778124999999906
100
AcDbArc
 50
116.3784046210119
 51
243.4179298116958
  0
ARC
  5
2324
330
2136
100
AcDbEntity
  8
1
 62
     7
100
AcDbCircle
 10
346.1805519780507
 20
210.277022272919
 30
0.0
 40
2.778124999999976
100
AcDbArc
 50
132.0305785340555
 51
259.0701037247408
  0
ARC
  5
2325
330
2136
100
AcDbEntity
  8
1
 62
     7
100
AcDbCircle
 10
339.5249725968351
 20
207.3860961856776
 30
0.0
 40
2.778125000000008
100
AcDbArc
 50
245.4180183962122
 51
274.7222776377824
  0
ARC
  5
2326
330
2136
100
AcDbEntity
  8
1
 62
     7
100
AcDbCircle
 10
336.5539486689618
 20
163.9512638107175
 30
0.0
 40
2.778125000000011
100
AcDbArc
 50
310.8014756290878
 51
24.28749502908527
  0
ARC
  5
2327
330
2136
100
AcDbEntity
  8
1
 62
     7
100
AcDbCircle
 10
342.7538899065763
 20
160.1809960229238
 30
0.0
 40
2.778124999999871
100
AcDbArc
 50
272.9001437514471
 51
39.93966894213081
  0
ARC
  5
2328
330
2136
100
AcDbEntity
  8
1
 62
     7
100
AcDbCircle
 10
349.74112658036
 20
158.2232641193986
 30
0.0
 40
2.778124999999938
100
AcDbArc
 50
288.5523176644911
 51
55.59184285517407
  0
ARC
  5
2329
330
2136
100
AcDbEntity
  8
1
 62
     7
100
AcDbCircle
 10
356.9974473106987
 20
158.2232641193986
 30
0.0
 40
2.778124999999951
100
AcDbArc
 50
304.2044915775345
 51
71.2440167682155
  0
ARC
  5
232A
330
2136
100
AcDbEntity
  8
1
 62
     7
100
AcDbCircle
 10
363.9846839844825
 20
160.1809960229241
 30
0.0
 40
2.778125000000004
100
AcDbArc
 50
319.8566654905768
 51
86.89619068125955
  0
ARC
  5
232B
330
2136
100
AcDbEntity
  8
1
 62
     7
100
AcDbCircle
 10
370.184625222097
 20
163.9512638107175
 30
0.0
 40
2.778124999999976
100
AcDbArc
 50
335.5088394036211
 51
102.5483645943032
  0
ARC
  5
232C
330
2136
100
AcDbEntity
  8
1
 62
     7
100
AcDbCircle
 10
375.1374497447927
 20
169.2544439687861
 30
0.0
 40
2.778124999999976
100
AcDbArc
 50
351.1610133166648
 51
118.2005385073474
  0
ARC
  5
232D
330
2136
100
AcDbEntity
  8
1
 62
     7
100
AcDbCircle
 10
378.4758292153852
 20
175.6972238852409
 30
0.0
 40
2.7781250000001
100
AcDbArc
 50
6.813187229708764
 51
133.8527124203899
  0
ARC
  5
232E
330
2136
100
AcDbEntity
  8
1
 62
     7
100
AcDbCircle
 10
379.9521713006112
 20
182.8017720474351
 30
0.0
 40
2.778124999999998
100
AcDbArc
 50
22.4653611427507
 51
149.5048863334334
  0
ARC
  5
232F
330
2136
100
AcDbEntity
  8
1
 62
     7
100
AcDbCircle
 10
379.4569824618247
 20
190.0411766193241
 30
0.0
 40
2.778125
100
AcDbArc
 50
38.11753505579368
 51
165.1570602464786
  0
ARC
  5
2330
330
2136
100
AcDbEntity
  8
1
 62
     7
100
AcDbCircle
 10
377.0269885898608
 20
196.878524081883
 30
0.0
 40
2.778124999999914
100
AcDbArc
 50
53.7697089688395
 51
180.8092341595219
  0
ARC
  5
2331
330
2136
100
AcDbEntity
  8
1
 62
     7
100
AcDbCircle
 10
372.84241121372
 20
202.8067196525979
 30
0.0
 40
2.778124999999951
100
AcDbArc
 50
69.42188288188311
 51
196.4614080725652
  0
ARC
  5
2332
330
2136
100
AcDbEntity
  8
1
 62
     7
100
AcDbCircle
 10
367.2136012942236
 20
207.3860961856776
 30
0.0
 40
2.778124999999998
100
AcDbArc
 50
85.07405679492414
 51
212.1135819856088
  0
ARC
  5
2333
330
2136
100
AcDbEntity
  8
1
 62
     7
100
AcDbCircle
 10
360.5580219130083
 20
210.2770222729188
 30
0.0
 40
2.778125000000065
100
AcDbArc
 50
100.7262307079686
 51
227.7657558986531
  0
ARC
  5
2334
330
2136
100
AcDbEntity
  8
1
 62
     7
100
AcDbCircle
 10
346.1805519780507
 20
210.277022272919
 30
0.0
 40
2.778124999999968
100
AcDbArc
 50
312.2342441013473
 51
79.27376929203099
  0
ARC
  5
2335
330
2136
100
AcDbEntity
  8
1
 62
     7
100
AcDbCircle
 10
339.5249725968351
 20
207.3860961856776
 30
0.0
 40
2.778125000000008
100
AcDbArc
 50
327.8864180143911
 51
94.92594320507581
  0
ARC
  5
2336
330
2136
100
AcDbEntity
  8
1
 62
     7
100
AcDbCircle
 10
342.7538899065763
 20
160.1809960229238
 30
0.0
 40
2.778125000000061
100
AcDbArc
 50
93.10380931873924
 51
220.143334509421
  0
ARC
  5
2337
330
2136
100
AcDbEntity
  8
1
 62
     7
100
AcDbCircle
 10
349.74112658036
 20
158.2232641193986
 30
0.0
 40
2.778124999999988
100
AcDbArc
 50
108.7559832317823
 51
235.7955084224641
  0
ARC
  5
2338
330
2136
100
AcDbEntity
  8
1
 62
     7
100
AcDbCircle
 10
356.9974473106987
 20
158.2232641193986
 30
0.0
 40
2.778125000000077
100
AcDbArc
 50
124.4081571448265
 51
251.4476823355103
  0
ARC
  5
2339
330
2136
100
AcDbEntity
  8
1
 62
     7
100
AcDbCircle
 10
363.9846839844825
 20
160.1809960229241
 30
0.0
 40
2.77812499999996
100
AcDbArc
 50
140.060331057871
 51
267.0998562485538
  0
ARC
  5
233A
330
2136
100
AcDbEntity
  8
1
 62
     7
100
AcDbCircle
 10
370.184625222097
 20
163.9512638107175
 30
0.0
 40
2.778125000000016
100
AcDbArc
 50
155.7125049709147
 51
282.7520301615956
  0
ARC
  5
233B
330
2136
100
AcDbEntity
  8
1
 62
     7
100
AcDbCircle
 10
375.1374497447927
 20
169.2544439687861
 30
0.0
 40
2.778124999999988
100
AcDbArc
 50
171.3646788839564
 51
298.40420407464
  0
ARC
  5
233C
330
2136
100
AcDbEntity
  8
1
 62
     7
100
AcDbCircle
 10
378.4758292153852
 20
175.6972238852409
 30
0.0
 40
2.778124999999914
100
AcDbArc
 50
187.0168527969995
 51
314.0563779876848
  0
ARC
  5
233D
330
2136
100
AcDbEntity
  8
1
 62
     7
100
AcDbCircle
 10
379.9521713006112
 20
182.8017720474351
 30
0.0
 40
2.778124999999968
100
AcDbArc
 50
202.6690267100426
 51
329.7085519007263
  0
ARC
  5
233E
330
2136
100
AcDbEntity
  8
1
 62
     7
100
AcDbCircle
 10
379.4569824618247
 20
190.0411766193241
 30
0.0
 40
2.778125000000061
100
AcDbArc
 50
218.3212006230862
 51
345.3607258137702
  0
ARC
  5
233F
330
2136
100
AcDbEntity
  8
1
 62
     7
100
AcDbCircle
 10
377.0269885898608
 20
196.878524081883
 30
0.0
 40
2.778125000000069
100
AcDbArc
 50
233.9733745361301
 51
1.012899726814209
  0
ARC
  5
2340
330
2136
100
AcDbEntity
  8
1
 62
     7
100
AcDbCircle
 10
372.84241121372
 20
202.8067196525979
 30
0.0
 40
2.778124999999983
100
AcDbArc
 50
249.625548449175
 51
16.6650736398568
  0
ARC
  5
2341
330
2136
100
AcDbEntity
  8
1
 62
     7
100
AcDbCircle
 10
367.2136012942236
 20
207.3860961856776
 30
0.0
 40
2.778124999999971
100
AcDbArc
 50
265.2777223622188
 51
32.31724755289995
  0
ARC
  5
2342
330
2136
100
AcDbEntity
  8
1
 62
     7
100
AcDbCircle
 10
360.5580219130083
 20
210.2770222729188
 30
0.0
 40
2.778125000000021
100
AcDbArc
 50
280.9298962752628
 51
47.9694214659455
  0
ARC
  5
2343
330
2136
100
AcDbEntity
  8
1
 62
     7
100
AcDbCircle
 10
353.3692869455295
 20
184.6200911515364
 30
0.0
 40
30.6705
100
AcDbArc
 50
0.0
 51
119.2794277764832
  0
ARC
  5
2344
330
2136
100
AcDbEntity
  8
1
 62
     7
100
AcDbCircle
 10
353.3692869455295
 20
184.6200911515364
 30
0.0
 40
30.67049999999996
100
AcDbArc
 50
240.7205722235167
 51
0.0
  0
ARC
  5
2345
330
2136
100
AcDbEntity
  8
1
 62
     7
100
AcDbCircle
 10
353.3692869455295
 20
184.6200911515364
 30
0.0
 40
29.15999999999996
100
AcDbArc
 50
0.0
 51
120.957578540405
  0
ARC
  5
2346
330
2136
100
AcDbEntity
  8
1
 62
     7
100
AcDbCircle
 10
353.3692869455295
 20
184.6200911515364
 30
0.0
 40
29.15999999999996
100
AcDbArc
 50
239.0424214595946
 51
0.0
  0
ARC
  5
2347
330
2136
100
AcDbEntity
  8
1
 62
     7
100
AcDbCircle
 10
353.3692869455295
 20
184.6200911515364
 30
0.0
 40
24.19249999999999
100
AcDbArc
 50
0.0
 51
128.3180965288754
  0
ARC
  5
2348
330
2136
100
AcDbEntity
  8
1
 62
     7
100
AcDbCircle
 10
353.3692869455295
 20
184.6200911515364
 30
0.0
 40
24.19249999999998
100
AcDbArc
 50
231.6819034711244
 51
0.0
  0
ARC
  5
2349
330
2136
100
AcDbEntity
  8
1
 62
     7
100
AcDbCircle
 10
353.3692869455295
 20
184.6200911515364
 30
0.0
 40
22.60599999999999
100
AcDbArc
 50
0.0
 51
131.5704654307894
  0
ARC
  5
234A
330
2136
100
AcDbEntity
  8
1
 62
     7
100
AcDbCircle
 10
353.3692869455295
 20
184.6200911515364
 30
0.0
 40
22.60599999999999
100
AcDbArc
 50
228.42953456921
 51
0.0
  0
ARC
  5
234B
330
2136
100
AcDbEntity
  8
1
 62
     7
100
AcDbCircle
 10
353.3692869455709
 20
184.6200911515364
 30
0.0
 40
17.49999973736039
100
AcDbArc
 50
148.9972822973884
 51
211.0027177027109
  0
ARC
  5
234C
330
2136
100
AcDbEntity
  8
1
 62
     7
100
AcDbCircle
 10
353.3692869454879
 20
184.6200911515364
 30
0.0
 40
17.49999973736032
100
AcDbArc
 50
211.002717708764
 51
328.9972822972888
  0
ARC
  5
234D
330
2136
100
AcDbEntity
  8
1
 62
     7
100
AcDbCircle
 10
353.3692869454879
 20
184.6200911515364
 30
0.0
 40
17.49999973736054
100
AcDbArc
 50
328.9972822972888
 51
31.00271770261121
  0
ARC
  5
234E
330
2136
100
AcDbEntity
  8
1
 62
     7
100
AcDbCircle
 10
353.3692869455876
 20
184.6200911515364
 30
0.0
 40
32.19999951658055
100
AcDbArc
 50
117.7645028912687
 51
242.235497108831
  0
ARC
  5
234F
330
2136
100
AcDbEntity
  8
1
 62
     7
100
AcDbCircle
 10
353.3692869455876
 20
184.6200911515364
 30
0.0
 40
42.49999936179807
100
AcDbArc
 50
110.6673168181729
 51
249.3326831819264
  0
ARC
  5
2350
330
2136
100
AcDbEntity
  8
1
  6
CENTER
 62
     3
100
AcDbCircle
 10
353.3692869455407
 20
184.6200911515364
 30
0.0
 40
37.50000000000009
100
AcDbArc
 50
113.5781784782418
 51
246.4218215218576
  0
ARC
  5
2351
330
2136
100
AcDbEntity
  8
1
 62
     7
100
AcDbCircle
 10
353.3692869454879
 20
184.6200911515364
 30
0.0
 40
32.19999951658051
100
AcDbArc
 50
242.2354971107116
 51
297.7645028911688
  0
ARC
  5
2352
330
2136
100
AcDbEntity
  8
1
 62
     7
100
AcDbCircle
 10
353.3692869454879
 20
184.6200911515364
 30
0.0
 40
32.19999951658055
100
AcDbArc
 50
297.7645028911688
 51
62.23549710873122
  0
ARC
  5
2353
330
2136
100
AcDbEntity
  8
1
 62
     7
100
AcDbCircle
 10
353.3692869454879
 20
184.6200911515364
 30
0.0
 40
42.49999936179809
100
AcDbArc
 50
249.3326831832602
 51
290.6673168180731
  0
ARC
  5
2354
330
2136
100
AcDbEntity
  8
1
  6
CENTER
 62
     3
100
AcDbCircle
 10
353.3692869455351
 20
184.6200911515364
 30
0.0
 40
37.49999999999998
100
AcDbArc
 50
246.4218215232514
 51
293.5781784781422
  0
ARC
  5
2355
330
2136
100
AcDbEntity
  8
1
  6
CENTER
 62
     3
100
AcDbCircle
 10
353.3692869455351
 20
184.6200911515364
 30
0.0
 40
37.50000000000009
100
AcDbArc
 50
293.5781784781422
 51
66.42182152175789
  0
ARC
  5
2356
330
2136
100
AcDbEntity
  8
1
 62
     7
100
AcDbCircle
 10
353.3692869454879
 20
184.6200911515364
 30
0.0
 40
42.49999936179813
100
AcDbArc
 50
290.6673168180731
 51
69.33268318182687
  0
ARC
  5
2357
330
2136
100
AcDbEntity
  8
1
 62
     7
100
AcDbCircle
 10
353.3692869454879
 20
184.6200911515364
 30
0.0
 40
17.49999973736054
100
AcDbArc
 50
31.00271770261121
 51
148.997282291235
  0
ARC
  5
2358
330
2136
100
AcDbEntity
  8
1
 62
     7
100
AcDbCircle
 10
353.3692869454879
 20
184.6200911515364
 30
0.0
 40
32.19999951658062
100
AcDbArc
 50
62.23549710873122
 51
117.7645028892881
  0
ARC
  5
2359
330
2136
100
AcDbEntity
  8
1
  6
CENTER
 62
     3
100
AcDbCircle
 10
353.3692869455351
 20
184.6200911515364
 30
0.0
 40
37.50000000000009
100
AcDbArc
 50
66.42182152175789
 51
113.5781784767486
  0
ARC
  5
235A
330
2136
100
AcDbEntity
  8
1
 62
     7
100
AcDbCircle
 10
353.3692869454879
 20
184.6200911515364
 30
0.0
 40
42.49999936179807
100
AcDbArc
 50
69.33268318182687
 51
110.6673168167396
  0
ARC
  5
235B
330
2136
100
AcDbEntity
  8
0
 62
     7
100
AcDbCircle
 10
356.6626202293478
 20
169.2367580493614
 30
0.0
 40
0.8666666536645093
100
AcDbArc
 50
270.0000000008079
 51
0.0000000000716515
  0
ARC
  5
235C
330
2136
100
AcDbEntity
  8
0
 62
     7
100
AcDbCircle
 10
350.0759536616423
 20
169.2367580493626
 30
0.0
 40
0.8666666536655609
100
AcDbArc
 50
180.0
 51
269.9999999985456
  0
ARC
  5
235D
330
2136
100
AcDbEntity
  8
0
 62
     7
100
AcDbCircle
 10
348.3426203543391
 20
171.000097538285
 30
0.0
 40
0.8666666536598198
100
AcDbArc
 50
0.0000000005487856
 51
70.73036112248913
  0
ARC
  5
235E
330
2136
100
AcDbEntity
  8
0
 62
     7
100
AcDbCircle
 10
353.3692869454896
 20
185.3784244735044
 30
0.0
 40
14.36499978417248
100
AcDbArc
 50
90.0
 51
250.730361122028
  0
ARC
  5
235F
330
2136
100
AcDbEntity
  8
0
 62
     7
100
AcDbCircle
 10
353.3692869454867
 20
185.3784244735044
 30
0.0
 40
14.36499978417258
100
AcDbArc
 50
289.2696388779723
 51
90.0
  0
ARC
  5
2360
330
2136
100
AcDbEntity
  8
0
 62
     7
100
AcDbCircle
 10
358.3959535366431
 20
171.0000975382932
 30
0.0
 40
0.8666666536509968
100
AcDbArc
 50
109.2696388775074
 51
180.0
  0
ARC
  5
2361
330
2136
100
AcDbEntity
  8
0
 62
     7
100
AcDbCircle
 10
247.2692869394693
 20
198.0200909502735
 30
0.0
 40
0.3999999939860004
100
AcDbArc
 50
180.0000000007165
 51
270.0000000007164
  0
ARC
  5
2362
330
2136
100
AcDbEntity
  8
0
 62
     7
100
AcDbCircle
 10
247.2692869394744
 20
171.2200913528126
 30
0.0
 40
0.3999999939910026
100
AcDbArc
 50
90.0
 51
180.0
  0
ARC
  5
2363
330
2136
100
AcDbEntity
  8
0
 62
     7
100
AcDbCircle
 10
250.0692869501181
 20
218.4200911469849
 30
0.0
 40
0.2999999954678003
100
AcDbArc
 50
270.0
 51
0.0
  0
ARC
  5
2364
330
2136
100
AcDbEntity
  8
0
 62
     7
100
AcDbCircle
 10
250.0692869497624
 20
150.820091155942
 30
0.0
 40
0.2999999954677719
100
AcDbArc
 50
0.0000000048503204
 51
90.00000000485277
  0
ARC
  5
2365
330
2136
100
AcDbEntity
  8
1
 62
     7
100
AcDbCircle
 10
353.3692869454879
 20
184.6200911515364
 30
0.0
 40
5.499999917604275
100
AcDbArc
 50
111.3236862625702
 51
270.0000000158762
  0
ARC
  5
2366
330
2136
100
AcDbEntity
  8
1
 62
     7
100
AcDbCircle
 10
353.3692869454911
 20
184.6200911515524
 30
0.0
 40
5.499999917493807
100
AcDbArc
 50
270.0000000158451
 51
68.6763137370136
  0
ARC
  5
2367
330
2136
100
AcDbEntity
  8
1
  6
DASHDOT
 62
     3
100
AcDbCircle
 10
111.7901789470925
 20
184.6200911515364
 30
0.0
 40
17.00000000000023
100
AcDbArc
 50
95.00000000000021
 51
129.9999999999994
  0
ARC
  5
2368
330
2136
100
AcDbEntity
  8
1
  6
DASHDOT
 62
     3
100
AcDbCircle
 10
111.7901789470925
 20
184.6200911515364
 30
0.0
 40
16.9999999999999
100
AcDbArc
 50
274.999999999998
 51
309.9999999999981
  0
ARC
  5
2369
330
2136
100
AcDbEntity
  8
1
 62
     7
100
AcDbCircle
 10
230.8262869455122
 20
155.3860911515368
 30
0.0
 40
1.833109107500174
100
AcDbArc
 50
180.6251337256663
 51
269.3748662743232
  0
ARC
  5
236A
330
2136
100
AcDbEntity
  8
1
 62
     7
100
AcDbCircle
 10
242.5531923192604
 20
128.5630911515367
 30
0.0
 40
24.99010928355996
100
AcDbArc
 50
74.79443808928451
 51
90.16944592452979
  0
ARC
  5
236B
330
2136
100
AcDbEntity
  8
1
 62
     7
100
AcDbCircle
 10
230.8062869455123
 20
213.8740911515364
 30
0.0
 40
1.813110311040107
100
AcDbArc
 50
89.36797070574611
 51
179.3679707057458
  0
ARC
  5
236C
330
2136
100
AcDbEntity
  8
1
 62
     7
100
AcDbCircle
 10
242.4892869455125
 20
240.6131857777888
 30
0.0
 40
24.92609663218187
100
AcDbArc
 50
270.0229862629095
 51
285.2160910220831
  0
CIRCLE
  5
236D
330
2136
100
AcDbEntity
  8
1
 62
     7
100
AcDbCircle
 10
334.6192869448011
 20
217.0960437930169
 30
0.0
 40
2.250000000000035
  0
CIRCLE
  5
236E
330
2136
100
AcDbEntity
  8
1
 62
     7
100
AcDbCircle
 10
320.8933343032043
 20
203.3700911507811
 30
0.0
 40
2.250000000000023
  0
CIRCLE
  5
236F
330
2136
100
AcDbEntity
  8
1
 62
     7
100
AcDbCircle
 10
315.869286945557
 20
184.6200911506644
 30
0.0
 40
2.25
  0
CIRCLE
  5
2370
330
2136
100
AcDbEntity
  8
1
 62
     7
100
AcDbCircle
 10
320.8933343040765
 20
165.8700911507812
 30
0.0
 40
2.250000000000009
  0
CIRCLE
  5
2371
330
2136
100
AcDbEntity
  8
1
 62
     7
100
AcDbCircle
 10
334.6192869463121
 20
152.1441385091843
 30
0.0
 40
2.249999999999988
  0
CIRCLE
  5
2372
330
2136
100
AcDbEntity
  8
1
 62
     7
100
AcDbCircle
 10
111.7901789470925
 20
184.6200911515364
 30
0.0
 40
19.99999999999999
  0
CIRCLE
  5
2373
330
2136
100
AcDbEntity
  8
1
 62
     7
100
AcDbCircle
 10
111.7901789470925
 20
184.6200911515364
 30
0.0
 40
30.94088822679928
  0
CIRCLE
  5
2374
330
2136
100
AcDbEntity
  8
1
 62
     7
100
AcDbCircle
 10
111.7901789470925
 20
184.6200911515364
 30
0.0
 40
32.003
  0
CIRCLE
  5
2375
330
2136
100
AcDbEntity
  8
1
 62
     7
100
AcDbCircle
 10
353.3692869455295
 20
184.6200911515364
 30
0.0
 40
13.0
  0
CIRCLE
  5
2376
330
2136
100
AcDbEntity
  8
0
 62
     7
100
AcDbCircle
 10
355.6659535776502
 20
170.4500913644196
 30
0.0
 40
0.8666666536458365
  0
CIRCLE
  5
2377
330
2136
100
AcDbEntity
  8
0
 62
     7
100
AcDbCircle
 10
351.0726203133326
 20
170.4500913644196
 30
0.0
 40
0.8666666536414027
  0
CIRCLE
  5
2378
330
2136
100
AcDbEntity
  8
1
 62
     7
100
AcDbCircle
 10
111.7901789470925
 20
184.6200911515364
 30
0.0
 40
9.999999849825911
  0
CIRCLE
  5
2379
330
2136
100
AcDbEntity
  8
1
 62
     7
100
AcDbCircle
 10
111.7901789470925
 20
184.6200911515364
 30
0.0
 40
42.49999936167112
  0
CIRCLE
  5
237A
330
2136
100
AcDbEntity
  8
1
 62
     7
100
AcDbCircle
 10
111.7901789470925
 20
222.1200911515368
 30
0.0
 40
2.25
  0
CIRCLE
  5
237B
330
2136
100
AcDbEntity
  8
1
 62
     7
100
AcDbCircle
 10
93.0401789470925
 20
217.0960437934533
 30
0.0
 40
2.250000000000009
  0
CIRCLE
  5
237C
330
2136
100
AcDbEntity
  8
1
 62
     7
100
AcDbCircle
 10
79.31422630517609
 20
203.3700911515368
 30
0.0
 40
2.250000000000009
  0
CIRCLE
  5
237D
330
2136
100
AcDbEntity
  8
1
 62
     7
100
AcDbCircle
 10
74.29017894709251
 20
184.6200911515364
 30
0.0
 40
2.25
  0
CIRCLE
  5
237E
330
2136
100
AcDbEntity
  8
1
 62
     7
100
AcDbCircle
 10
79.31422630517609
 20
165.8700911515365
 30
0.0
 40
2.250000000000009
  0
CIRCLE
  5
237F
330
2136
100
AcDbEntity
  8
1
 62
     7
100
AcDbCircle
 10
93.0401789470925
 20
152.1441385096203
 30
0.0
 40
2.249999999999912
  0
CIRCLE
  5
2380
330
2136
100
AcDbEntity
  8
1
 62
     7
100
AcDbCircle
 10
111.7901789470925
 20
147.1200911515366
 30
0.0
 40
2.25
  0
CIRCLE
  5
2381
330
2136
100
AcDbEntity
  8
1
 62
     7
100
AcDbCircle
 10
130.5401789470925
 20
152.1441385096203
 30
0.0
 40
2.250000000000009
  0
CIRCLE
  5
2382
330
2136
100
AcDbEntity
  8
1
 62
     7
100
AcDbCircle
 10
144.266131589009
 20
165.8700911515365
 30
0.0
 40
2.250000000000009
  0
CIRCLE
  5
2383
330
2136
100
AcDbEntity
  8
1
 62
     7
100
AcDbCircle
 10
149.2901789470925
 20
184.6200911515364
 30
0.0
 40
2.25
  0
CIRCLE
  5
2384
330
2136
100
AcDbEntity
  8
1
 62
     7
100
AcDbCircle
 10
144.266131589009
 20
203.3700911515368
 30
0.0
 40
2.25
  0
CIRCLE
  5
2385
330
2136
100
AcDbEntity
  8
1
 62
     7
100
AcDbCircle
 10
130.5401789470925
 20
217.0960437934533
 30
0.0
 40
2.250000000000009
  0
CIRCLE
  5
2386
330
2136
100
AcDbEntity
  8
1
  6
CENTER
 62
     3
100
AcDbCircle
 10
111.7901789470925
 20
184.6200911515364
 30
0.0
 40
37.5
  0
CIRCLE
  5
2387
330
2136
100
AcDbEntity
  8
1
 62
     3
100
AcDbCircle
 10
121.495893138437
 20
220.8423096373769
 30
0.0
 40
2.000000000000015
  0
CIRCLE
  5
2388
330
2136
100
AcDbEntity
  8
1
 62
     7
100
AcDbCircle
 10
121.495893138437
 20
220.8423096373769
 30
0.0
 40
1.599999999999984
  0
CIRCLE
  5
2389
330
2136
100
AcDbEntity
  8
1
 62
     7
100
AcDbCircle
 10
102.0844647557479
 20
148.3978726656968
 30
0.0
 40
1.599999999999999
  0
CIRCLE
  5
238A
330
2136
100
AcDbEntity
  8
1
 62
     3
100
AcDbCircle
 10
102.0844647557479
 20
148.3978726656968
 30
0.0
 40
2.000000000000015
  0
CIRCLE
  5
238B
330
2136
100
AcDbEntity
  8
1
  6
CENTER
 62
     3
100
AcDbCircle
 10
111.7901789470925
 20
184.6200911515364
 30
0.0
 40
15.0
  0
CIRCLE
  5
238C
330
2136
100
AcDbEntity
  8
1
 62
     7
100
AcDbCircle
 10
111.7901789470925
 20
199.6200911515368
 30
0.0
 40
3.300000000000009
  0
CIRCLE
  5
238D
330
2136
100
AcDbEntity
  8
1
 62
     7
100
AcDbCircle
 10
101.1835772292942
 20
195.2266928693351
 30
0.0
 40
3.299999999999907
  0
CIRCLE
  5
238E
330
2136
100
AcDbEntity
  8
1
 62
     7
100
AcDbCircle
 10
96.7901789470925
 20
184.6200911515364
 30
0.0
 40
3.299999999999995
  0
CIRCLE
  5
238F
330
2136
100
AcDbEntity
  8
1
 62
     7
100
AcDbCircle
 10
101.1835772292942
 20
174.0134894337385
 30
0.0
 40
3.299999999999926
  0
CIRCLE
  5
2390
330
2136
100
AcDbEntity
  8
1
 62
     7
100
AcDbCircle
 10
111.7901789470925
 20
169.6200911515368
 30
0.0
 40
3.299999999999982
  0
CIRCLE
  5
2391
330
2136
100
AcDbEntity
  8
1
 62
     7
100
AcDbCircle
 10
122.3967806648907
 20
174.0134894337385
 30
0.0
 40
3.299999999999978
  0
CIRCLE
  5
2392
330
2136
100
AcDbEntity
  8
1
 62
     7
100
AcDbCircle
 10
126.7901789470925
 20
184.6200911515364
 30
0.0
 40
3.299999999999995
  0
CIRCLE
  5
2393
330
2136
100
AcDbEntity
  8
1
 62
     7
100
AcDbCircle
 10
122.3967806648907
 20
195.2266928693351
 30
0.0
 40
3.300000000000006
  0
CIRCLE
  5
2394
330
2136
100
AcDbEntity
  8
1
 62
     3
100
AcDbCircle
 10
105.2845605968858
 20
200.3260432042288
 30
0.0
 40
2.000000000000015
  0
CIRCLE
  5
2395
330
2136
100
AcDbEntity
  8
1
 62
     7
100
AcDbCircle
 10
105.2845605968858
 20
200.3260432042288
 30
0.0
 40
1.600000000000034
  0
CIRCLE
  5
2396
330
2136
100
AcDbEntity
  8
1
 62
     7
100
AcDbCircle
 10
118.2957972972982
 20
168.914139098845
 30
0.0
 40
1.600000000000014
  0
CIRCLE
  5
2397
330
2136
100
AcDbEntity
  8
1
 62
     3
100
AcDbCircle
 10
118.2957972972982
 20
168.914139098845
 30
0.0
 40
1.999999999999993
  0
CIRCLE
  5
2398
330
2136
100
AcDbEntity
  8
1
 62
     7
100
AcDbCircle
 10
353.3692869464075
 20
222.1200911515368
 30
0.0
 40
2.25
  0
CIRCLE
  5
2399
330
2136
100
AcDbEntity
  8
1
 62
     7
100
AcDbCircle
 10
353.3692869446628
 20
147.1200911515366
 30
0.0
 40
2.25
  0
CIRCLE
  5
239A
330
2136
100
AcDbEntity
  8
1
 62
     7
100
AcDbCircle
 10
372.1192869447796
 20
152.1441385091843
 30
0.0
 40
2.249999999999988
  0
CIRCLE
  5
239B
330
2136
100
AcDbEntity
  8
1
 62
     7
100
AcDbCircle
 10
385.8452395870151
 20
165.8700911507812
 30
0.0
 40
2.250000000000009
  0
CIRCLE
  5
239C
330
2136
100
AcDbEntity
  8
1
 62
     7
100
AcDbCircle
 10
390.8692869455352
 20
184.6200911506644
 30
0.0
 40
2.25
  0
CIRCLE
  5
239D
330
2136
100
AcDbEntity
  8
1
 62
     7
100
AcDbCircle
 10
385.8452395878878
 20
203.3700911507811
 30
0.0
 40
2.250000000000023
  0
CIRCLE
  5
239E
330
2136
100
AcDbEntity
  8
1
 62
     7
100
AcDbCircle
 10
372.1192869462905
 20
217.0960437930169
 30
0.0
 40
2.249999999999988
  0
CIRCLE
  5
239F
330
2136
100
AcDbEntity
  8
1
 62
     3
100
AcDbCircle
 10
343.6635727541913
 20
220.842309637377
 30
0.0
 40
2.0
  0
CIRCLE
  5
23A0
330
2136
100
AcDbEntity
  8
1
 62
     7
100
AcDbCircle
 10
343.6635727541913
 20
220.842309637377
 30
0.0
 40
1.600000000000135
  0
CIRCLE
  5
23A1
330
2136
100
AcDbEntity
  8
1
 62
     7
100
AcDbCircle
 10
363.0750011368788
 20
148.3978726656965
 30
0.0
 40
1.600000000000023
  0
CIRCLE
  5
23A2
330
2136
100
AcDbEntity
  8
1
 62
     3
100
AcDbCircle
 10
363.0750011368788
 20
148.3978726656965
 30
0.0
 40
2.0
  0
CIRCLE
  5
23A3
330
2136
100
AcDbEntity
  8
1
 62
     7
100
AcDbCircle
 10
343.6635727541913
 20
220.842309637377
 30
0.0
 40
2.25
  0
CIRCLE
  5
23A4
330
2136
100
AcDbEntity
  8
1
 62
     7
100
AcDbCircle
 10
363.0750011368788
 20
148.3978726656965
 30
0.0
 40
2.25
  0
CIRCLE
  5
23A5
330
2136
100
AcDbEntity
  8
1
 62
     7
100
AcDbCircle
 10
255.1217869455123
 20
157.9785911515368
 30
0.0
 40
2.678125000000134
  0
CIRCLE
  5
23A6
330
2136
100
AcDbEntity
  8
1
 62
     7
100
AcDbCircle
 10
255.1217869455123
 20
211.2615911515366
 30
0.0
 40
2.678125000000134
  0
CIRCLE
  5
23A7
330
2136
100
AcDbEntity
  8
1
 62
     7
100
AcDbCircle
 10
111.7901789470925
 20
184.6200911515364
 30
0.0
 40
33.5
  0
ARC
  5
23A8
330
2136
100
AcDbEntity
  8
1
 62
     7
100
AcDbCircle
 10
251.0662355421611
 20
209.5965911515364
 30
0.0
 40
0.249999999999957
100
AcDbArc
 50
172.9999999999928
 51
270.0
  0
ARC
  5
23A9
330
2136
100
AcDbEntity
  8
1
 62
     7
100
AcDbCircle
 10
251.2836619455708
 20
212.8765911515364
 30
0.0
 40
0.25
100
AcDbArc
 50
90.0
 51
180.0
  0
ARC
  5
23AA
330
2136
100
AcDbEntity
  8
1
 62
     7
100
AcDbCircle
 10
251.0662355421611
 20
159.6365911515366
 30
0.0
 40
0.25
100
AcDbArc
 50
90.0
 51
187.0000000000008
  0
ARC
  5
23AF
330
2136
100
AcDbEntity
  8
1
 62
     7
100
AcDbCircle
 10
251.2836619455708
 20
156.3565911515368
 30
0.0
 40
0.25
100
AcDbArc
 50
180.0
 51
270.0
  0
ARC
  5
23B0
330
2136
100
AcDbEntity
  8
1
 62
     7
100
AcDbCircle
 10
230.9322869455124
 20
155.6160911515368
 30
0.0
 40
1.562999999999988
100
AcDbArc
 50
180.0
 51
270.0
  0
ARC
  5
23B1
330
2136
100
AcDbEntity
  8
1
 62
     7
100
AcDbCircle
 10
228.7432869455123
 20
164.3700911515369
 30
0.0
 40
0.25
100
AcDbArc
 50
0.0
 51
90.0
  0
ARC
  5
23B2
330
2136
100
AcDbEntity
  8
1
 62
     7
100
AcDbCircle
 10
230.9322869455124
 20
213.6240911515364
 30
0.0
 40
1.562999999999988
100
AcDbArc
 50
90.0
 51
180.0
  0
ARC
  5
23B3
330
2136
100
AcDbEntity
  8
1
 62
     7
100
AcDbCircle
 10
228.7432869455123
 20
204.8700911515366
 30
0.0
 40
0.25
100
AcDbArc
 50
270.0
 51
0.0
  0
TEXT
  5
23B8
330
2136
100
AcDbEntity
  8
1
 62
     3
100
AcDbText
 10
88.29750182200131
 20
35.20029149641892
 30
0.0
 40
2.299999999999998
  1
 
 41
0.9
100
AcDbText
  0
TEXT
  5
23BE
330
2136
100
AcDbEntity
  8
1
 62
     0
100
AcDbText
 10
184.0747876035839
 20
84.16515535292768
 30
0.0
 40
4.16
  1
REMARKS:  M.H.C = MINIMUM HOUSING CLEARANCE
 41
0.9
 72
     1
 11
238.372147603584
 21
86.24515535292768
 31
0.0
100
AcDbText
 73
     2
  0
TEXT
  5
23BF
330
2136
100
AcDbEntity
  8
1
 62
     0
100
AcDbText
 10
317.9999852649421
 20
85.6673779089859
 30
0.0
 40
5.599999999999998
  1
CSF-25-XXX-2A-GR.dxf
 41
0.9
100
AcDbText
  0
INSERT
  5
2435
330
2136
100
AcDbEntity
  8
AM_0
100
AcDbBlockReference
  2
HD Logo
 10
294.1938710166017
 20
30.93085403683304
 30
0.0
  0
INSERT
  5
244C
330
2136
100
AcDbEntity
  8
AM_0
100
AcDbBlockReference
  2
Harmonic Drive LLC
 10
374.7360425716495
 20
33.84382858175831
 30
0.0
  0
INSERT
  5
2461
330
2136
100
AcDbEntity
  8
AM_0
100
AcDbBlockReference
  2
NTC
 10
46.54540913691668
 20
69.03703817547871
 30
0.0
 41
0.6
 42
0.6
 43
0.6
  0
ENDSEC
  0
SECTION
  2
OBJECTS
  0
DICTIONARY
  5
2124
330
0
100
AcDbDictionary
281
     1
  3
ACAD_GROUP
350
2125
  3
ACAD_LAYOUT
350
2131
  3
ACAD_MLINESTYLE
350
212E
  3
ACAD_PLOTSETTINGS
350
2130
  3
ACAD_PLOTSTYLENAME
350
2126
  3
AcDbVariableDictionary
350
244D
  0
DICTIONARY
  5
2125
102
{ACAD_REACTORS
330
2124
102
}
330
2124
100
AcDbDictionary
281
     1
  0
DICTIONARY
  5
2131
102
{ACAD_REACTORS
330
2124
102
}
330
2124
100
AcDbDictionary
281
     1
  3
Layout1
350
2135
  3
Model
350
2139
  0
DICTIONARY
  5
212E
102
{ACAD_REACTORS
330
2124
102
}
330
2124
100
AcDbDictionary
281
     1
  3
Standard
350
212F
  0
DICTIONARY
  5
2130
102
{ACAD_REACTORS
330
2124
102
}
330
2124
100
AcDbDictionary
281
     1
  0
ACDBDICTIONARYWDFLT
  5
2126
102
{ACAD_REACTORS
330
2124
102
}
330
2124
100
AcDbDictionary
281
     1
  3
Normal
350
2127
100
AcDbDictionaryWithDefault
340
2127
  0
DICTIONARY
  5
244D
102
{ACAD_REACTORS
330
2124
102
}
330
2124
100
AcDbDictionary
281
     1
  3
DIMASSOC
350
244E
  0
LAYOUT
  5
2135
102
{ACAD_REACTORS
330
2131
102
}
330
2131
100
AcDbPlotSettings
  1

  2
\\SERVER9\HP LaserJet 5100 PCL 5e
  4

  6

 40
0.0
 41
0.0
 42
0.0
 43
0.0
 44
0.0
 45
0.0
 46
0.0
 47
0.0
 48
0.0
 49
0.0
140
0.0
141
0.0
142
1.0
143
1.0
 70
   688
 72
     0
 73
     0
 74
     5
  7

 75
    16
147
1.0
148
0.0
149
0.0
100
AcDbLayout
  1
Layout1
 70
     1
 71
     1
 10
0.0
 20
0.0
 11
420.0
 21
297.0
 12
0.0
 22
0.0
 32
0.0
 14
1.000000000000000E+20
 24
1.000000000000000E+20
 34
1.000000000000000E+20
 15
-1.000000000000000E+20
 25
-1.000000000000000E+20
 35
-1.000000000000000E+20
146
0.0
 13
0.0
 23
0.0
 33
0.0
 16
1.0
 26
0.0
 36
0.0
 17
0.0
 27
1.0
 37
0.0
 76
     0
330
2132
  0
LAYOUT
  5
2139
102
{ACAD_REACTORS
330
2131
102
}
330
2131
100
AcDbPlotSettings
  1

  2
\\SERVER9\HP LaserJet 5100 PCL 5e
  4

  6

 40
0.0
 41
0.0
 42
0.0
 43
0.0
 44
0.0
 45
0.0
 46
0.0
 47
0.0
 48
0.0
 49
0.0
140
0.0
141
0.0
142
1.0
143
1.0
 70
  1712
 72
     0
 73
     0
 74
     0
  7

 75
     0
147
1.0
148
0.0
149
0.0
100
AcDbLayout
  1
Model
 70
     1
 71
     0
 10
0.0
 20
0.0
 11
12.0
 21
9.0
 12
0.0
 22
0.0
 32
0.0
 14
0.0
 24
0.0
 34
0.0
 15
0.0
 25
0.0
 35
0.0
146
0.0
 13
0.0
 23
0.0
 33
0.0
 16
1.0
 26
0.0
 36
0.0
 17
0.0
 27
1.0
 37
0.0
 76
     0
330
2136
  0
MLINESTYLE
  5
212F
102
{ACAD_REACTORS
330
212E
102
}
330
212E
100
AcDbMlineStyle
  2
STANDARD
 70
     0
  3

 62
   256
 51
90.0
 52
90.0
 71
     2
 49
0.5
 62
   256
  6
BYLAYER
 49
-0.5
 62
   256
  6
BYLAYER
  0
ACDBPLACEHOLDER
  5
2127
102
{ACAD_REACTORS
330
2126
102
}
330
2126
  0
DICTIONARYVAR
  5
244E
102
{ACAD_REACTORS
330
244D
102
}
330
244D
100
DictionaryVariables
280
     0
  1
1
  0
ENDSEC
  0
EOF
