  0
SECTION
  2
HEADER
  9
$ACADVER
  1
AC1015
  9
$ACADMAINTVER
 70
    13
  9
$DWGCODEPAGE
  3
ANSI_1252
  9
$INSBASE
 10
0.0
 20
0.0
 30
0.0
  9
$EXTMIN
 10
-160.5328940599201
 20
-67.90841168573762
 30
0.0
  9
$EXTMAX
 10
431.6507017932883
 20
381.6410370290165
 30
0.0
  9
$LIMMIN
 10
0.0
 20
0.0
  9
$LIMMAX
 10
420.0
 20
297.0
  9
$ORTHOMODE
 70
     1
  9
$REGENMODE
 70
     1
  9
$FILLMODE
 70
     1
  9
$QTEXTMODE
 70
     0
  9
$MIRRTEXT
 70
     1
  9
$LTSCALE
 40
1.0
  9
$ATTMODE
 70
     1
  9
$TEXTSIZE
 40
2.5
  9
$TRACEWID
 40
1.0
  9
$TEXTSTYLE
  7
STANDARD
  9
$CLAYER
  8
AM_0
  9
$CELTYPE
  6
ByLayer
  9
$CECOLOR
 62
   256
  9
$CELTSCALE
 40
1.0
  9
$DISPSILH
 70
     0
  9
$DIMSCALE
 40
1.0
  9
$DIMASZ
 40
2.5
  9
$DIMEXO
 40
0.625
  9
$DIMDLI
 40
3.75
  9
$DIMRND
 40
0.0
  9
$DIMDLE
 40
0.0
  9
$DIMEXE
 40
1.25
  9
$DIMTP
 40
0.0
  9
$DIMTM
 40
0.0
  9
$DIMTXT
 40
2.5
  9
$DIMCEN
 40
2.5
  9
$DIMTSZ
 40
0.0
  9
$DIMTOL
 70
     0
  9
$DIMLIM
 70
     0
  9
$DIMTIH
 70
     0
  9
$DIMTOH
 70
     0
  9
$DIMSE1
 70
     0
  9
$DIMSE2
 70
     0
  9
$DIMTAD
 70
     1
  9
$DIMZIN
 70
     8
  9
$DIMBLK
  1

  9
$DIMASO
 70
     1
  9
$DIMSHO
 70
     1
  9
$DIMPOST
  1

  9
$DIMAPOST
  1

  9
$DIMALT
 70
     0
  9
$DIMALTD
 70
     3
  9
$DIMALTF
 40
0.03937007874016
  9
$DIMLFAC
 40
1.0
  9
$DIMTOFL
 70
     1
  9
$DIMTVP
 40
0.0
  9
$DIMTIX
 70
     0
  9
$DIMSOXD
 70
     0
  9
$DIMSAH
 70
     0
  9
$DIMBLK1
  1

  9
$DIMBLK2
  1

  9
$DIMSTYLE
  2
ISO-25
  9
$DIMCLRD
 70
     0
  9
$DIMCLRE
 70
     0
  9
$DIMCLRT
 70
     0
  9
$DIMTFAC
 40
1.0
  9
$DIMGAP
 40
0.625
  9
$DIMJUST
 70
     0
  9
$DIMSD1
 70
     0
  9
$DIMSD2
 70
     0
  9
$DIMTOLJ
 70
     1
  9
$DIMTZIN
 70
     0
  9
$DIMALTZ
 70
     0
  9
$DIMALTTZ
 70
     0
  9
$DIMUPT
 70
     0
  9
$DIMDEC
 70
     4
  9
$DIMTDEC
 70
     4
  9
$DIMALTU
 70
     2
  9
$DIMALTTD
 70
     2
  9
$DIMTXSTY
  7
STANDARD
  9
$DIMAUNIT
 70
     0
  9
$DIMADEC
 70
     0
  9
$DIMALTRND
 40
0.0
  9
$DIMAZIN
 70
     0
  9
$DIMDSEP
 70
    46
  9
$DIMATFIT
 70
     3
  9
$DIMFRAC
 70
     0
  9
$DIMLDRBLK
  1

  9
$DIMLUNIT
 70
     2
  9
$DIMLWD
 70
    -2
  9
$DIMLWE
 70
    -2
  9
$DIMTMOVE
 70
     0
  9
$LUNITS
 70
     2
  9
$LUPREC
 70
     2
  9
$SKETCHINC
 40
1.0
  9
$FILLETRAD
 40
2.5
  9
$AUNITS
 70
     0
  9
$AUPREC
 70
     0
  9
$MENU
  1
.
  9
$ELEVATION
 40
0.0
  9
$PELEVATION
 40
0.0
  9
$THICKNESS
 40
0.0
  9
$LIMCHECK
 70
     0
  9
$CHAMFERA
 40
2.5
  9
$CHAMFERB
 40
2.5
  9
$CHAMFERC
 40
0.0
  9
$CHAMFERD
 40
0.0
  9
$SKPOLY
 70
     0
  9
$TDCREATE
 40
2452802.693866458
  9
$TDUCREATE
 40
2452802.860533124
  9
$TDUPDATE
 40
2453865.505742187
  9
$TDUUPDATE
 40
2453865.672408854
  9
$TDINDWG
 40
0.1665881829
  9
$TDUSRTIMER
 40
0.1665874653
  9
$USRTIMER
 70
     1
  9
$ANGBASE
 50
0.0
  9
$ANGDIR
 70
     0
  9
$PDMODE
 70
     0
  9
$PDSIZE
 40
0.0
  9
$PLINEWID
 40
0.0
  9
$SPLFRAME
 70
     0
  9
$SPLINETYPE
 70
     6
  9
$SPLINESEGS
 70
     8
  9
$HANDSEED
  5
2A3D
  9
$SURFTAB1
 70
     6
  9
$SURFTAB2
 70
     6
  9
$SURFTYPE
 70
     6
  9
$SURFU
 70
     6
  9
$SURFV
 70
     6
  9
$UCSBASE
  2

  9
$UCSNAME
  2

  9
$UCSORG
 10
0.0
 20
0.0
 30
0.0
  9
$UCSXDIR
 10
1.0
 20
0.0
 30
0.0
  9
$UCSYDIR
 10
0.0
 20
1.0
 30
0.0
  9
$UCSORTHOREF
  2

  9
$UCSORTHOVIEW
 70
     0
  9
$UCSORGTOP
 10
0.0
 20
0.0
 30
0.0
  9
$UCSORGBOTTOM
 10
0.0
 20
0.0
 30
0.0
  9
$UCSORGLEFT
 10
0.0
 20
0.0
 30
0.0
  9
$UCSORGRIGHT
 10
0.0
 20
0.0
 30
0.0
  9
$UCSORGFRONT
 10
0.0
 20
0.0
 30
0.0
  9
$UCSORGBACK
 10
0.0
 20
0.0
 30
0.0
  9
$PUCSBASE
  2

  9
$PUCSNAME
  2

  9
$PUCSORG
 10
0.0
 20
0.0
 30
0.0
  9
$PUCSXDIR
 10
1.0
 20
0.0
 30
0.0
  9
$PUCSYDIR
 10
0.0
 20
1.0
 30
0.0
  9
$PUCSORTHOREF
  2

  9
$PUCSORTHOVIEW
 70
     0
  9
$PUCSORGTOP
 10
0.0
 20
0.0
 30
0.0
  9
$PUCSORGBOTTOM
 10
0.0
 20
0.0
 30
0.0
  9
$PUCSORGLEFT
 10
0.0
 20
0.0
 30
0.0
  9
$PUCSORGRIGHT
 10
0.0
 20
0.0
 30
0.0
  9
$PUCSORGFRONT
 10
0.0
 20
0.0
 30
0.0
  9
$PUCSORGBACK
 10
0.0
 20
0.0
 30
0.0
  9
$USERI1
 70
     0
  9
$USERI2
 70
     0
  9
$USERI3
 70
     0
  9
$USERI4
 70
     0
  9
$USERI5
 70
     0
  9
$USERR1
 40
0.0
  9
$USERR2
 40
0.0
  9
$USERR3
 40
0.0
  9
$USERR4
 40
0.0
  9
$USERR5
 40
0.0
  9
$WORLDVIEW
 70
     1
  9
$SHADEDGE
 70
     3
  9
$SHADEDIF
 70
    70
  9
$TILEMODE
 70
     1
  9
$MAXACTVP
 70
    64
  9
$PINSBASE
 10
0.0
 20
0.0
 30
0.0
  9
$PLIMCHECK
 70
     0
  9
$PEXTMIN
 10
1.000000000000000E+20
 20
1.000000000000000E+20
 30
1.000000000000000E+20
  9
$PEXTMAX
 10
-1.000000000000000E+20
 20
-1.000000000000000E+20
 30
-1.000000000000000E+20
  9
$PLIMMIN
 10
0.0
 20
0.0
  9
$PLIMMAX
 10
420.0
 20
297.0
  9
$UNITMODE
 70
     0
  9
$VISRETAIN
 70
     1
  9
$PLINEGEN
 70
     0
  9
$PSLTSCALE
 70
     1
  9
$TREEDEPTH
 70
  3020
  9
$CMLSTYLE
  2
Standard
  9
$CMLJUST
 70
     0
  9
$CMLSCALE
 40
1.0
  9
$PROXYGRAPHICS
 70
     1
  9
$MEASUREMENT
 70
     0
  9
$CELWEIGHT
370
    -1
  9
$ENDCAPS
280
     0
  9
$JOINSTYLE
280
     0
  9
$LWDISPLAY
290
     0
  9
$INSUNITS
 70
     0
  9
$HYPERLINKBASE
  1

  9
$STYLESHEET
  1

  9
$XEDIT
290
     1
  9
$CEPSNTYPE
380
     0
  9
$PSTYLEMODE
290
     1
  9
$FINGERPRINTGUID
  2
{70F20872-5D9D-42BC-832F-CA546119BCA7}
  9
$VERSIONGUID
  2
{B9AB523F-58AD-4991-AA39-8CC1321CC11B}
  9
$EXTNAMES
290
     1
  9
$PSVPSCALE
 40
0.0
  9
$OLESTARTUP
290
     0
  0
ENDSEC
  0
SECTION
  2
CLASSES
  0
CLASS
  1
ACDBDICTIONARYWDFLT
  2
AcDbDictionaryWithDefault
  3
AutoCAD 2000
 90
        0
280
     0
281
     0
  0
CLASS
  1
ACDBPLACEHOLDER
  2
AcDbPlaceHolder
  3
AutoCAD 2000
 90
        0
280
     0
281
     0
  0
CLASS
  1
LAYOUT
  2
AcDbLayout
  3
AutoCAD 2000
 90
        0
280
     0
281
     0
  0
CLASS
  1
DICTIONARYVAR
  2
AcDbDictionaryVar
  3
AutoCAD 2000
 90
        0
280
     0
281
     0
  0
ENDSEC
  0
SECTION
  2
TABLES
  0
TABLE
  2
VPORT
  5
26E6
330
0
100
AcDbSymbolTable
 70
     3
  0
VPORT
  5
2A3C
330
26E6
100
AcDbSymbolTableRecord
100
AcDbViewportTableRecord
  2
*Active
 70
     0
 10
0.0
 20
0.0
 11
1.0
 21
1.0
 12
212.1054754792205
 22
150.8905929196937
 13
0.0
 23
0.0
 14
2.5
 24
2.5
 15
10.0
 25
10.0
 16
0.0
 26
0.0
 36
1.0
 17
0.0
 27
0.0
 37
0.0
 40
509.0875812209238
 41
1.182835820895522
 42
50.0
 43
0.0
 44
0.0
 50
0.0
 51
0.0
 71
     0
 72
   100
 73
     1
 74
     3
 75
     0
 76
     0
 77
     0
 78
     0
281
     0
 65
     1
110
0.0
120
0.0
130
0.0
111
1.0
121
0.0
131
0.0
112
0.0
122
1.0
132
0.0
 79
     0
146
0.0
  0
ENDTAB
  0
TABLE
  2
LTYPE
  5
26E3
330
0
100
AcDbSymbolTable
 70
     4
  0
LTYPE
  5
26F1
330
26E3
100
AcDbSymbolTableRecord
100
AcDbLinetypeTableRecord
  2
ByBlock
 70
     0
  3

 72
    65
 73
     0
 40
0.0
  0
LTYPE
  5
26F2
330
26E3
100
AcDbSymbolTableRecord
100
AcDbLinetypeTableRecord
  2
ByLayer
 70
     0
  3

 72
    65
 73
     0
 40
0.0
  0
LTYPE
  5
26F3
330
26E3
100
AcDbSymbolTableRecord
100
AcDbLinetypeTableRecord
  2
CONTINUOUS
 70
     0
  3
Solid line
 72
    65
 73
     0
 40
0.0
  0
LTYPE
  5
2702
330
26E3
100
AcDbSymbolTableRecord
100
AcDbLinetypeTableRecord
  2
CENTER
 70
     0
  3
Center ____ _ ____ _ ____ _ ____ _ ____ _ ____
 72
    65
 73
     4
 40
50.8
 49
31.75
 74
     0
 49
-6.349999999999997
 74
     0
 49
6.349999999999997
 74
     0
 49
-6.349999999999997
 74
     0
  0
LTYPE
  5
2703
330
26E3
100
AcDbSymbolTableRecord
100
AcDbLinetypeTableRecord
  2
DIVIDE
 70
     0
  3
__ . . __ . . 
 72
    65
 73
     6
 40
14.97686286665135
 49
5.990745146660541
 74
     0
 49
-2.995372573330271
 74
     0
 49
0.0
 74
     0
 49
-2.995372573330271
 74
     0
 49
0.0
 74
     0
 49
-2.995372573330271
 74
     0
  0
LTYPE
  5
2704
330
26E3
100
AcDbSymbolTableRecord
100
AcDbLinetypeTableRecord
  2
PHANTOM
 70
     0
  3
_____ _ _ _____ _ _ 
 72
    65
 73
     6
 40
29.9537257333027
 49
14.97686286665135
 74
     0
 49
-2.995372573330271
 74
     0
 49
2.995372573330271
 74
     0
 49
-2.995372573330271
 74
     0
 49
2.995372573330271
 74
     0
 49
-2.995372573330271
 74
     0
  0
ENDTAB
  0
TABLE
  2
LAYER
  5
26E0
330
0
100
AcDbSymbolTable
 70
     5
  0
LAYER
  5
26EE
330
26E0
100
AcDbSymbolTableRecord
100
AcDbLayerTableRecord
  2
0
 70
     0
 62
     7
  6
CONTINUOUS
370
    -3
390
26ED
  0
LAYER
  5
2700
330
26E0
100
AcDbSymbolTableRecord
100
AcDbLayerTableRecord
  2
AM_0
 70
     0
 62
     7
  6
CONTINUOUS
370
    -3
390
26ED
  0
LAYER
  5
2705
330
26E0
100
AcDbSymbolTableRecord
100
AcDbLayerTableRecord
  2
1
 70
     0
 62
     7
  6
CONTINUOUS
370
    -3
390
26ED
  0
LAYER
  5
2706
330
26E0
100
AcDbSymbolTableRecord
100
AcDbLayerTableRecord
  2
2
 70
     0
 62
     7
  6
CONTINUOUS
370
    -3
390
26ED
  0
LAYER
  5
2A03
330
26E0
100
AcDbSymbolTableRecord
100
AcDbLayerTableRecord
  2
LAYER_1
 70
     0
 62
     5
  6
CONTINUOUS
370
    -3
390
26ED
  0
ENDTAB
  0
TABLE
  2
STYLE
  5
26E1
330
0
100
AcDbSymbolTable
 70
     1
  0
STYLE
  5
26EF
330
26E1
100
AcDbSymbolTableRecord
100
AcDbTextStyleTableRecord
  2
STANDARD
 70
     0
 40
0.0
 41
1.0
 50
0.0
 71
     0
 42
2.5
  3
ISOCP.SHX
  4

  0
ENDTAB
  0
TABLE
  2
VIEW
  5
26E4
330
0
100
AcDbSymbolTable
 70
     0
  0
ENDTAB
  0
TABLE
  2
UCS
  5
26E5
330
0
100
AcDbSymbolTable
 70
     0
  0
ENDTAB
  0
TABLE
  2
APPID
  5
26E7
330
0
100
AcDbSymbolTable
 70
    13
  0
APPID
  5
26F0
330
26E7
100
AcDbSymbolTableRecord
100
AcDbRegAppTableRecord
  2
ACAD
 70
     0
  0
APPID
  5
2707
330
26E7
100
AcDbSymbolTableRecord
100
AcDbRegAppTableRecord
  2
GENIUS_GENDIM_13
 70
     0
  0
APPID
  5
2708
330
26E7
100
AcDbSymbolTableRecord
100
AcDbRegAppTableRecord
  2
GENIUS_GENDTOL_13
 70
     0
  0
APPID
  5
2709
330
26E7
100
AcDbSymbolTableRecord
100
AcDbRegAppTableRecord
  2
GENIUS_GE3DTOL_13
 70
     0
  0
APPID
  5
270A
330
26E7
100
AcDbSymbolTableRecord
100
AcDbRegAppTableRecord
  2
MCAD_NO_VIS
 70
     0
  0
APPID
  5
270B
330
26E7
100
AcDbSymbolTableRecord
100
AcDbRegAppTableRecord
  2
ACAD_TEMP_GRAPHIC
 70
     0
  0
APPID
  5
270C
330
26E7
100
AcDbSymbolTableRecord
100
AcDbRegAppTableRecord
  2
AD_DRAW
 70
     0
  0
APPID
  5
270D
330
26E7
100
AcDbSymbolTableRecord
100
AcDbRegAppTableRecord
  2
ACATTRIBSERVICES
 70
     0
  0
APPID
  5
270E
330
26E7
100
AcDbSymbolTableRecord
100
AcDbRegAppTableRecord
  2
ASURF_PCURVE_APPNAME
 70
     0
  0
APPID
  5
270F
330
26E7
100
AcDbSymbolTableRecord
100
AcDbRegAppTableRecord
  2
DESIGNERASSEMBLIES
 70
     0
  0
APPID
  5
2710
330
26E7
100
AcDbSymbolTableRecord
100
AcDbRegAppTableRecord
  2
ACADM_DIM_EDIT
 70
     0
  0
APPID
  5
2711
330
26E7
100
AcDbSymbolTableRecord
100
AcDbRegAppTableRecord
  2
G3V_ENTHND
 70
     0
  0
APPID
  5
2712
330
26E7
100
AcDbSymbolTableRecord
100
AcDbRegAppTableRecord
  2
GENIUS_GENDIMSH_14
 70
     0
  0
ENDTAB
  0
TABLE
  2
DIMSTYLE
  5
26E8
330
0
100
AcDbSymbolTable
 70
     2
100
AcDbDimStyleTable
 71
     0
  0
DIMSTYLE
105
2713
330
26E8
100
AcDbSymbolTableRecord
100
AcDbDimStyleTableRecord
  2
ISO-25
 70
     0
 41
2.5
 42
0.625
 43
3.75
 44
1.25
 73
     0
 74
     0
 77
     1
 78
     8
140
2.5
141
2.5
143
0.03937007874016
147
0.625
171
     3
172
     1
271
     2
272
     2
274
     3
279
     2
284
     8
285
     8
286
     8
340
26EF
  0
DIMSTYLE
105
2A04
330
26E8
100
AcDbSymbolTableRecord
100
AcDbDimStyleTableRecord
  2
Standard
 70
     0
340
26EF
  0
ENDTAB
  0
TABLE
  2
BLOCK_RECORD
  5
26DF
330
0
100
AcDbSymbolTable
 70
    24
  0
BLOCK_RECORD
  5
26FC
330
26DF
100
AcDbSymbolTableRecord
100
AcDbBlockTableRecord
  2
*Model_Space
340
26FF
  0
BLOCK_RECORD
  5
26F8
330
26DF
100
AcDbSymbolTableRecord
100
AcDbBlockTableRecord
  2
*Paper_Space
340
26FB
  0
BLOCK_RECORD
  5
2715
330
26DF
100
AcDbSymbolTableRecord
100
AcDbBlockTableRecord
  2
$MODEL_SPACE
340
0
  0
BLOCK_RECORD
  5
2718
330
26DF
100
AcDbSymbolTableRecord
100
AcDbBlockTableRecord
  2
$PAPER_SPACE
340
0
  0
BLOCK_RECORD
  5
2997
330
26DF
100
AcDbSymbolTableRecord
100
AcDbBlockTableRecord
  2
AI9-BLK14
340
0
310
2800000020000000200000000100080000000000000400000000000000000000000000000000000000000000000080000080000000808000800000008000800080800000C0C0C000C0DCC000F0CAA6000020400000206000002080000020A0000020C0000020E00000400000004020000040400000406000004080000040A0
310
000040C0000040E00000600000006020000060400000606000006080000060A0000060C0000060E00000800000008020000080400000806000008080000080A0000080C0000080E00000A0000000A0200000A0400000A0600000A0800000A0A00000A0C00000A0E00000C0000000C0200000C0400000C0600000C0800000C0
310
A00000C0C00000C0E00000E0000000E0200000E0400000E0600000E0800000E0A00000E0C00000E0E00040000000400020004000400040006000400080004000A0004000C0004000E00040200000402020004020400040206000402080004020A0004020C0004020E000404000004040200040404000404060004040800040
310
40A0004040C0004040E00040600000406020004060400040606000406080004060A0004060C0004060E00040800000408020004080400040806000408080004080A0004080C0004080E00040A0000040A0200040A0400040A0600040A0800040A0A00040A0C00040A0E00040C0000040C0200040C0400040C0600040C08000
310
40C0A00040C0C00040C0E00040E0000040E0200040E0400040E0600040E0800040E0A00040E0C00040E0E00080000000800020008000400080006000800080008000A0008000C0008000E00080200000802020008020400080206000802080008020A0008020C0008020E00080400000804020008040400080406000804080
310
008040A0008040C0008040E00080600000806020008060400080606000806080008060A0008060C0008060E00080800000808020008080400080806000808080008080A0008080C0008080E00080A0000080A0200080A0400080A0600080A0800080A0A00080A0C00080A0E00080C0000080C0200080C0400080C0600080C0
310
800080C0A00080C0C00080C0E00080E0000080E0200080E0400080E0600080E0800080E0A00080E0C00080E0E000C0000000C0002000C0004000C0006000C0008000C000A000C000C000C000E000C0200000C0202000C0204000C0206000C0208000C020A000C020C000C020E000C0400000C0402000C0404000C0406000C0
310
408000C040A000C040C000C040E000C0600000C0602000C0604000C0606000C0608000C060A000C060C000C060E000C0800000C0802000C0804000C0806000C0808000C080A000C080C000C080E000C0A00000C0A02000C0A04000C0A06000C0A08000C0A0A000C0A0C000C0A0E000C0C00000C0C02000C0C04000C0C06000
310
C0C08000C0C0A000F0FBFF00A4A0A000808080000000FF0000FF000000FFFF00FF000000FF00FF00FFFF0000FFFFFF00FF00FFFFFFFF00FFFFFFFFFFFFFFFFFFFFFFFFFFFFFFFFFFFFFFFFFFFFFFFFFFFF00FFFFFFFF00FFFFFFFFFFFFFFFFFFFFFFFFFFFFFFFFFFFFFFFFFFFFFFFFFFFF00FFFFFFFF00FFFFFFFFFFFFFFFF
310
FFFFFFFFFFFFFFFFFFFFFFFFFFFFFFFFFFFF00FFFFFFFF00FFFFFFFFFFFFFFFFFFFFFFFFFFFFFFFFFFFFFFFFFFFFFFFFFFFF00FFFFFFFF00FFFFFFFFFFFFFFFFFFFFFFFFFFFFFFFFFFFFFFFFFFFFFFFFFFFF00FFFFFFFF00FFFFFFFFFFFFFFFFFFFFFFFFFFFFFFFFFFFFFFFFFFFFFFFFFFFF00FFFFFFFF00FFFFFFFFFFFFFF
310
FFFFFFFFFFFFFFFFFFFFFFFFFFFFFFFFFFFFFF00FFFFFFFF00FFFFFFFFFFFFFFFFFFFFFFFFFFFFFFFFFFFFFFFFFFFFFFFFFFFF00FFFFFFFF00FFFFFFFFFFFFFFFFFFFFFFFFFFFFFFFFFFFFFFFFFFFFFFFFFFFF00FFFFFFFF00FFFFFFFFFFFFFFFFFFFFFFFFFFFFFFFFFFFFFFFFFFFFFFFFFFFF00FFFFFFFF00FFFFFFFFFFFF
310
FFFFFFFFFFFFFFFFFFFFFFFFFFFFFFFFFFFFFFFF00FFFFFFFF00FFFFFFFFFFFFFFFFFFFFFFFFFFFFFFFFFFFFFFFFFFFFFFFFFFFF00FFFFFFFF00FFFFFFFFFFFFFFFFFFFFFFFFFFFFFFFFFFFFFFFFFFFFFFFFFFFF00FFFFFFFF0000000000000000000000000000000000000000000000000000FF00FFFFFFFFFFFFFFFFFFFF
310
FFFFFFFFFFFFFFFFFFFFFFFFFFFFFFFFFFFFFFFFFF00FFFFFFFFFFFFFFFFFFFFFFFFFFFFFFFFFFFFFFFFFFFFFFFFFFFFFFFFFFFFFF00FFFFFFFFFFFFFFFFFFFFFFFFFFFFFFFFFFFFFFFFFFFFFFFFFFFFFFFFFFFFFF00FFFFFFFFFFFFFFFFFFFFFFFFFFFFFFFFFFFFFFFFFFFFFFFFFFFFFFFFFF00FF00000000000000000000
310
0000000000000000000000000000000000000000FFFFFFFFFFFFFFFFFFFFFFFFFFFFFFFFFFFFFFFFFFFFFFFFFFFFFFFFFFFFFFFFFFFFFFFFFFFFFFFFFFFFFFFFFFFFFFFFFFFFFFFFFFFFFFFFFFFFFFFFFFFFFFFFFFFFFFFFFFFFFFFFFFFFFFFFFFFFFFFFFFFFFFFFFFFFFFFFFFFFFFFFFFFFFFFFFFFFFFFFFFFFFFFFFFFFFF
310
FFFFFFFFFFFFFFFFFFFFFFFFFFFFFFFFFFFFFFFFFFFFFFFFFFFFFFFFFFFFFFFFFFFFFFFFFFFFFFFFFFFFFFFFFFFFFFFFFFFFFFFFFFFFFFFFFFFFFFFFFFFFFFFFFFFFFFFFFFFFFFFFFFFFFFFFFFFFFFFFFFFFFFFFFFFFFFFFFFFFFFFFFFFFFFFFFFFFFFFFFFFFFFFFFFFFFFFFFFFFFFFFFFFFFFFFFFFFFFFFFFFFFFFFFFFFFF
310
FFFFFFFFFFFFFFFFFFFFFFFFFFFFFFFFFFFFFFFFFFFFFFFFFFFFFFFFFFFFFFFFFFFFFFFFFFFFFFFFFFFFFFFFFFFFFFFFFFFFFFFFFFFFFFFFFFFFFFFFFFFFFFFFFFFFFFFFFFFFFFFFFFFFFFFFFFFFFFFFFFFFFFFFFFFFFFFFFFFFFFFFFFFFFFFFFFFFFFFFFFFFFFFFFFFFFFFFFFFFFFFFFFFFFFFFFFFFFFFFFFFFFFFFFFFFFF
310
FFFFFFFFFFFFFFFFFFFFFFFFFFFFFFFFFFFFFFFFFFFFFFFFFFFFFFFFFFFFFFFFFFFFFFFFFFFFFFFFFFFFFFFFFFFFFFFFFFFFFFFFFFFFFFFF
102
{BLKREFS
331
29D8
102
}
  0
BLOCK_RECORD
  5
299C
330
26DF
100
AcDbSymbolTableRecord
100
AcDbBlockTableRecord
  2
AI9-BLK13
340
0
310
2800000020000000200000000100080000000000000400000000000000000000000000000000000000000000000080000080000000808000800000008000800080800000C0C0C000C0DCC000F0CAA6000020400000206000002080000020A0000020C0000020E00000400000004020000040400000406000004080000040A0
310
000040C0000040E00000600000006020000060400000606000006080000060A0000060C0000060E00000800000008020000080400000806000008080000080A0000080C0000080E00000A0000000A0200000A0400000A0600000A0800000A0A00000A0C00000A0E00000C0000000C0200000C0400000C0600000C0800000C0
310
A00000C0C00000C0E00000E0000000E0200000E0400000E0600000E0800000E0A00000E0C00000E0E00040000000400020004000400040006000400080004000A0004000C0004000E00040200000402020004020400040206000402080004020A0004020C0004020E000404000004040200040404000404060004040800040
310
40A0004040C0004040E00040600000406020004060400040606000406080004060A0004060C0004060E00040800000408020004080400040806000408080004080A0004080C0004080E00040A0000040A0200040A0400040A0600040A0800040A0A00040A0C00040A0E00040C0000040C0200040C0400040C0600040C08000
310
40C0A00040C0C00040C0E00040E0000040E0200040E0400040E0600040E0800040E0A00040E0C00040E0E00080000000800020008000400080006000800080008000A0008000C0008000E00080200000802020008020400080206000802080008020A0008020C0008020E00080400000804020008040400080406000804080
310
008040A0008040C0008040E00080600000806020008060400080606000806080008060A0008060C0008060E00080800000808020008080400080806000808080008080A0008080C0008080E00080A0000080A0200080A0400080A0600080A0800080A0A00080A0C00080A0E00080C0000080C0200080C0400080C0600080C0
310
800080C0A00080C0C00080C0E00080E0000080E0200080E0400080E0600080E0800080E0A00080E0C00080E0E000C0000000C0002000C0004000C0006000C0008000C000A000C000C000C000E000C0200000C0202000C0204000C0206000C0208000C020A000C020C000C020E000C0400000C0402000C0404000C0406000C0
310
408000C040A000C040C000C040E000C0600000C0602000C0604000C0606000C0608000C060A000C060C000C060E000C0800000C0802000C0804000C0806000C0808000C080A000C080C000C080E000C0A00000C0A02000C0A04000C0A06000C0A08000C0A0A000C0A0C000C0A0E000C0C00000C0C02000C0C04000C0C06000
310
C0C08000C0C0A000F0FBFF00A4A0A000808080000000FF0000FF000000FFFF00FF000000FF00FF00FFFF0000FFFFFF00FFFFFFFFFFFFFFFFFFFFFFFFFFFFFFFFFFFFFFFFFFFFFFFFFFFFFFFFFFFFFFFFFFFFFFFFFFFFFFFFFFFFFF0000FFFFFFFFFFFF0000FFFFFFFFFFFFFFFFFFFFFFFFFFFFFFFFFFFFFFFFFFFF0000FFFF
310
FFFFFFFF0000FFFFFFFFFFFFFFFFFFFFFFFFFFFFFFFFFFFFFFFFFFFF0000FFFFFFFFFFFF0000FFFFFFFFFFFFFFFFFFFFFFFFFFFFFFFFFFFFFFFFFFFF0000FFFFFFFFFFFF0000FFFFFFFFFFFFFFFFFFFFFFFFFFFFFFFFFFFFFFFFFFFF0000FFFFFFFFFFFF0000FFFFFFFFFFFFFFFFFFFFFFFFFFFFFFFFFFFFFFFFFFFF0000FF
310
FFFFFFFFFF0000FFFFFFFFFFFFFFFFFFFFFFFFFFFFFFFFFFFFFFFFFFFF0000FFFFFFFFFFFF0000FFFFFFFFFFFFFFFFFFFFFFFFFFFFFFFFFFFFFFFFFFFF0000FFFFFFFFFFFF0000FFFFFFFFFFFFFFFFFFFFFFFFFFFFFFFFFFFFFFFFFFFF0000FFFFFFFFFFFF0000FFFFFFFFFFFFFFFFFFFFFFFFFFFFFFFFFFFFFFFFFFFF0000
310
FFFFFFFFFFFF0000FFFFFFFFFFFFFFFFFFFFFFFFFFFFFFFFFFFFFFFFFFFF0000FFFFFFFFFFFF0000FFFFFFFFFFFFFFFFFFFFFFFFFFFFFFFFFFFFFFFFFFFF0000FFFFFFFFFFFF0000FFFFFFFFFFFFFFFFFFFFFFFFFFFFFFFFFFFFFFFFFFFF0000FFFFFFFFFFFF0000FFFFFFFFFFFFFFFFFFFFFFFFFFFFFFFFFFFFFFFFFFFF00
310
00FFFFFFFFFFFF0000FFFFFFFFFFFFFFFFFFFFFFFFFFFFFFFFFFFFFFFFFFFF00000000000000000000FFFFFFFFFFFFFFFFFFFFFFFFFFFFFFFFFFFFFFFFFFFF00FFFFFFFFFFFFFFFF00FFFFFFFFFFFFFFFFFFFFFFFFFFFFFFFFFFFFFFFFFFFF00FFFFFFFFFFFFFFFF00FFFFFFFFFFFFFFFFFFFFFFFFFFFFFFFFFFFFFFFFFFFF
310
00000000000000000000FFFFFFFFFFFFFFFFFFFFFFFFFFFFFFFFFFFFFFFFFFFF0000FFFFFFFFFFFF0000FFFFFFFFFFFFFFFFFFFFFFFFFFFFFFFFFFFFFFFFFFFF0000FFFFFFFFFFFF0000FFFFFFFFFFFFFFFFFFFFFFFFFFFFFFFFFFFFFFFFFFFF0000FFFFFFFFFFFF0000FFFFFFFFFFFFFFFFFFFFFFFFFFFFFFFFFFFFFFFFFF
310
FF0000FFFFFFFFFFFF0000FFFFFFFFFFFFFFFFFFFFFFFFFFFFFFFFFFFFFFFFFFFF0000FFFFFFFFFFFF0000FFFFFFFFFFFFFFFFFFFFFFFFFFFFFFFFFFFFFFFFFFFF0000FFFFFFFFFFFF0000FFFFFFFFFFFFFFFFFFFFFFFFFFFFFFFFFFFFFFFFFFFF0000FFFFFFFFFFFF0000FFFFFFFFFFFFFFFFFFFFFFFFFFFFFFFFFFFFFFFF
310
FFFF0000FFFFFFFFFFFF0000FFFFFFFFFFFFFFFFFFFFFFFFFFFFFFFFFFFFFFFFFFFF0000FFFFFFFFFFFF0000FFFFFFFFFFFFFFFFFFFFFFFFFFFFFFFFFFFFFFFFFFFF0000FFFFFFFFFFFF0000FFFFFFFFFFFFFFFFFFFFFFFFFFFFFFFFFFFFFFFFFFFF0000FFFFFFFFFFFF0000FFFFFFFFFFFFFFFFFFFFFFFFFFFFFFFFFFFFFF
310
FFFFFF0000FFFFFFFFFFFF0000FFFFFFFFFFFFFFFFFFFFFFFFFFFFFFFFFFFFFFFFFFFFFFFFFFFFFFFFFFFFFFFFFFFFFFFFFFFFFFFFFFFFFF
102
{BLKREFS
331
29D9
102
}
  0
BLOCK_RECORD
  5
29A1
330
26DF
100
AcDbSymbolTableRecord
100
AcDbBlockTableRecord
  2
AI9-BLK11
340
0
310
2800000020000000200000000100080000000000000400000000000000000000000000000000000000000000000080000080000000808000800000008000800080800000C0C0C000C0DCC000F0CAA6000020400000206000002080000020A0000020C0000020E00000400000004020000040400000406000004080000040A0
310
000040C0000040E00000600000006020000060400000606000006080000060A0000060C0000060E00000800000008020000080400000806000008080000080A0000080C0000080E00000A0000000A0200000A0400000A0600000A0800000A0A00000A0C00000A0E00000C0000000C0200000C0400000C0600000C0800000C0
310
A00000C0C00000C0E00000E0000000E0200000E0400000E0600000E0800000E0A00000E0C00000E0E00040000000400020004000400040006000400080004000A0004000C0004000E00040200000402020004020400040206000402080004020A0004020C0004020E000404000004040200040404000404060004040800040
310
40A0004040C0004040E00040600000406020004060400040606000406080004060A0004060C0004060E00040800000408020004080400040806000408080004080A0004080C0004080E00040A0000040A0200040A0400040A0600040A0800040A0A00040A0C00040A0E00040C0000040C0200040C0400040C0600040C08000
310
40C0A00040C0C00040C0E00040E0000040E0200040E0400040E0600040E0800040E0A00040E0C00040E0E00080000000800020008000400080006000800080008000A0008000C0008000E00080200000802020008020400080206000802080008020A0008020C0008020E00080400000804020008040400080406000804080
310
008040A0008040C0008040E00080600000806020008060400080606000806080008060A0008060C0008060E00080800000808020008080400080806000808080008080A0008080C0008080E00080A0000080A0200080A0400080A0600080A0800080A0A00080A0C00080A0E00080C0000080C0200080C0400080C0600080C0
310
800080C0A00080C0C00080C0E00080E0000080E0200080E0400080E0600080E0800080E0A00080E0C00080E0E000C0000000C0002000C0004000C0006000C0008000C000A000C000C000C000E000C0200000C0202000C0204000C0206000C0208000C020A000C020C000C020E000C0400000C0402000C0404000C0406000C0
310
408000C040A000C040C000C040E000C0600000C0602000C0604000C0606000C0608000C060A000C060C000C060E000C0800000C0802000C0804000C0806000C0808000C080A000C080C000C080E000C0A00000C0A02000C0A04000C0A06000C0A08000C0A0A000C0A0C000C0A0E000C0C00000C0C02000C0C04000C0C06000
310
C0C08000C0C0A000F0FBFF00A4A0A000808080000000FF0000FF000000FFFF00FF000000FF00FF00FFFF0000FFFFFF00FFFFFFFFFFFFFFFFFFFFFFFFFFFFFFFFFFFFFFFFFFFFFFFFFFFFFFFFFFFFFFFFFFFFFFFFFFFFFFFFFFFFFFFFFFFF00000000FFFFFFFFFFFFFFFFFFFFFF000000FFFFFFFFFFFFFFFFFFFFFFFFFFFF00
310
FFFF00FFFFFFFFFFFFFFFFFFFFFF00FFFFFFFFFFFFFFFFFFFFFFFFFFFFFFFF00FFFF00FFFFFFFFFFFFFFFFFFFFFF00FFFFFFFFFFFFFFFFFFFFFFFFFFFFFFFF00FFFF00FFFFFFFFFFFFFFFFFFFFFF00FFFFFFFFFFFFFFFFFFFFFFFFFFFFFFFF00FFFF00FFFFFFFFFFFFFFFFFFFFFF00FFFFFFFFFFFFFFFFFFFFFFFFFFFFFFFF
310
00FFFF00FFFFFFFFFFFFFFFFFFFFFF00FFFFFFFFFFFFFFFFFFFFFFFFFFFFFFFF00FFFF00FFFFFFFFFFFFFFFFFFFFFF00FFFFFFFFFFFFFFFFFFFFFFFFFFFFFFFF00FFFF00FFFFFFFFFFFFFFFFFFFFFF00FFFFFFFFFFFFFFFFFFFFFFFFFFFFFFFF00FFFF00FFFFFFFFFFFFFFFFFFFFFF00FFFFFFFFFFFFFFFFFFFFFFFFFFFFFF
310
FF00FFFF00FFFFFFFFFFFFFFFFFFFFFF00FFFFFFFFFFFFFFFFFFFFFFFFFFFFFFFF00FFFF00FFFFFFFFFFFFFFFFFFFFFF00FFFFFFFFFFFFFFFFFFFFFFFFFFFFFFFF00FFFF00FFFFFFFFFFFFFFFFFFFFFF00FFFFFFFFFFFFFFFFFFFFFFFFFFFFFFFF00FFFF00FFFFFFFFFFFFFFFFFFFFFF00FFFFFFFFFFFFFFFFFFFFFFFFFFFF
310
FFFF00FFFF00FFFFFFFFFFFFFFFFFFFFFF00FFFFFFFFFFFFFFFFFFFFFFFFFFFFFFFF00FFFF00FFFFFFFFFFFFFFFFFFFFFF00FFFFFFFFFFFFFFFFFFFFFFFFFFFFFFFF00FFFF00FFFFFFFFFFFFFFFFFFFFFF00FFFFFFFFFFFFFFFFFFFFFFFFFFFFFFFF00FFFF00FFFFFFFFFFFFFFFFFFFF00FFFFFFFFFFFFFFFFFFFFFFFFFFFF
310
FFFFFF00FFFF00FFFFFFFFFFFFFFFFFFFF00FFFFFFFFFFFFFFFFFFFFFFFFFFFFFFFFFF00FFFF00FFFFFFFFFFFFFFFFFFFF00FFFFFFFFFFFFFFFFFFFFFFFFFFFFFFFFFF00FFFF00FFFFFFFFFFFFFFFFFFFF00FFFFFFFFFFFFFFFFFFFFFFFFFFFFFFFFFF00FFFF00FFFFFFFFFFFFFFFFFFFF00FFFFFFFFFFFFFFFFFFFFFFFFFF
310
FFFFFFFF00FFFF00FFFFFFFFFFFFFFFFFF0000FFFF00FFFFFFFFFFFFFFFFFFFFFFFFFFFF00FFFF00FFFFFFFFFFFFFFFF0000FFFFFF00FFFFFFFFFFFFFFFFFFFFFFFFFFFF00FFFF00000000000000000000FFFFFFFF00FFFFFFFFFFFFFFFFFFFFFFFFFFFF00FFFFFFFFFFFFFFFFFFFFFFFFFFFFFF00FFFFFFFFFFFFFFFFFFFF
310
FFFFFFFFFF00FFFFFFFFFFFFFFFFFFFFFFFFFFFF00FFFFFFFFFFFFFFFFFFFFFFFFFFFFFFFF00FFFFFFFFFFFFFFFFFFFFFFFFFFFF00FFFFFFFFFFFFFFFFFFFFFFFFFFFFFFFF00FFFFFFFFFFFFFFFFFFFFFFFFFFFFFF00FFFFFFFFFFFFFFFFFFFFFFFFFFFFFF00FFFFFFFFFFFFFFFFFFFFFFFFFFFFFF00FFFFFFFFFFFFFFFFFF
310
FFFFFFFFFFFF00FFFF00000000000000000000FFFFFFFF00FFFFFFFFFFFFFFFFFFFFFFFFFFFF00FFFF00FFFFFFFFFFFFFFFFFF0000FFFF00
102
{BLKREFS
331
29DA
102
}
  0
BLOCK_RECORD
  5
29A6
330
26DF
100
AcDbSymbolTableRecord
100
AcDbBlockTableRecord
  2
AI9-BLK10
340
0
310
2800000020000000200000000100080000000000000400000000000000000000000000000000000000000000000080000080000000808000800000008000800080800000C0C0C000C0DCC000F0CAA6000020400000206000002080000020A0000020C0000020E00000400000004020000040400000406000004080000040A0
310
000040C0000040E00000600000006020000060400000606000006080000060A0000060C0000060E00000800000008020000080400000806000008080000080A0000080C0000080E00000A0000000A0200000A0400000A0600000A0800000A0A00000A0C00000A0E00000C0000000C0200000C0400000C0600000C0800000C0
310
A00000C0C00000C0E00000E0000000E0200000E0400000E0600000E0800000E0A00000E0C00000E0E00040000000400020004000400040006000400080004000A0004000C0004000E00040200000402020004020400040206000402080004020A0004020C0004020E000404000004040200040404000404060004040800040
310
40A0004040C0004040E00040600000406020004060400040606000406080004060A0004060C0004060E00040800000408020004080400040806000408080004080A0004080C0004080E00040A0000040A0200040A0400040A0600040A0800040A0A00040A0C00040A0E00040C0000040C0200040C0400040C0600040C08000
310
40C0A00040C0C00040C0E00040E0000040E0200040E0400040E0600040E0800040E0A00040E0C00040E0E00080000000800020008000400080006000800080008000A0008000C0008000E00080200000802020008020400080206000802080008020A0008020C0008020E00080400000804020008040400080406000804080
310
008040A0008040C0008040E00080600000806020008060400080606000806080008060A0008060C0008060E00080800000808020008080400080806000808080008080A0008080C0008080E00080A0000080A0200080A0400080A0600080A0800080A0A00080A0C00080A0E00080C0000080C0200080C0400080C0600080C0
310
800080C0A00080C0C00080C0E00080E0000080E0200080E0400080E0600080E0800080E0A00080E0C00080E0E000C0000000C0002000C0004000C0006000C0008000C000A000C000C000C000E000C0200000C0202000C0204000C0206000C0208000C020A000C020C000C020E000C0400000C0402000C0404000C0406000C0
310
408000C040A000C040C000C040E000C0600000C0602000C0604000C0606000C0608000C060A000C060C000C060E000C0800000C0802000C0804000C0806000C0808000C080A000C080C000C080E000C0A00000C0A02000C0A04000C0A06000C0A08000C0A0A000C0A0C000C0A0E000C0C00000C0C02000C0C04000C0C06000
310
C0C08000C0C0A000F0FBFF00A4A0A000808080000000FF0000FF000000FFFF00FF000000FF00FF00FFFF0000FFFFFF00FFFFFFFFFFFFFFFFFFFFFFFFFFFFFFFF00FFFFFFFFFFFFFFFFFFFFFFFF00FFFFFFFFFFFFFFFFFFFFFFFFFFFFFFFFFFFF00FFFFFFFFFFFFFFFFFFFFFF00FFFFFFFFFFFFFFFFFFFFFFFFFFFFFFFFFFFF
310
FF00FFFFFFFFFFFFFFFFFFFFFF00FFFFFFFFFFFFFFFFFFFFFFFFFFFFFFFFFFFFFF00FFFFFFFFFFFFFFFFFFFFFF00FFFFFFFFFFFFFFFFFFFFFFFFFFFFFFFFFFFFFF00FFFFFFFFFFFFFFFFFFFFFF00FFFFFFFFFFFFFFFFFFFFFFFFFFFFFFFFFFFFFF00FFFFFFFFFFFFFFFFFFFFFF00FFFFFFFFFFFFFFFFFFFFFFFFFFFFFFFFFF
310
FFFF00FFFFFFFFFFFFFFFFFFFFFF00FFFFFFFFFFFFFFFFFFFFFFFFFFFFFFFFFFFFFF00FFFFFFFFFFFFFFFFFFFF00FFFFFFFFFFFFFFFFFFFFFFFFFFFFFFFFFFFFFFFF00FFFFFFFFFFFFFFFFFFFF00FFFFFFFFFFFFFFFFFFFFFFFFFFFFFFFFFFFFFFFF00FFFFFFFFFFFFFFFFFFFF00FFFFFFFFFFFFFFFFFFFFFFFFFFFFFFFFFF
310
FFFFFF00FFFFFFFFFFFFFFFFFFFF00FFFFFFFFFFFFFFFFFFFFFFFFFFFFFFFFFFFFFFFF00FFFFFFFFFFFFFFFFFFFF00FFFFFFFFFFFFFFFFFFFFFFFFFFFFFFFFFFFFFFFF00FFFFFFFFFFFFFFFFFFFF00FFFFFFFFFFFFFFFFFFFFFFFFFFFFFFFFFFFFFFFF00FFFFFFFFFFFFFFFFFF00FFFFFFFFFFFFFFFFFFFFFFFFFFFFFFFFFF
310
FFFFFFFF00FFFFFFFFFFFFFFFFFF00FFFFFFFFFFFFFFFFFFFFFFFFFFFFFFFFFFFFFFFFFF00FFFFFFFFFFFFFFFFFF00FFFFFFFFFFFFFFFFFFFFFFFFFFFFFFFFFFFFFFFFFF0000000000000000000000FFFFFFFFFFFFFFFFFFFFFFFFFFFFFFFFFFFFFFFFFFFFFFFFFFFFFFFFFFFFFFFFFFFFFFFFFFFFFFFFFFFFFFFFFFFFFFFF
310
FFFFFFFFFFFFFFFFFFFFFFFFFFFFFFFFFFFFFFFFFFFFFFFFFFFFFFFFFFFFFFFFFFFFFFFFFFFFFFFFFFFFFFFFFFFFFFFFFFFFFFFFFFFFFFFFFFFFFFFFFFFFFFFFFFFFFFFFFFFFFFFFFFFFFFFFFFFFFFFFFFFFFFFFFFFFFFFFFFFFFFFFFFFFFFFFFFFFFFFFFFFFFFFFFFFFFFFFFFFFFFFFFFFFFFFFFFFFFFFFFFFFFFFFFFFFFF
310
FFFFFFFFFFFFFFFFFFFFFFFFFFFFFFFFFFFFFFFFFFFFFFFFFFFFFFFFFFFFFFFFFFFFFFFFFFFFFFFFFFFFFFFFFFFFFFFFFFFFFFFFFFFFFFFFFFFFFFFFFFFFFFFFFFFFFFFFFFFFFFFFFFFFFFFFFFFFFFFFFFFFFFFFFFFFFFFFFFFFFFFFFFFFFFFFFFFFFFFFFFFFFFFFFFFFFFFFFFFFFFFFFFFFFFFFFFFFFFFFFFFFFFFFFFFFFF
310
FFFFFFFFFFFFFFFFFFFFFFFFFFFFFFFFFFFFFFFFFFFFFFFFFFFFFFFFFFFFFFFFFFFFFFFFFFFFFFFFFFFFFFFFFFFFFFFFFFFFFFFFFFFFFFFFFFFFFFFFFFFFFFFFFFFFFFFFFFFFFFFFFFFFFFFFFFFFFFFFFFFFFFFFFFFFFFFFFFFFFFFFFFFFFFFFFFFFFFFFFFFFFFFFFFFFFFFFFFFFFFFFFFFFFFFFFFFFFFFFFFFFFFFFFFFFFF
310
FFFFFFFFFFFFFFFFFFFFFFFFFFFFFFFFFFFFFFFFFFFFFFFFFFFFFFFFFFFFFFFFFFFFFFFFFFFFFFFFFFFFFFFFFFFFFFFFFFFFFFFFFFFFFFFF
102
{BLKREFS
331
29DB
102
}
  0
BLOCK_RECORD
  5
29AA
330
26DF
100
AcDbSymbolTableRecord
100
AcDbBlockTableRecord
  2
AI9-BLK9
340
0
310
2800000020000000200000000100080000000000000400000000000000000000000000000000000000000000000080000080000000808000800000008000800080800000C0C0C000C0DCC000F0CAA6000020400000206000002080000020A0000020C0000020E00000400000004020000040400000406000004080000040A0
310
000040C0000040E00000600000006020000060400000606000006080000060A0000060C0000060E00000800000008020000080400000806000008080000080A0000080C0000080E00000A0000000A0200000A0400000A0600000A0800000A0A00000A0C00000A0E00000C0000000C0200000C0400000C0600000C0800000C0
310
A00000C0C00000C0E00000E0000000E0200000E0400000E0600000E0800000E0A00000E0C00000E0E00040000000400020004000400040006000400080004000A0004000C0004000E00040200000402020004020400040206000402080004020A0004020C0004020E000404000004040200040404000404060004040800040
310
40A0004040C0004040E00040600000406020004060400040606000406080004060A0004060C0004060E00040800000408020004080400040806000408080004080A0004080C0004080E00040A0000040A0200040A0400040A0600040A0800040A0A00040A0C00040A0E00040C0000040C0200040C0400040C0600040C08000
310
40C0A00040C0C00040C0E00040E0000040E0200040E0400040E0600040E0800040E0A00040E0C00040E0E00080000000800020008000400080006000800080008000A0008000C0008000E00080200000802020008020400080206000802080008020A0008020C0008020E00080400000804020008040400080406000804080
310
008040A0008040C0008040E00080600000806020008060400080606000806080008060A0008060C0008060E00080800000808020008080400080806000808080008080A0008080C0008080E00080A0000080A0200080A0400080A0600080A0800080A0A00080A0C00080A0E00080C0000080C0200080C0400080C0600080C0
310
800080C0A00080C0C00080C0E00080E0000080E0200080E0400080E0600080E0800080E0A00080E0C00080E0E000C0000000C0002000C0004000C0006000C0008000C000A000C000C000C000E000C0200000C0202000C0204000C0206000C0208000C020A000C020C000C020E000C0400000C0402000C0404000C0406000C0
310
408000C040A000C040C000C040E000C0600000C0602000C0604000C0606000C0608000C060A000C060C000C060E000C0800000C0802000C0804000C0806000C0808000C080A000C080C000C080E000C0A00000C0A02000C0A04000C0A06000C0A08000C0A0A000C0A0C000C0A0E000C0C00000C0C02000C0C04000C0C06000
310
C0C08000C0C0A000F0FBFF00A4A0A000808080000000FF0000FF000000FFFF00FF000000FF00FF00FFFF0000FFFFFF00FFFFFFFFFFFFFFFFFFFFFFFFFFFFFFFFFFFFFFFFFFFFFFFFFFFFFFFFFFFFFFFFFFFFFFFFFFFFFFFFFFFFFFFFFFFFFF0000FFFFFFFFFFFFFFFFFFFFFFFFFFFFFFFFFFFFFFFFFFFFFFFFFFFFFFFF0000
310
FF0000FFFFFFFFFFFFFFFFFFFFFFFFFFFFFFFFFFFFFFFFFFFFFFFFFFFFFF00FFFFFF0000FFFFFFFFFFFFFFFFFFFFFFFFFFFFFFFFFFFFFFFFFFFFFFFFFFFF00FFFFFFFF0000FFFFFFFFFFFFFFFFFFFFFFFFFFFFFFFFFFFFFFFFFFFFFFFF00FF00000000FF00FFFFFFFFFFFFFFFFFFFFFFFFFFFFFFFFFFFFFFFFFFFFFFFF0000
310
00FFFF00FF00FFFFFFFFFFFFFFFFFFFFFFFFFFFFFFFFFFFFFFFFFFFFFFFF0000FFFFFFFF0000FFFFFFFFFFFFFFFFFFFFFFFFFFFFFFFFFFFFFFFFFFFFFFFF0000FFFFFFFF0000FFFFFFFFFFFFFFFFFFFFFFFFFFFFFFFFFFFFFFFFFFFFFF00FF00FFFFFFFF00FF00FFFFFFFFFFFFFFFFFFFFFFFFFFFFFFFFFFFFFFFFFFFF0000
310
FFFFFFFFFF00FF00FFFFFFFFFFFFFFFFFFFFFFFFFFFFFFFFFFFFFFFFFFFF0000FFFFFFFFFFFF0000FFFFFFFFFFFFFFFFFFFFFFFFFFFFFFFFFFFFFFFFFFFF0000FFFFFFFFFFFF0000FFFFFFFFFFFFFFFFFFFFFFFFFFFFFFFFFFFFFFFFFFFF0000FFFFFFFFFFFF0000FFFFFFFFFFFFFFFFFFFFFFFFFFFFFFFFFFFFFFFFFFFF00
310
00FFFFFFFFFFFF0000FFFFFFFFFFFFFFFFFFFFFFFFFFFFFFFFFFFFFFFFFFFF0000FFFFFFFFFFFF0000FFFFFFFFFFFFFFFFFFFFFFFFFFFFFFFFFFFFFFFFFFFF0000FFFFFFFFFFFF0000FFFFFFFFFFFFFFFFFFFFFFFFFFFFFFFFFFFFFFFFFFFF0000FFFFFFFFFFFF0000FFFFFFFFFFFFFFFFFFFFFFFFFFFFFFFFFFFFFFFFFFFF
310
0000FFFFFFFFFFFF0000FFFFFFFFFFFFFFFFFFFFFFFFFFFFFFFFFFFFFFFFFFFF0000FFFFFFFFFFFF0000FFFFFFFFFFFFFFFFFFFFFFFFFFFFFFFFFFFFFFFFFFFF0000FFFFFFFFFFFF0000FFFFFFFFFFFFFFFFFFFFFFFFFFFFFFFFFFFFFFFFFFFF00FF00FFFFFFFF00FF00FFFFFFFFFFFFFFFFFFFFFFFFFFFFFFFFFFFFFFFFFF
310
FF00FF00FFFFFFFF00FF00FFFFFFFFFFFFFFFFFFFFFFFFFFFFFFFFFFFFFFFFFFFF00FF00FFFFFFFF00FF00FFFFFFFFFFFFFFFFFFFFFFFFFFFFFFFFFFFFFFFFFFFFFF0000FFFFFFFF0000FFFFFFFFFFFFFFFFFFFFFFFFFFFFFFFFFFFFFFFFFFFFFFFF00FF00FFFF00FF00FFFFFFFFFFFFFFFFFFFFFFFFFFFFFFFFFFFFFFFFFF
310
FFFFFF00FF00000000FF00FFFFFFFFFFFFFFFFFFFFFFFFFFFFFFFFFFFFFFFFFFFFFFFFFF00FFFFFFFF0000FFFFFFFFFFFFFFFFFFFFFFFFFFFFFFFFFFFFFFFFFFFFFFFFFF00FFFFFFFF00FFFFFFFFFFFFFFFFFFFFFFFFFFFFFFFFFFFFFFFFFFFFFFFFFFFFFF00000000FFFFFFFFFFFFFFFFFFFFFFFFFFFFFFFFFFFFFFFFFFFF
310
FFFFFFFFFFFFFF0000FFFFFFFFFFFFFFFFFFFFFFFFFFFFFFFFFFFFFFFFFFFFFFFFFFFFFFFFFFFFFFFFFFFFFFFFFFFFFFFFFFFFFFFFFFFFFF
102
{BLKREFS
331
29DC
102
}
  0
BLOCK_RECORD
  5
29AF
330
26DF
100
AcDbSymbolTableRecord
100
AcDbBlockTableRecord
  2
AI9-BLK8
340
0
310
2800000020000000200000000100080000000000000400000000000000000000000000000000000000000000000080000080000000808000800000008000800080800000C0C0C000C0DCC000F0CAA6000020400000206000002080000020A0000020C0000020E00000400000004020000040400000406000004080000040A0
310
000040C0000040E00000600000006020000060400000606000006080000060A0000060C0000060E00000800000008020000080400000806000008080000080A0000080C0000080E00000A0000000A0200000A0400000A0600000A0800000A0A00000A0C00000A0E00000C0000000C0200000C0400000C0600000C0800000C0
310
A00000C0C00000C0E00000E0000000E0200000E0400000E0600000E0800000E0A00000E0C00000E0E00040000000400020004000400040006000400080004000A0004000C0004000E00040200000402020004020400040206000402080004020A0004020C0004020E000404000004040200040404000404060004040800040
310
40A0004040C0004040E00040600000406020004060400040606000406080004060A0004060C0004060E00040800000408020004080400040806000408080004080A0004080C0004080E00040A0000040A0200040A0400040A0600040A0800040A0A00040A0C00040A0E00040C0000040C0200040C0400040C0600040C08000
310
40C0A00040C0C00040C0E00040E0000040E0200040E0400040E0600040E0800040E0A00040E0C00040E0E00080000000800020008000400080006000800080008000A0008000C0008000E00080200000802020008020400080206000802080008020A0008020C0008020E00080400000804020008040400080406000804080
310
008040A0008040C0008040E00080600000806020008060400080606000806080008060A0008060C0008060E00080800000808020008080400080806000808080008080A0008080C0008080E00080A0000080A0200080A0400080A0600080A0800080A0A00080A0C00080A0E00080C0000080C0200080C0400080C0600080C0
310
800080C0A00080C0C00080C0E00080E0000080E0200080E0400080E0600080E0800080E0A00080E0C00080E0E000C0000000C0002000C0004000C0006000C0008000C000A000C000C000C000E000C0200000C0202000C0204000C0206000C0208000C020A000C020C000C020E000C0400000C0402000C0404000C0406000C0
310
408000C040A000C040C000C040E000C0600000C0602000C0604000C0606000C0608000C060A000C060C000C060E000C0800000C0802000C0804000C0806000C0808000C080A000C080C000C080E000C0A00000C0A02000C0A04000C0A06000C0A08000C0A0A000C0A0C000C0A0E000C0C00000C0C02000C0C04000C0C06000
310
C0C08000C0C0A000F0FBFF00A4A0A000808080000000FF0000FF000000FFFF00FF000000FF00FF00FFFF0000FFFFFF00FFFFFFFFFFFFFFFFFFFFFFFFFFFFFFFFFFFFFFFFFFFFFFFFFFFFFFFFFFFFFFFFFFFFFFFFFFFFFFFFFFFFFF0000FFFFFFFFFFFF0000FFFFFFFFFFFFFFFFFFFFFFFFFFFFFFFFFFFFFFFFFFFF0000FFFF
310
FFFFFFFF0000FFFFFFFFFFFFFFFFFFFFFFFFFFFFFFFFFFFFFFFFFFFF0000FFFFFFFFFF00FF00FFFFFFFFFFFFFFFFFFFFFFFFFFFFFFFFFFFFFFFFFFFF0000FFFFFFFFFF00FF00FFFFFFFFFFFFFFFFFFFFFFFFFFFFFFFFFFFFFFFFFFFF0000FFFFFFFFFF00FF00FFFFFFFFFFFFFFFFFFFFFFFFFFFFFFFFFFFFFFFFFFFF0000FF
310
FFFFFF00FFFF00FFFFFFFFFFFFFFFFFFFFFFFFFFFFFFFFFFFFFFFFFFFF0000FFFFFFFF00FF0000FFFFFFFFFFFFFFFFFFFFFFFFFFFFFFFFFFFFFFFFFFFF0000FFFFFFFF00FF0000FFFFFFFFFFFFFFFFFFFFFFFFFFFFFFFFFFFFFFFFFFFF0000FFFFFFFF00000000FFFFFFFFFFFFFFFFFFFFFFFFFFFFFFFFFFFFFFFFFFFF0000
310
FFFFFF00FF000000FFFFFFFFFFFFFFFFFFFFFFFFFFFFFFFFFFFFFFFFFFFF0000FFFFFF00FF000000FFFFFFFFFFFFFFFFFFFFFFFFFFFFFFFFFFFFFFFFFFFF0000FFFFFF00FF000000FFFFFFFFFFFFFFFFFFFFFFFFFFFFFFFFFFFFFFFFFFFF0000FFFF00FF00FF0000FFFFFFFFFFFFFFFFFFFFFFFFFFFFFFFFFFFFFFFFFFFF00
310
00FFFF00FF00FF0000FFFFFFFFFFFFFFFFFFFFFFFFFFFFFFFFFFFFFFFFFFFF0000FFFF00FF00FF0000FFFFFFFFFFFFFFFFFFFFFFFFFFFFFFFFFFFFFFFFFFFF0000FF00FFFF00FF0000FFFFFFFFFFFFFFFFFFFFFFFFFFFFFFFFFFFFFFFFFFFF0000FF00FF00FFFF0000FFFFFFFFFFFFFFFFFFFFFFFFFFFFFFFFFFFFFFFFFFFF
310
0000FF00FF00FFFF0000FFFFFFFFFFFFFFFFFFFFFFFFFFFFFFFFFFFFFFFFFFFF0000FF00FF00FFFF0000FFFFFFFFFFFFFFFFFFFFFFFFFFFFFFFFFFFFFFFFFFFF000000FFFF00FFFF0000FFFFFFFFFFFFFFFFFFFFFFFFFFFFFFFFFFFFFFFFFFFF000000FF00FFFFFF0000FFFFFFFFFFFFFFFFFFFFFFFFFFFFFFFFFFFFFFFFFF
310
FF000000FF00FFFFFF0000FFFFFFFFFFFFFFFFFFFFFFFFFFFFFFFFFFFFFFFFFFFF0000FFFF00FFFFFF0000FFFFFFFFFFFFFFFFFFFFFFFFFFFFFFFFFFFFFFFFFFFF0000FFFF00FFFFFF0000FFFFFFFFFFFFFFFFFFFFFFFFFFFFFFFFFFFFFFFFFFFF00FFFF00FFFFFFFF0000FFFFFFFFFFFFFFFFFFFFFFFFFFFFFFFFFFFFFFFF
310
FFFF00FFFF00FFFFFFFF0000FFFFFFFFFFFFFFFFFFFFFFFFFFFFFFFFFFFFFFFFFFFF00FFFF00FFFFFFFF0000FFFFFFFFFFFFFFFFFFFFFFFFFFFFFFFFFFFFFFFFFFFF00FFFF00FFFFFFFF0000FFFFFFFFFFFFFFFFFFFFFFFFFFFFFFFFFFFFFFFFFFFF00FF00FFFFFFFFFF0000FFFFFFFFFFFFFFFFFFFFFFFFFFFFFFFFFFFFFF
310
FFFFFF000000FFFFFFFFFF0000FFFFFFFFFFFFFFFFFFFFFFFFFFFFFFFFFFFFFFFFFFFFFFFFFFFFFFFFFFFFFFFFFFFFFFFFFFFFFFFFFFFFFF
102
{BLKREFS
331
29DD
102
}
  0
BLOCK_RECORD
  5
29B4
330
26DF
100
AcDbSymbolTableRecord
100
AcDbBlockTableRecord
  2
AI9-BLK7
340
0
310
2800000020000000200000000100080000000000000400000000000000000000000000000000000000000000000080000080000000808000800000008000800080800000C0C0C000C0DCC000F0CAA6000020400000206000002080000020A0000020C0000020E00000400000004020000040400000406000004080000040A0
310
000040C0000040E00000600000006020000060400000606000006080000060A0000060C0000060E00000800000008020000080400000806000008080000080A0000080C0000080E00000A0000000A0200000A0400000A0600000A0800000A0A00000A0C00000A0E00000C0000000C0200000C0400000C0600000C0800000C0
310
A00000C0C00000C0E00000E0000000E0200000E0400000E0600000E0800000E0A00000E0C00000E0E00040000000400020004000400040006000400080004000A0004000C0004000E00040200000402020004020400040206000402080004020A0004020C0004020E000404000004040200040404000404060004040800040
310
40A0004040C0004040E00040600000406020004060400040606000406080004060A0004060C0004060E00040800000408020004080400040806000408080004080A0004080C0004080E00040A0000040A0200040A0400040A0600040A0800040A0A00040A0C00040A0E00040C0000040C0200040C0400040C0600040C08000
310
40C0A00040C0C00040C0E00040E0000040E0200040E0400040E0600040E0800040E0A00040E0C00040E0E00080000000800020008000400080006000800080008000A0008000C0008000E00080200000802020008020400080206000802080008020A0008020C0008020E00080400000804020008040400080406000804080
310
008040A0008040C0008040E00080600000806020008060400080606000806080008060A0008060C0008060E00080800000808020008080400080806000808080008080A0008080C0008080E00080A0000080A0200080A0400080A0600080A0800080A0A00080A0C00080A0E00080C0000080C0200080C0400080C0600080C0
310
800080C0A00080C0C00080C0E00080E0000080E0200080E0400080E0600080E0800080E0A00080E0C00080E0E000C0000000C0002000C0004000C0006000C0008000C000A000C000C000C000E000C0200000C0202000C0204000C0206000C0208000C020A000C020C000C020E000C0400000C0402000C0404000C0406000C0
310
408000C040A000C040C000C040E000C0600000C0602000C0604000C0606000C0608000C060A000C060C000C060E000C0800000C0802000C0804000C0806000C0808000C080A000C080C000C080E000C0A00000C0A02000C0A04000C0A06000C0A08000C0A0A000C0A0C000C0A0E000C0C00000C0C02000C0C04000C0C06000
310
C0C08000C0C0A000F0FBFF00A4A0A000808080000000FF0000FF000000FFFF00FF000000FF00FF00FFFF0000FFFFFF00FFFFFFFFFFFFFFFFFFFFFFFFFFFFFFFFFFFFFFFFFFFFFFFFFFFFFFFFFFFFFFFFFFFFFFFFFFFFFFFFFFFFFFFFFFFFFF0000FFFFFFFFFFFFFFFFFFFFFFFFFFFFFFFFFFFFFFFFFFFFFFFFFFFFFFFFFFFF
310
0000FFFFFFFFFFFFFFFFFFFFFFFFFFFFFFFFFFFFFFFFFFFFFFFFFFFFFFFFFFFF0000FFFFFFFFFFFFFFFFFFFFFFFFFFFFFFFFFFFFFFFFFFFFFFFFFFFFFFFFFFFF0000FFFFFFFFFFFFFFFFFFFFFFFFFFFFFFFFFFFFFFFFFFFFFFFFFFFFFFFFFFFF0000FFFFFFFFFFFFFFFFFFFFFFFFFFFFFFFFFFFFFFFFFFFFFFFFFFFFFFFFFF
310
FF0000FFFFFFFFFFFFFFFFFFFFFFFFFFFFFFFFFFFFFFFFFFFFFFFFFFFFFFFFFFFF0000FFFFFFFFFFFFFFFFFFFFFFFFFFFFFFFFFFFFFFFFFFFFFFFFFFFFFFFFFFFF0000FFFFFFFFFFFFFFFFFFFFFFFFFFFFFFFFFFFFFFFFFFFFFFFFFFFFFFFFFFFF0000FFFFFFFFFFFFFFFFFFFFFFFFFFFFFFFFFFFFFFFFFFFFFFFFFFFFFFFF
310
FFFF0000FFFFFFFFFFFFFFFFFFFFFFFFFFFFFFFFFFFFFFFFFFFFFFFFFFFFFFFFFFFF0000FFFFFFFFFFFFFFFFFFFFFFFFFFFFFFFFFFFFFFFFFFFFFFFFFFFFFFFFFFFF0000FFFFFFFFFFFFFFFFFFFFFFFFFFFFFFFFFFFFFFFFFFFFFFFFFFFFFFFFFFFF0000FFFFFFFFFFFFFFFFFFFFFFFFFFFFFFFFFFFFFFFFFFFFFFFFFFFFFF
310
FFFFFF0000FFFFFFFFFFFFFFFFFFFFFFFFFFFFFFFFFFFFFFFFFFFFFFFFFFFFFFFFFFFF0000FFFFFFFFFFFFFFFFFFFFFFFFFFFFFFFFFFFFFFFFFFFFFFFFFFFFFFFFFFFF0000FFFFFFFFFFFFFFFFFFFFFFFFFFFFFFFFFFFFFFFFFFFFFFFFFFFFFFFFFFFF0000FFFFFFFFFFFFFFFFFFFFFFFFFFFFFFFFFFFFFFFFFFFFFFFFFFFF
310
FFFFFFFF0000FFFFFFFFFFFFFFFFFFFFFFFFFFFFFFFFFFFFFFFFFFFFFFFFFFFFFFFFFFFF0000FFFFFFFFFFFFFFFFFFFFFFFFFFFFFFFFFFFFFFFFFFFFFFFFFFFFFFFFFFFF0000FFFFFFFFFFFFFFFFFFFFFFFFFFFFFFFFFFFFFFFFFFFFFFFFFFFFFFFFFFFF0000FFFFFFFFFFFFFFFFFFFFFFFFFFFFFFFFFFFFFFFFFFFFFFFFFF
310
FFFFFFFFFF0000FFFFFFFFFFFFFFFFFFFFFFFFFFFFFFFFFFFFFFFFFFFFFFFFFFFFFFFFFFFF0000FFFFFFFFFFFFFFFFFFFFFFFFFFFFFFFFFFFFFFFFFFFFFFFFFFFFFFFFFFFF0000FFFFFFFFFFFFFFFFFFFFFFFFFFFFFFFFFFFFFFFFFFFFFFFFFFFFFFFFFFFF0000FFFFFFFFFFFFFFFFFFFFFFFFFFFFFFFFFFFFFFFFFFFFFFFF
310
FFFFFFFFFFFF0000FFFFFFFFFFFFFFFFFFFFFFFFFFFFFFFFFFFFFFFFFFFFFFFFFFFFFFFFFFFF0000FFFFFFFFFFFFFFFFFFFFFFFFFFFFFFFFFFFFFFFFFFFFFFFFFFFFFFFFFFFF0000FFFFFFFFFFFFFFFFFFFFFFFFFFFFFFFFFFFFFFFFFFFFFFFFFFFFFFFFFFFF0000FFFFFFFFFFFFFFFFFFFFFFFFFFFFFFFFFFFFFFFFFFFFFF
310
FFFFFFFFFFFFFF0000FFFFFFFFFFFFFFFFFFFFFFFFFFFFFFFFFFFFFFFFFFFFFFFFFFFFFFFFFFFFFFFFFFFFFFFFFFFFFFFFFFFFFFFFFFFFFF
102
{BLKREFS
331
29DE
102
}
  0
BLOCK_RECORD
  5
29B9
330
26DF
100
AcDbSymbolTableRecord
100
AcDbBlockTableRecord
  2
AI9-BLK6
340
0
310
2800000020000000200000000100080000000000000400000000000000000000000000000000000000000000000080000080000000808000800000008000800080800000C0C0C000C0DCC000F0CAA6000020400000206000002080000020A0000020C0000020E00000400000004020000040400000406000004080000040A0
310
000040C0000040E00000600000006020000060400000606000006080000060A0000060C0000060E00000800000008020000080400000806000008080000080A0000080C0000080E00000A0000000A0200000A0400000A0600000A0800000A0A00000A0C00000A0E00000C0000000C0200000C0400000C0600000C0800000C0
310
A00000C0C00000C0E00000E0000000E0200000E0400000E0600000E0800000E0A00000E0C00000E0E00040000000400020004000400040006000400080004000A0004000C0004000E00040200000402020004020400040206000402080004020A0004020C0004020E000404000004040200040404000404060004040800040
310
40A0004040C0004040E00040600000406020004060400040606000406080004060A0004060C0004060E00040800000408020004080400040806000408080004080A0004080C0004080E00040A0000040A0200040A0400040A0600040A0800040A0A00040A0C00040A0E00040C0000040C0200040C0400040C0600040C08000
310
40C0A00040C0C00040C0E00040E0000040E0200040E0400040E0600040E0800040E0A00040E0C00040E0E00080000000800020008000400080006000800080008000A0008000C0008000E00080200000802020008020400080206000802080008020A0008020C0008020E00080400000804020008040400080406000804080
310
008040A0008040C0008040E00080600000806020008060400080606000806080008060A0008060C0008060E00080800000808020008080400080806000808080008080A0008080C0008080E00080A0000080A0200080A0400080A0600080A0800080A0A00080A0C00080A0E00080C0000080C0200080C0400080C0600080C0
310
800080C0A00080C0C00080C0E00080E0000080E0200080E0400080E0600080E0800080E0A00080E0C00080E0E000C0000000C0002000C0004000C0006000C0008000C000A000C000C000C000E000C0200000C0202000C0204000C0206000C0208000C020A000C020C000C020E000C0400000C0402000C0404000C0406000C0
310
408000C040A000C040C000C040E000C0600000C0602000C0604000C0606000C0608000C060A000C060C000C060E000C0800000C0802000C0804000C0806000C0808000C080A000C080C000C080E000C0A00000C0A02000C0A04000C0A06000C0A08000C0A0A000C0A0C000C0A0E000C0C00000C0C02000C0C04000C0C06000
310
C0C08000C0C0A000F0FBFF00A4A0A000808080000000FF0000FF000000FFFF00FF000000FF00FF00FFFF0000FFFFFF00FFFFFFFFFFFFFFFFFFFFFFFF00FFFFFFFFFFFFFF00FFFFFFFFFFFFFFFFFFFFFFFFFFFFFFFFFFFFFFFFFFFFFF00FFFFFFFFFFFFFF00FFFFFFFFFFFFFFFFFFFFFFFFFFFFFFFFFFFFFFFFFFFFFF00FFFF
310
FFFFFFFFFF00FFFFFFFFFFFFFFFFFFFFFFFFFFFFFFFFFFFFFFFFFFFF00FFFFFFFFFFFFFFFF00FFFFFFFFFFFFFFFFFFFFFFFFFFFFFFFFFFFFFFFFFFFF00FFFFFFFFFFFFFF00FFFFFFFFFFFFFFFFFFFFFFFFFFFFFFFFFFFFFFFFFFFFFF00FFFFFFFFFFFFFF00FFFFFFFFFFFFFFFFFFFFFFFFFFFFFFFFFFFFFFFFFFFF00FFFFFF
310
FFFFFFFFFF00FFFFFFFFFFFFFFFFFFFFFFFFFFFFFFFFFFFFFFFFFFFF00FFFFFFFFFFFFFF00FFFFFFFFFFFFFFFFFFFFFFFFFFFFFFFFFFFFFFFFFFFF00FFFFFFFFFFFFFFFF00FFFFFFFFFFFFFFFFFFFFFFFFFFFFFFFFFFFFFFFFFF00FFFFFFFFFFFFFFFFFF00FFFFFFFFFFFFFFFFFFFFFFFFFFFFFFFFFFFFFFFF00FFFFFFFFFF
310
FFFFFFFFFF00FFFFFFFFFFFFFFFFFFFFFFFFFFFFFFFFFFFFFF00FFFFFFFFFFFFFFFFFFFF00FFFFFFFFFFFFFFFFFFFFFFFFFFFFFFFFFFFF0000FFFFFFFFFFFFFFFFFFFFFF00FFFFFFFFFFFFFFFFFFFFFFFFFFFF00000000FFFFFFFFFFFFFFFFFFFFFFFFFF00FFFFFFFFFFFFFFFFFFFFFFFFFFFFFFFFFFFFFFFFFFFFFFFFFFFF
310
FFFFFFFF00FFFFFFFFFFFFFFFFFFFFFFFFFFFFFFFFFFFFFFFFFFFFFFFFFFFFFFFFFFFFFF00FFFFFFFFFFFFFFFFFFFFFFFFFFFFFFFFFFFFFFFFFFFFFFFFFFFFFFFFFFFFFF00FFFFFFFFFFFFFFFFFFFFFFFFFFFFFFFFFFFFFFFFFFFFFFFFFFFFFFFFFFFF00FFFFFFFFFFFFFFFFFFFFFFFFFFFFFFFFFFFFFFFFFFFFFFFFFFFFFF
310
FFFFFFFF00FFFFFFFFFFFFFFFFFFFFFFFFFFFFFFFFFFFFFFFFFFFFFFFFFFFFFFFFFFFF00FFFFFFFFFFFFFFFFFFFFFFFFFFFFFFFFFFFFFFFFFFFFFFFFFFFFFFFFFFFF00FFFFFFFFFFFFFFFFFFFFFFFFFFFFFFFFFFFFFFFFFFFFFFFFFFFFFFFFFFFF00FFFFFFFFFFFFFFFFFFFFFFFFFFFFFFFFFFFFFFFFFFFFFFFFFFFFFFFFFF
310
FF00FFFFFFFFFFFFFFFFFFFFFFFFFFFFFFFFFFFFFFFFFFFFFFFFFFFFFFFFFFFFFF00FFFFFFFFFFFFFFFFFFFFFFFFFFFFFFFFFFFFFFFFFFFFFFFFFFFFFFFFFFFF00FFFFFFFFFFFFFFFFFFFFFFFFFFFFFFFFFFFFFFFFFFFFFFFFFFFFFFFFFF0000FFFFFFFFFFFFFFFFFFFFFFFFFFFFFFFFFFFFFFFFFFFFFFFFFFFFFFFF0000FF
310
FFFFFFFFFFFFFFFFFFFFFFFFFFFFFFFFFFFFFFFFFFFFFFFFFF00000000FFFFFFFFFFFFFFFFFFFFFFFFFFFFFFFFFFFFFFFFFFFFFFFFFFFF0000FFFFFFFFFFFFFFFFFFFFFFFFFFFFFFFFFFFFFFFFFFFFFFFFFFFFFFFFFFFFFFFFFFFFFFFFFFFFFFFFFFFFFFFFFFFFFFFFFFFFFFFFFFFFFFFFFFFFFFFFFFFFFFFFFFFFFFFFFFFF
310
FFFFFFFFFFFFFFFFFFFFFFFFFFFFFFFFFFFFFFFFFFFFFFFFFFFFFFFFFFFFFFFFFFFFFFFFFFFFFFFFFFFFFFFFFFFFFFFFFFFFFFFFFFFFFFFF
102
{BLKREFS
331
29DF
102
}
  0
BLOCK_RECORD
  5
29BD
330
26DF
100
AcDbSymbolTableRecord
100
AcDbBlockTableRecord
  2
AI9-BLK5
340
0
310
2800000020000000200000000100080000000000000400000000000000000000000000000000000000000000000080000080000000808000800000008000800080800000C0C0C000C0DCC000F0CAA6000020400000206000002080000020A0000020C0000020E00000400000004020000040400000406000004080000040A0
310
000040C0000040E00000600000006020000060400000606000006080000060A0000060C0000060E00000800000008020000080400000806000008080000080A0000080C0000080E00000A0000000A0200000A0400000A0600000A0800000A0A00000A0C00000A0E00000C0000000C0200000C0400000C0600000C0800000C0
310
A00000C0C00000C0E00000E0000000E0200000E0400000E0600000E0800000E0A00000E0C00000E0E00040000000400020004000400040006000400080004000A0004000C0004000E00040200000402020004020400040206000402080004020A0004020C0004020E000404000004040200040404000404060004040800040
310
40A0004040C0004040E00040600000406020004060400040606000406080004060A0004060C0004060E00040800000408020004080400040806000408080004080A0004080C0004080E00040A0000040A0200040A0400040A0600040A0800040A0A00040A0C00040A0E00040C0000040C0200040C0400040C0600040C08000
310
40C0A00040C0C00040C0E00040E0000040E0200040E0400040E0600040E0800040E0A00040E0C00040E0E00080000000800020008000400080006000800080008000A0008000C0008000E00080200000802020008020400080206000802080008020A0008020C0008020E00080400000804020008040400080406000804080
310
008040A0008040C0008040E00080600000806020008060400080606000806080008060A0008060C0008060E00080800000808020008080400080806000808080008080A0008080C0008080E00080A0000080A0200080A0400080A0600080A0800080A0A00080A0C00080A0E00080C0000080C0200080C0400080C0600080C0
310
800080C0A00080C0C00080C0E00080E0000080E0200080E0400080E0600080E0800080E0A00080E0C00080E0E000C0000000C0002000C0004000C0006000C0008000C000A000C000C000C000E000C0200000C0202000C0204000C0206000C0208000C020A000C020C000C020E000C0400000C0402000C0404000C0406000C0
310
408000C040A000C040C000C040E000C0600000C0602000C0604000C0606000C0608000C060A000C060C000C060E000C0800000C0802000C0804000C0806000C0808000C080A000C080C000C080E000C0A00000C0A02000C0A04000C0A06000C0A08000C0A0A000C0A0C000C0A0E000C0C00000C0C02000C0C04000C0C06000
310
C0C08000C0C0A000F0FBFF00A4A0A000808080000000FF0000FF000000FFFF00FF000000FF00FF00FFFF0000FFFFFF00FFFFFFFFFFFFFFFFFFFFFFFFFFFFFFFFFFFFFFFFFFFFFFFFFFFFFFFFFFFFFFFFFFFFFFFFFFFFFFFF000000000000000000000000000000000000000000000000FFFFFFFFFFFFFFFF00FFFFFFFFFFFF
310
FFFFFFFFFFFFFFFFFFFFFFFFFFFFFFFFFFFFFFFFFFFFFFFFFF00FFFFFFFFFFFFFFFFFFFFFFFFFFFFFFFFFFFFFFFFFFFFFFFFFFFFFFFFFFFFFF00FFFFFFFFFFFFFFFFFFFFFFFFFFFFFFFFFFFFFFFFFFFFFFFFFFFFFFFFFFFFFF00FFFFFFFFFFFFFFFFFFFFFFFFFFFFFFFFFFFFFFFFFFFFFFFFFFFFFFFFFFFFFF00FFFFFFFFFF
310
FFFFFFFFFFFFFFFFFFFFFFFFFFFFFFFFFFFFFFFFFFFFFFFFFFFF00FFFFFFFFFFFFFFFFFFFFFFFFFFFFFFFFFFFFFFFFFFFFFFFFFFFFFFFFFFFFFF00FFFFFFFFFFFFFFFFFFFFFFFFFFFFFFFFFFFFFFFFFFFFFFFFFFFFFFFFFFFFFF00FFFFFFFFFFFFFFFFFFFFFFFFFFFFFFFFFFFFFFFFFFFFFFFFFFFFFFFFFFFFFF00FFFFFFFF
310
FFFFFFFFFFFFFFFFFFFFFFFFFFFFFFFFFFFFFFFFFFFFFFFFFFFFFF00FFFFFFFFFFFFFFFFFFFFFFFFFFFFFFFFFFFFFFFFFFFFFFFFFFFFFFFFFFFFFF00FFFFFFFFFFFFFFFFFFFFFFFFFFFFFFFFFFFFFFFFFFFFFFFFFFFFFFFFFFFFFF00FFFFFFFFFFFFFFFFFFFFFFFFFFFFFFFFFFFFFFFFFFFFFFFFFFFFFFFFFFFFFF00FFFFFF
310
FFFFFFFFFFFFFFFFFFFFFFFFFFFFFFFFFFFFFFFFFFFFFFFFFFFFFFFF00FFFFFFFFFFFFFFFFFFFFFFFFFFFFFFFFFFFFFFFFFFFFFFFFFFFFFFFFFFFFFF00FFFFFFFFFFFFFFFFFFFFFFFFFFFFFFFFFFFFFFFFFFFFFFFFFFFFFFFFFFFFFF00FFFFFFFFFFFFFFFFFFFFFFFFFFFFFFFFFFFFFFFFFFFFFFFFFFFFFFFFFFFFFF00FFFF
310
FFFFFFFFFFFFFFFFFFFFFFFFFFFFFFFFFFFFFFFFFFFFFFFFFFFFFFFFFF00FFFFFFFFFFFFFFFFFFFFFFFFFFFFFFFFFFFFFFFFFFFFFFFFFFFFFFFFFFFFFF00FFFFFFFFFFFFFFFFFFFFFFFFFFFFFFFFFFFFFFFFFFFFFFFFFFFFFFFFFFFFFF00FFFFFFFFFFFFFFFFFFFFFFFFFFFFFFFFFFFFFFFFFFFFFFFFFFFFFFFFFFFFFF00FF
310
FFFFFFFFFFFFFFFFFFFFFFFFFFFFFFFFFFFFFFFFFFFFFFFFFFFFFFFFFFFF00FFFFFFFFFFFFFFFFFFFFFFFFFFFFFFFFFFFFFFFFFFFFFFFFFFFFFFFFFFFFFF00FFFFFFFFFFFFFFFFFFFFFFFFFFFFFFFFFFFFFFFFFFFFFFFFFFFFFFFFFFFFFF00FFFFFFFFFFFFFFFFFFFFFFFFFFFFFFFFFFFFFFFFFFFFFFFFFFFFFFFFFFFFFF00
310
FFFFFFFFFFFFFFFFFFFFFFFFFFFFFFFFFFFFFFFFFFFFFFFFFFFFFFFFFFFFFF00FFFFFFFFFFFFFFFFFFFFFFFFFFFFFFFFFFFFFFFFFFFFFFFFFFFFFFFFFFFFFF00FFFFFFFFFFFFFFFFFFFFFFFFFFFFFFFFFFFFFFFFFFFFFFFFFFFFFFFFFFFFFF00FFFFFFFFFFFFFFFFFFFFFFFFFFFFFFFFFFFFFFFFFFFFFFFFFFFFFFFFFFFFFF
310
00FFFFFFFFFFFFFFFFFFFFFFFFFFFF000000000000000000FFFFFFFFFFFFFFFF00FFFFFFFFFFFFFFFFFFFFFFFFFFFF00FFFFFFFFFFFFFFFF
102
{BLKREFS
331
29E0
102
}
  0
BLOCK_RECORD
  5
29C2
330
26DF
100
AcDbSymbolTableRecord
100
AcDbBlockTableRecord
  2
AI9-BLK4
340
0
310
2800000020000000200000000100080000000000000400000000000000000000000000000000000000000000000080000080000000808000800000008000800080800000C0C0C000C0DCC000F0CAA6000020400000206000002080000020A0000020C0000020E00000400000004020000040400000406000004080000040A0
310
000040C0000040E00000600000006020000060400000606000006080000060A0000060C0000060E00000800000008020000080400000806000008080000080A0000080C0000080E00000A0000000A0200000A0400000A0600000A0800000A0A00000A0C00000A0E00000C0000000C0200000C0400000C0600000C0800000C0
310
A00000C0C00000C0E00000E0000000E0200000E0400000E0600000E0800000E0A00000E0C00000E0E00040000000400020004000400040006000400080004000A0004000C0004000E00040200000402020004020400040206000402080004020A0004020C0004020E000404000004040200040404000404060004040800040
310
40A0004040C0004040E00040600000406020004060400040606000406080004060A0004060C0004060E00040800000408020004080400040806000408080004080A0004080C0004080E00040A0000040A0200040A0400040A0600040A0800040A0A00040A0C00040A0E00040C0000040C0200040C0400040C0600040C08000
310
40C0A00040C0C00040C0E00040E0000040E0200040E0400040E0600040E0800040E0A00040E0C00040E0E00080000000800020008000400080006000800080008000A0008000C0008000E00080200000802020008020400080206000802080008020A0008020C0008020E00080400000804020008040400080406000804080
310
008040A0008040C0008040E00080600000806020008060400080606000806080008060A0008060C0008060E00080800000808020008080400080806000808080008080A0008080C0008080E00080A0000080A0200080A0400080A0600080A0800080A0A00080A0C00080A0E00080C0000080C0200080C0400080C0600080C0
310
800080C0A00080C0C00080C0E00080E0000080E0200080E0400080E0600080E0800080E0A00080E0C00080E0E000C0000000C0002000C0004000C0006000C0008000C000A000C000C000C000E000C0200000C0202000C0204000C0206000C0208000C020A000C020C000C020E000C0400000C0402000C0404000C0406000C0
310
408000C040A000C040C000C040E000C0600000C0602000C0604000C0606000C0608000C060A000C060C000C060E000C0800000C0802000C0804000C0806000C0808000C080A000C080C000C080E000C0A00000C0A02000C0A04000C0A06000C0A08000C0A0A000C0A0C000C0A0E000C0C00000C0C02000C0C04000C0C06000
310
C0C08000C0C0A000F0FBFF00A4A0A000808080000000FF0000FF000000FFFF00FF000000FF00FF00FFFF0000FFFFFF00FFFFFFFFFFFFFFFFFFFFFFFFFFFFFFFFFFFFFFFFFFFFFFFFFFFFFFFFFFFFFFFFFFFFFFFFFFFFFFFFFFFFFFFFFFFF00000000FFFFFFFFFFFFFFFFFFFFFF000000FFFFFFFFFFFFFFFFFFFFFFFFFFFF00
310
FFFF00FFFFFFFFFFFFFFFFFFFFFF00FFFFFFFFFFFFFFFFFFFFFFFFFFFFFFFF00FFFF00FFFFFFFFFFFFFFFFFFFFFF00FFFFFFFFFFFFFFFFFFFFFFFFFFFFFFFF00FFFF00FFFFFFFFFFFFFFFFFFFFFF00FFFFFFFFFFFFFFFFFFFFFFFFFFFFFFFF00FFFF00FFFFFFFFFFFFFFFFFFFFFF00FFFFFFFFFFFFFFFFFFFFFFFFFFFFFFFF
310
00FFFF00FFFFFFFFFFFFFFFFFFFFFF00FFFFFFFFFFFFFFFFFFFFFFFFFFFFFFFF00FFFF00FFFFFFFFFFFFFFFFFFFFFF00FFFFFFFFFFFFFFFFFFFFFFFFFFFFFFFF00FFFF00FFFFFFFFFFFFFFFFFFFFFF00FFFFFFFFFFFFFFFFFFFFFFFFFFFFFFFF00FFFF00FFFFFFFFFFFFFFFFFFFFFF00FFFFFFFFFFFFFFFFFFFFFFFFFFFFFF
310
FF00FFFF00FFFFFFFFFFFFFFFFFFFFFF00FFFFFFFFFFFFFFFFFFFFFFFFFFFFFFFF00FFFF00FFFFFFFFFFFFFFFFFFFFFF00FFFFFFFFFFFFFFFFFFFFFFFFFFFFFFFF00FFFF00FFFFFFFFFFFFFFFFFFFFFF00FFFFFFFFFFFFFFFFFFFFFFFFFFFFFFFF00FFFF00FFFFFFFFFFFFFFFFFFFFFF00FFFFFFFFFFFFFFFFFFFFFFFFFFFF
310
FFFF00FFFF00FFFFFFFFFFFFFFFFFFFFFF00FFFFFFFFFFFFFFFFFFFFFFFFFFFFFFFF00FFFF00FFFFFFFFFFFFFFFFFFFFFF00FFFFFFFFFFFFFFFFFFFFFFFFFFFFFFFF00FFFF00FFFFFFFFFFFFFFFFFFFFFF00FFFFFFFFFFFFFFFFFFFFFFFFFFFFFFFF00FFFF00FFFFFFFFFFFFFFFFFFFF00FFFFFFFFFFFFFFFFFFFFFFFFFFFF
310
FFFFFF00FFFF00FFFFFFFFFFFFFFFFFFFF00FFFFFFFFFFFFFFFFFFFFFFFFFFFFFFFFFF00FFFF00FFFFFFFFFFFFFFFFFFFF00FFFFFFFFFFFFFFFFFFFFFFFFFFFFFFFFFF00FFFF00FFFFFFFFFFFFFFFFFFFF00FFFFFFFFFFFFFFFFFFFFFFFFFFFFFFFFFF00FFFF00FFFFFFFFFFFFFFFFFFFF00FFFFFFFFFFFFFFFFFFFFFFFFFF
310
FFFFFFFF00FFFF00FFFFFFFFFFFFFFFFFF0000FFFF00FFFFFFFFFFFFFFFFFFFFFFFFFFFF00FFFF00FFFFFFFFFFFFFFFF0000FFFFFF00FFFFFFFFFFFFFFFFFFFFFFFFFFFF00FFFF00000000000000000000FFFFFFFF00FFFFFFFFFFFFFFFFFFFFFFFFFFFF00FFFFFFFFFFFFFFFFFFFFFFFFFFFFFF00FFFFFFFFFFFFFFFFFFFF
310
FFFFFFFFFF00FFFFFFFFFFFFFFFFFFFFFFFFFFFF00FFFFFFFFFFFFFFFFFFFFFFFFFFFFFFFF00FFFFFFFFFFFFFFFFFFFFFFFFFFFF00FFFFFFFFFFFFFFFFFFFFFFFFFFFFFFFF00FFFFFFFFFFFFFFFFFFFFFFFFFFFFFF00FFFFFFFFFFFFFFFFFFFFFFFFFFFFFF00FFFFFFFFFFFFFFFFFFFFFFFFFFFFFF00FFFFFFFFFFFFFFFFFF
310
FFFFFFFFFFFF00FFFF00000000000000000000FFFFFFFF00FFFFFFFFFFFFFFFFFFFFFFFFFFFF00FFFF00FFFFFFFFFFFFFFFFFF0000FFFF00
102
{BLKREFS
331
29E1
102
}
  0
BLOCK_RECORD
  5
29C7
330
26DF
100
AcDbSymbolTableRecord
100
AcDbBlockTableRecord
  2
AI9-BLK3
340
0
310
2800000020000000200000000100080000000000000400000000000000000000000000000000000000000000000080000080000000808000800000008000800080800000C0C0C000C0DCC000F0CAA6000020400000206000002080000020A0000020C0000020E00000400000004020000040400000406000004080000040A0
310
000040C0000040E00000600000006020000060400000606000006080000060A0000060C0000060E00000800000008020000080400000806000008080000080A0000080C0000080E00000A0000000A0200000A0400000A0600000A0800000A0A00000A0C00000A0E00000C0000000C0200000C0400000C0600000C0800000C0
310
A00000C0C00000C0E00000E0000000E0200000E0400000E0600000E0800000E0A00000E0C00000E0E00040000000400020004000400040006000400080004000A0004000C0004000E00040200000402020004020400040206000402080004020A0004020C0004020E000404000004040200040404000404060004040800040
310
40A0004040C0004040E00040600000406020004060400040606000406080004060A0004060C0004060E00040800000408020004080400040806000408080004080A0004080C0004080E00040A0000040A0200040A0400040A0600040A0800040A0A00040A0C00040A0E00040C0000040C0200040C0400040C0600040C08000
310
40C0A00040C0C00040C0E00040E0000040E0200040E0400040E0600040E0800040E0A00040E0C00040E0E00080000000800020008000400080006000800080008000A0008000C0008000E00080200000802020008020400080206000802080008020A0008020C0008020E00080400000804020008040400080406000804080
310
008040A0008040C0008040E00080600000806020008060400080606000806080008060A0008060C0008060E00080800000808020008080400080806000808080008080A0008080C0008080E00080A0000080A0200080A0400080A0600080A0800080A0A00080A0C00080A0E00080C0000080C0200080C0400080C0600080C0
310
800080C0A00080C0C00080C0E00080E0000080E0200080E0400080E0600080E0800080E0A00080E0C00080E0E000C0000000C0002000C0004000C0006000C0008000C000A000C000C000C000E000C0200000C0202000C0204000C0206000C0208000C020A000C020C000C020E000C0400000C0402000C0404000C0406000C0
310
408000C040A000C040C000C040E000C0600000C0602000C0604000C0606000C0608000C060A000C060C000C060E000C0800000C0802000C0804000C0806000C0808000C080A000C080C000C080E000C0A00000C0A02000C0A04000C0A06000C0A08000C0A0A000C0A0C000C0A0E000C0C00000C0C02000C0C04000C0C06000
310
C0C08000C0C0A000F0FBFF00A4A0A000808080000000FF0000FF000000FFFF00FF000000FF00FF00FFFF0000FFFFFF00FFFFFFFFFFFFFFFFFFFFFFFFFFFFFFFFFFFFFFFFFFFFFFFFFFFFFFFFFFFFFFFFFFFFFFFFFFFFFFFFFFFFFFFFFFFFFF0000FFFFFFFFFFFFFFFFFFFFFFFFFFFFFFFFFFFFFFFFFFFFFFFFFFFFFFFFFFFF
310
0000FFFFFFFFFFFFFFFFFFFFFFFFFFFFFFFFFFFFFFFFFFFFFFFFFFFFFFFFFFFF0000FFFFFFFFFFFFFFFFFFFFFFFFFFFFFFFFFFFFFFFFFFFFFFFFFFFFFFFFFFFF0000FFFFFFFFFFFFFFFFFFFFFFFFFFFFFFFFFFFFFFFFFFFFFFFFFFFFFFFFFFFF0000FFFFFFFFFFFFFFFFFFFFFFFFFFFFFFFFFFFFFFFFFFFFFFFFFFFFFFFFFF
310
FF0000FFFFFFFFFFFFFFFFFFFFFFFFFFFFFFFFFFFFFFFFFFFFFFFFFFFFFFFFFFFF0000FFFFFFFFFFFFFFFFFFFFFFFFFFFFFFFFFFFFFFFFFFFFFFFFFFFFFFFFFFFF0000FFFFFFFFFFFFFFFFFFFFFFFFFFFFFFFFFFFFFFFFFFFFFFFFFFFFFFFFFFFF0000FFFFFFFFFFFFFFFFFFFFFFFFFFFFFFFFFFFFFFFFFFFFFFFFFFFFFFFF
310
FFFF0000FFFFFFFFFFFFFFFFFFFFFFFFFFFFFFFFFFFFFFFFFFFFFFFFFFFFFFFFFFFF0000FFFFFFFFFFFFFFFFFFFFFFFFFFFFFFFFFFFFFFFFFFFFFFFFFFFFFFFFFFFF0000FFFFFFFFFFFFFFFFFFFFFFFFFFFFFFFFFFFFFFFFFFFFFFFFFFFFFFFFFFFF0000FFFFFFFFFFFFFFFFFFFFFFFFFFFFFFFFFFFFFFFFFFFFFFFFFFFFFF
310
FFFFFF0000FFFFFFFFFFFFFFFFFFFFFFFFFFFFFFFFFFFFFFFFFFFFFFFFFFFFFFFFFFFF0000FFFFFFFFFFFFFFFFFFFFFFFFFFFFFFFFFFFFFFFFFFFFFFFFFFFFFFFFFFFF0000FFFFFFFFFFFFFFFFFFFFFFFFFFFFFFFFFFFFFFFFFFFFFFFFFFFFFFFFFFFF0000FFFFFFFFFFFFFFFFFFFFFFFFFFFFFFFFFFFFFFFFFFFFFFFFFFFF
310
FFFFFFFF0000FFFFFFFFFFFFFFFFFFFFFFFFFFFFFFFFFFFFFFFFFFFFFFFFFFFFFFFFFFFF0000FFFFFFFFFFFFFFFFFFFFFFFFFFFFFFFFFFFFFFFFFFFFFFFFFFFFFFFFFFFF0000FFFFFFFFFFFFFFFFFFFFFFFFFFFFFFFFFFFFFFFFFFFFFFFFFFFFFFFFFFFF0000FFFFFFFFFFFFFFFFFFFFFFFFFFFFFFFFFFFFFFFFFFFFFFFFFF
310
FFFFFFFFFF0000FFFFFFFFFFFFFFFFFFFFFFFFFFFFFFFFFFFFFFFFFFFFFFFFFFFFFFFFFFFF0000FFFFFFFFFFFFFFFFFFFFFFFFFFFFFFFFFFFFFFFFFFFFFFFFFFFFFFFFFFFF0000FFFFFFFFFFFFFFFFFFFFFFFFFFFFFFFFFFFFFFFFFFFFFFFFFFFFFFFFFFFF0000FFFFFFFFFFFFFFFFFFFFFFFFFFFFFFFFFFFFFFFFFFFFFFFF
310
FFFFFFFFFFFF0000FFFFFFFFFFFFFFFFFFFFFFFFFFFFFFFFFFFFFFFFFFFFFFFFFFFFFFFFFFFF0000FFFFFFFFFFFFFFFFFFFFFFFFFFFFFFFFFFFFFFFFFFFFFFFFFFFFFFFFFFFF0000FFFFFFFFFFFFFFFFFFFFFFFFFFFFFFFFFFFFFFFFFFFFFFFFFFFFFFFFFFFF0000FFFFFFFFFFFFFFFFFFFFFFFFFFFFFFFFFFFFFFFFFFFFFF
310
FFFFFFFFFFFFFF0000FFFFFFFFFFFFFFFFFFFFFFFFFFFFFFFFFFFFFFFFFFFFFFFFFFFFFFFFFFFFFFFFFFFFFFFFFFFFFFFFFFFFFFFFFFFFFF
102
{BLKREFS
331
29E2
102
}
  0
BLOCK_RECORD
  5
29CC
330
26DF
100
AcDbSymbolTableRecord
100
AcDbBlockTableRecord
  2
AI9-BLK2
340
0
310
2800000020000000200000000100080000000000000400000000000000000000000000000000000000000000000080000080000000808000800000008000800080800000C0C0C000C0DCC000F0CAA6000020400000206000002080000020A0000020C0000020E00000400000004020000040400000406000004080000040A0
310
000040C0000040E00000600000006020000060400000606000006080000060A0000060C0000060E00000800000008020000080400000806000008080000080A0000080C0000080E00000A0000000A0200000A0400000A0600000A0800000A0A00000A0C00000A0E00000C0000000C0200000C0400000C0600000C0800000C0
310
A00000C0C00000C0E00000E0000000E0200000E0400000E0600000E0800000E0A00000E0C00000E0E00040000000400020004000400040006000400080004000A0004000C0004000E00040200000402020004020400040206000402080004020A0004020C0004020E000404000004040200040404000404060004040800040
310
40A0004040C0004040E00040600000406020004060400040606000406080004060A0004060C0004060E00040800000408020004080400040806000408080004080A0004080C0004080E00040A0000040A0200040A0400040A0600040A0800040A0A00040A0C00040A0E00040C0000040C0200040C0400040C0600040C08000
310
40C0A00040C0C00040C0E00040E0000040E0200040E0400040E0600040E0800040E0A00040E0C00040E0E00080000000800020008000400080006000800080008000A0008000C0008000E00080200000802020008020400080206000802080008020A0008020C0008020E00080400000804020008040400080406000804080
310
008040A0008040C0008040E00080600000806020008060400080606000806080008060A0008060C0008060E00080800000808020008080400080806000808080008080A0008080C0008080E00080A0000080A0200080A0400080A0600080A0800080A0A00080A0C00080A0E00080C0000080C0200080C0400080C0600080C0
310
800080C0A00080C0C00080C0E00080E0000080E0200080E0400080E0600080E0800080E0A00080E0C00080E0E000C0000000C0002000C0004000C0006000C0008000C000A000C000C000C000E000C0200000C0202000C0204000C0206000C0208000C020A000C020C000C020E000C0400000C0402000C0404000C0406000C0
310
408000C040A000C040C000C040E000C0600000C0602000C0604000C0606000C0608000C060A000C060C000C060E000C0800000C0802000C0804000C0806000C0808000C080A000C080C000C080E000C0A00000C0A02000C0A04000C0A06000C0A08000C0A0A000C0A0C000C0A0E000C0C00000C0C02000C0C04000C0C06000
310
C0C08000C0C0A000F0FBFF00A4A0A000808080000000FF0000FF000000FFFF00FF000000FF00FF00FFFF0000FFFFFF00FFFFFFFFFFFFFFFFFFFFFFFFFFFFFFFFFFFFFFFFFFFFFFFFFFFFFFFFFFFFFFFFFFFFFFFFFFFFFFFFFFFFFFFFFFFFFF0000FFFFFFFFFFFFFFFFFFFFFFFFFFFFFFFFFFFFFFFFFFFFFFFFFFFFFFFFFFFF
310
0000FFFFFFFFFFFFFFFFFFFFFFFFFFFFFFFFFFFFFFFFFFFFFFFFFFFFFFFFFFFF0000FFFFFFFFFFFFFFFFFFFFFFFFFFFFFFFFFFFFFFFFFFFFFFFFFFFFFFFFFF00FFFF00FFFFFFFFFFFFFFFFFFFFFFFFFFFFFFFFFFFFFFFFFFFFFFFFFFFFFFFF00FFFF00FFFFFFFFFFFFFFFFFFFFFFFFFFFFFFFFFFFFFFFFFFFFFFFFFFFFFFFF
310
00FF0000FFFFFFFFFFFFFFFFFFFFFFFFFFFFFFFFFFFFFFFFFFFFFFFFFFFFFFFF00FF0000FFFFFFFFFFFFFFFFFFFFFFFFFFFFFFFFFFFFFFFFFFFFFFFFFFFFFFFF00FF0000FFFFFFFFFFFFFFFFFFFFFFFFFFFFFFFFFFFFFFFFFFFFFFFFFFFFFFFF00000000FFFFFFFFFFFFFFFFFFFFFFFFFFFFFFFFFFFFFFFFFFFFFFFFFFFFFF
310
00FF00FF0000FFFFFFFFFFFFFFFFFFFFFFFFFFFFFFFFFFFFFFFFFFFFFFFFFFFF00FF00FF0000FFFFFFFFFFFFFFFFFFFFFFFFFFFFFFFFFFFFFFFFFFFFFFFFFFFF00FF00FF0000FFFFFFFFFFFFFFFFFFFFFFFFFFFFFFFFFFFFFFFFFFFFFFFFFFFF00FF00FF0000FFFFFFFFFFFFFFFFFFFFFFFFFFFFFFFFFFFFFFFFFFFFFFFFFF
310
FF00FF00FF0000FFFFFFFFFFFFFFFFFFFFFFFFFFFFFFFFFFFFFFFFFFFFFFFFFFFF0000FFFF0000FFFFFFFFFFFFFFFFFFFFFFFFFFFFFFFFFFFFFFFFFFFFFFFFFF00FF00FFFF00FF00FFFFFFFFFFFFFFFFFFFFFFFFFFFFFFFFFFFFFFFFFFFFFFFF00FF00FFFF00FF00FFFFFFFFFFFFFFFFFFFFFFFFFFFFFFFFFFFFFFFFFFFFFF
310
FF00FF00FFFFFF0000FFFFFFFFFFFFFFFFFFFFFFFFFFFFFFFFFFFFFFFFFFFFFFFF00FF00FFFFFF0000FFFFFFFFFFFFFFFFFFFFFFFFFFFFFFFFFFFFFFFFFFFFFFFF00FF00FFFFFF0000FFFFFFFFFFFFFFFFFFFFFFFFFFFFFFFFFFFFFFFFFFFFFFFF0000FFFFFFFF0000FFFFFFFFFFFFFFFFFFFFFFFFFFFFFFFFFFFFFFFFFFFF
310
FF00FF00FFFFFFFF00FF00FFFFFFFFFFFFFFFFFFFFFFFFFFFFFFFFFFFFFFFFFFFF00FF00FFFFFFFF00FF00FFFFFFFFFFFFFFFFFFFFFFFFFFFFFFFFFFFFFFFFFFFF00FF00FFFFFFFF00FF00FFFFFFFFFFFFFFFFFFFFFFFFFFFFFFFFFFFFFFFFFFFF00FF00FFFFFFFF00FF00FFFFFFFFFFFFFFFFFFFFFFFFFFFFFFFFFFFFFFFF
310
FFFF00FF00FFFFFFFFFF0000FFFFFFFFFFFFFFFFFFFFFFFFFFFFFFFFFFFFFFFFFFFF0000FFFFFFFFFFFF0000FFFFFFFFFFFFFFFFFFFFFFFFFFFFFFFFFFFFFFFFFF00FF00FFFFFFFFFFFF00FF00FFFFFFFFFFFFFFFFFFFFFFFFFFFFFFFFFFFFFFFF00FF00FFFFFFFFFFFF00FF00FFFFFFFFFFFFFFFFFFFFFFFFFFFFFFFFFFFF
310
FFFF000000FFFFFFFFFFFF000000FFFFFFFFFFFFFFFFFFFFFFFFFFFFFFFFFFFFFFFFFFFFFFFFFFFFFFFFFFFFFFFFFFFFFFFFFFFFFFFFFFFF
102
{BLKREFS
331
29E3
102
}
  0
BLOCK_RECORD
  5
29D1
330
26DF
100
AcDbSymbolTableRecord
100
AcDbBlockTableRecord
  2
AI9-BLK1
340
0
310
2800000020000000200000000100080000000000000400000000000000000000000000000000000000000000000080000080000000808000800000008000800080800000C0C0C000C0DCC000F0CAA6000020400000206000002080000020A0000020C0000020E00000400000004020000040400000406000004080000040A0
310
000040C0000040E00000600000006020000060400000606000006080000060A0000060C0000060E00000800000008020000080400000806000008080000080A0000080C0000080E00000A0000000A0200000A0400000A0600000A0800000A0A00000A0C00000A0E00000C0000000C0200000C0400000C0600000C0800000C0
310
A00000C0C00000C0E00000E0000000E0200000E0400000E0600000E0800000E0A00000E0C00000E0E00040000000400020004000400040006000400080004000A0004000C0004000E00040200000402020004020400040206000402080004020A0004020C0004020E000404000004040200040404000404060004040800040
310
40A0004040C0004040E00040600000406020004060400040606000406080004060A0004060C0004060E00040800000408020004080400040806000408080004080A0004080C0004080E00040A0000040A0200040A0400040A0600040A0800040A0A00040A0C00040A0E00040C0000040C0200040C0400040C0600040C08000
310
40C0A00040C0C00040C0E00040E0000040E0200040E0400040E0600040E0800040E0A00040E0C00040E0E00080000000800020008000400080006000800080008000A0008000C0008000E00080200000802020008020400080206000802080008020A0008020C0008020E00080400000804020008040400080406000804080
310
008040A0008040C0008040E00080600000806020008060400080606000806080008060A0008060C0008060E00080800000808020008080400080806000808080008080A0008080C0008080E00080A0000080A0200080A0400080A0600080A0800080A0A00080A0C00080A0E00080C0000080C0200080C0400080C0600080C0
310
800080C0A00080C0C00080C0E00080E0000080E0200080E0400080E0600080E0800080E0A00080E0C00080E0E000C0000000C0002000C0004000C0006000C0008000C000A000C000C000C000E000C0200000C0202000C0204000C0206000C0208000C020A000C020C000C020E000C0400000C0402000C0404000C0406000C0
310
408000C040A000C040C000C040E000C0600000C0602000C0604000C0606000C0608000C060A000C060C000C060E000C0800000C0802000C0804000C0806000C0808000C080A000C080C000C080E000C0A00000C0A02000C0A04000C0A06000C0A08000C0A0A000C0A0C000C0A0E000C0C00000C0C02000C0C04000C0C06000
310
C0C08000C0C0A000F0FBFF00A4A0A000808080000000FF0000FF000000FFFF00FF000000FF00FF00FFFF0000FFFFFF00FFFFFFFFFFFFFFFFFFFFFFFFFFFFFFFFFFFFFFFFFFFFFFFFFFFFFFFFFFFFFFFFFFFFFFFFFFFFFFFFFFFFFF00000000000000000000FFFFFFFFFFFFFFFFFFFFFFFFFFFFFFFFFFFFFFFFFFFF00FFFFFF
310
FFFFFFFFFF00FFFFFFFFFFFFFFFFFFFFFFFFFFFFFFFFFFFFFFFFFFFF00FFFFFFFFFFFFFFFF00FFFFFFFFFFFFFFFFFFFFFFFFFFFFFFFFFFFFFFFFFFFF00FFFFFFFFFFFFFFFF00FFFFFFFFFFFFFFFFFFFFFFFFFFFFFFFFFFFFFFFFFFFF00FF0000000000000000FFFFFFFFFFFFFFFFFFFFFFFFFFFFFFFFFFFFFFFFFFFF00FF00
310
FFFFFFFFFFFFFFFFFFFFFFFFFFFFFFFFFFFFFFFFFFFFFFFFFFFFFFFFFF00FF00FFFFFFFFFFFFFFFFFFFFFFFFFFFFFFFFFFFFFFFFFFFFFFFFFFFFFFFFFF00FF00FFFFFFFFFFFFFFFFFFFFFFFFFFFFFFFFFFFFFFFFFFFFFFFFFFFFFFFFFF00FF00FFFFFFFFFFFFFFFFFFFFFFFFFFFFFFFFFFFFFFFFFFFFFFFFFFFFFFFFFF00FF
310
00FFFFFFFFFFFFFFFFFFFFFFFFFFFFFFFFFFFFFFFFFFFFFFFFFFFFFFFFFF00FF00FFFFFFFFFFFFFFFFFFFFFFFFFFFFFFFFFFFFFFFFFFFFFFFFFFFFFFFFFF00FF00FFFFFFFFFFFFFFFFFFFFFFFFFFFFFFFFFFFFFFFFFFFFFFFFFFFFFFFFFF00FF00FFFFFFFFFFFFFFFFFFFFFFFFFFFFFFFFFFFFFFFFFFFFFFFFFFFFFFFFFF00
310
FF00000000000000FFFFFFFFFFFFFFFFFFFFFFFFFFFFFFFFFFFFFFFFFFFFFF00FFFFFFFFFFFFFF00FFFFFFFFFFFFFFFFFFFFFFFFFFFFFFFFFFFFFFFFFFFFFF00FFFFFFFFFFFFFF00FFFFFFFFFFFFFFFFFFFFFFFFFFFFFFFFFFFFFFFFFFFFFF00FFFFFFFFFFFFFF00FFFFFFFFFFFFFFFFFFFFFFFFFFFFFFFFFFFFFFFFFFFFFF
310
00FF00000000000000FFFFFFFFFFFFFFFFFFFFFFFFFFFFFFFFFFFFFFFFFFFFFF00FF00FFFFFFFFFFFFFFFFFFFFFFFFFFFFFFFFFFFFFFFFFFFFFFFFFFFFFFFFFF00FF00FFFFFFFFFFFFFFFFFFFFFFFFFFFFFFFFFFFFFFFFFFFFFFFFFFFFFFFFFF00FF00FFFFFFFFFFFFFFFFFFFFFFFFFFFFFFFFFFFFFFFFFFFFFFFFFFFFFFFF
310
FF00FF00FFFFFFFFFFFFFFFFFFFFFFFFFFFFFFFFFFFFFFFFFFFFFFFFFFFFFFFFFF00FF00FFFFFFFFFFFFFFFFFFFFFFFFFFFFFFFFFFFFFFFFFFFFFFFFFFFFFFFFFF00FF00FFFFFFFFFFFFFFFFFFFFFFFFFFFFFFFFFFFFFFFFFFFFFFFFFFFFFFFFFF00FF00FFFFFFFFFFFFFFFFFFFFFFFFFFFFFFFFFFFFFFFFFFFFFFFFFFFFFF
310
FFFF00FF0000000000000000FFFFFFFFFFFFFFFFFFFFFFFFFFFFFFFFFFFFFFFFFFFF00FFFFFFFFFFFFFFFF00FFFFFFFFFFFFFFFFFFFFFFFFFFFFFFFFFFFFFFFFFFFF00FFFFFFFFFFFFFFFF00FFFFFFFFFFFFFFFFFFFFFFFFFFFFFFFFFFFFFFFFFFFF00FFFFFFFFFFFFFFFF00FFFFFFFFFFFFFFFFFFFFFFFFFFFFFFFFFFFFFF
310
FFFFFF00000000000000000000FFFFFFFFFFFFFFFFFFFFFFFFFFFFFFFFFFFFFFFFFFFFFFFFFFFFFFFFFFFFFFFFFFFFFFFFFFFFFFFFFFFFFF
102
{BLKREFS
331
29E4
102
}
  0
BLOCK_RECORD
  5
29D6
330
26DF
100
AcDbSymbolTableRecord
100
AcDbBlockTableRecord
  2
HD_LLC_logo_OT5
340
0
310
2800000020000000200000000100080000000000000400000000000000000000000000000000000000000000000080000080000000808000800000008000800080800000C0C0C000C0DCC000F0CAA6000020400000206000002080000020A0000020C0000020E00000400000004020000040400000406000004080000040A0
310
000040C0000040E00000600000006020000060400000606000006080000060A0000060C0000060E00000800000008020000080400000806000008080000080A0000080C0000080E00000A0000000A0200000A0400000A0600000A0800000A0A00000A0C00000A0E00000C0000000C0200000C0400000C0600000C0800000C0
310
A00000C0C00000C0E00000E0000000E0200000E0400000E0600000E0800000E0A00000E0C00000E0E00040000000400020004000400040006000400080004000A0004000C0004000E00040200000402020004020400040206000402080004020A0004020C0004020E000404000004040200040404000404060004040800040
310
40A0004040C0004040E00040600000406020004060400040606000406080004060A0004060C0004060E00040800000408020004080400040806000408080004080A0004080C0004080E00040A0000040A0200040A0400040A0600040A0800040A0A00040A0C00040A0E00040C0000040C0200040C0400040C0600040C08000
310
40C0A00040C0C00040C0E00040E0000040E0200040E0400040E0600040E0800040E0A00040E0C00040E0E00080000000800020008000400080006000800080008000A0008000C0008000E00080200000802020008020400080206000802080008020A0008020C0008020E00080400000804020008040400080406000804080
310
008040A0008040C0008040E00080600000806020008060400080606000806080008060A0008060C0008060E00080800000808020008080400080806000808080008080A0008080C0008080E00080A0000080A0200080A0400080A0600080A0800080A0A00080A0C00080A0E00080C0000080C0200080C0400080C0600080C0
310
800080C0A00080C0C00080C0E00080E0000080E0200080E0400080E0600080E0800080E0A00080E0C00080E0E000C0000000C0002000C0004000C0006000C0008000C000A000C000C000C000E000C0200000C0202000C0204000C0206000C0208000C020A000C020C000C020E000C0400000C0402000C0404000C0406000C0
310
408000C040A000C040C000C040E000C0600000C0602000C0604000C0606000C0608000C060A000C060C000C060E000C0800000C0802000C0804000C0806000C0808000C080A000C080C000C080E000C0A00000C0A02000C0A04000C0A06000C0A08000C0A0A000C0A0C000C0A0E000C0C00000C0C02000C0C04000C0C06000
310
C0C08000C0C0A000F0FBFF00A4A0A000808080000000FF0000FF000000FFFF00FF000000FF00FF00FFFF0000FFFFFF00FFFFFFFFFFFFFFFFFFFFFFFFFFFFFFFFFFFFFFFFFFFFFFFFFFFFFFFFFFFFFFFFFFFFFFFFFFFFFFFFFFFFFFFFFFFFFFFFFFFFFFFFFFFFFFFFFFFFFFFFFFFFFFFFFFFFFFFFFFFFFFFFFFFFFFFFFFFFFF
310
FFFFFFFFFFFFFFFFFFFFFFFFFFFFFFFFFFFFFFFFFFFFFFFFFFFFFFFFFFFFFFFFFFFFFFFFFFFFFFFFFFFFFFFFFFFFFFFFFFFFFFFFFFFFFFFFFFFFFFFFFFFFFFFFFFFFFFFFFFFFFFFFFFFFFFFFFFFFFFFFFFFFFFFFFFFFFFFFFFFFFFFFFFFFFFFFFFFFFFFFFFFFFFFFFFFFFFFFFFFFFFFFFFFFFFFFFFFFFFFFFFFFFFFFFFFFFF
310
FFFFFFFFFFFFFFFFFFFFFFFFFFFFFFFFFFFFFFFFFFFFFFFFFFFFFFFFFFFFFFFFFFFFFFFFFFFFFFFFFFFFFFFFFFFFFFFFFFFFFFFFFFFFFFFFFFFFFFFFFFFFFFFFFFFFFFFFFFFFFFFFFFFFFFFFFFFFFFFFFFFFFFFFFFFFFFFFFFFFFFFFFFFFFFFFFFFFFFFFFFFFFFFFFFFFFFFFFFFFFFFFFFFFFFFFFFFFFFFFFFFFFFFFFFFFFF
310
FFFFFFFFFFFFFFFFFFFFFFFFFFFFFFFFFFFFFFFFFFFFFFFFFFFFFFFFFFFFFFFFFFFFFFFFFFFFFFFFFFFFFFFFFFFFFFFFFFFFFFFF0000000000000000000000000000000000000000000000000000000000FFFFFF0000000000000000000000000000000000FFFFFFFFFFFFFFFFFFFF0000FFFFFF0000000000000000000000
310
00000000000000FFFFFFFFFFFFFFFFFFFF0000FFFF000000000000000000000000000000000000FFFFFF00000000FFFFFF0000FFFF00FFFFFFFFFFFF00FFFFFF00FFFFFFFFFF00FFFFFF0000000000FFFF0000FFFF00FFFFFFFFFFFF00FFFFFF00FFFFFFFFFF00FFFFFF00FFFF0000FFFF0000FFFF00FFFFFFFFFFFF00FFFF
310
00FFFFFFFFFFFF00FFFFFF00FFFF0000FFFF0000FFFF0000000000FFFF00000000FFFFFF00000000FFFFFF00000000FFFFFF0000FFFFFFFFFFFF00FFFFFFFFFFFFFFFFFF00FFFFFFFFFFFFFFFFFFFFFFFFFF0000FFFFFFFFFFFF00FFFFFFFFFFFFFFFFFF00FFFFFFFFFFFFFFFFFFFFFFFFFF0000FFFFFFFFFFFF00FFFFFFFF
310
FFFFFFFFFF00FFFFFFFFFFFFFFFFFFFFFFFF0000FFFFFF0000000000FFFF00000000FFFFFF0000000000000000000000000000FFFFFFFF00FFFFFFFFFFFF00FFFF00FFFFFFFFFFFF00FFFFFFFFFFFFFFFFFFFFFFFFFFFF00FFFFFFFFFFFF00FFFFFF00FFFFFFFFFF00FFFFFFFFFFFFFFFFFFFFFFFFFFFF0000000000000000
310
FFFFFF00000000000000FFFFFFFFFFFFFFFFFFFFFFFFFFFFFFFFFFFFFFFFFFFFFFFFFFFFFFFFFFFFFFFFFFFFFFFFFFFFFFFFFFFFFFFFFFFFFFFFFFFFFFFFFFFFFFFFFFFFFFFFFFFFFFFFFFFFFFFFFFFFFFFFFFFFFFFFFFFFFFFFFFFFFFFFFFFFFFFFFFFFFFFFFFFFFFFFFFFFFFFFFFFFFFFFFFFFFFFFFFFFFFFFFFFFFFFFFF
310
FFFFFFFFFFFFFFFFFFFFFFFFFFFFFFFFFFFFFFFFFFFFFFFFFFFFFFFFFFFFFFFFFFFFFFFFFFFFFFFFFFFFFFFFFFFFFFFFFFFFFFFFFFFFFFFF
102
{BLKREFS
331
29FC
102
}
  0
BLOCK_RECORD
  5
29FB
330
26DF
100
AcDbSymbolTableRecord
100
AcDbBlockTableRecord
  2
HD logo-new
340
0
310
2800000020000000200000000100080000000000000400000000000000000000000000000000000000000000000080000080000000808000800000008000800080800000C0C0C000C0DCC000F0CAA6000020400000206000002080000020A0000020C0000020E00000400000004020000040400000406000004080000040A0
310
000040C0000040E00000600000006020000060400000606000006080000060A0000060C0000060E00000800000008020000080400000806000008080000080A0000080C0000080E00000A0000000A0200000A0400000A0600000A0800000A0A00000A0C00000A0E00000C0000000C0200000C0400000C0600000C0800000C0
310
A00000C0C00000C0E00000E0000000E0200000E0400000E0600000E0800000E0A00000E0C00000E0E00040000000400020004000400040006000400080004000A0004000C0004000E00040200000402020004020400040206000402080004020A0004020C0004020E000404000004040200040404000404060004040800040
310
40A0004040C0004040E00040600000406020004060400040606000406080004060A0004060C0004060E00040800000408020004080400040806000408080004080A0004080C0004080E00040A0000040A0200040A0400040A0600040A0800040A0A00040A0C00040A0E00040C0000040C0200040C0400040C0600040C08000
310
40C0A00040C0C00040C0E00040E0000040E0200040E0400040E0600040E0800040E0A00040E0C00040E0E00080000000800020008000400080006000800080008000A0008000C0008000E00080200000802020008020400080206000802080008020A0008020C0008020E00080400000804020008040400080406000804080
310
008040A0008040C0008040E00080600000806020008060400080606000806080008060A0008060C0008060E00080800000808020008080400080806000808080008080A0008080C0008080E00080A0000080A0200080A0400080A0600080A0800080A0A00080A0C00080A0E00080C0000080C0200080C0400080C0600080C0
310
800080C0A00080C0C00080C0E00080E0000080E0200080E0400080E0600080E0800080E0A00080E0C00080E0E000C0000000C0002000C0004000C0006000C0008000C000A000C000C000C000E000C0200000C0202000C0204000C0206000C0208000C020A000C020C000C020E000C0400000C0402000C0404000C0406000C0
310
408000C040A000C040C000C040E000C0600000C0602000C0604000C0606000C0608000C060A000C060C000C060E000C0800000C0802000C0804000C0806000C0808000C080A000C080C000C080E000C0A00000C0A02000C0A04000C0A06000C0A08000C0A0A000C0A0C000C0A0E000C0C00000C0C02000C0C04000C0C06000
310
C0C08000C0C0A000F0FBFF00A4A0A000808080000000FF0000FF000000FFFF00FF000000FF00FF00FFFF0000FFFFFF00FFFFFFFFFFFFFFFFFFFFFFFFFFFFFFFFFFFFFFFFFFFFFFFFFFFFFFFFFFFFFFFFFFFFFFFFFFFFFFFFFFFFFFFFFFFFFFFFFFFFFFFFFFFFFFFFFFFFFFFFFFFFFFFFFFFFFFFFFFFFFFFFFFFFFFFFFFFFFF
310
FFFFFFFFFFFFFFFFFFFFFFFFFFFFFFFFFFFFFFFFFFFFFFFFFFFFFFFFFFFFFFFFFFFFFFFFFFFFFFFFFFFFFFFFFFFFFFFFFFFFFFFFFFFFFFFFFFFFFFFFFFFFFFFFFFFFFFFFFFFFFFFFFFFFFFFFFFFFFFFFFFFFFFFFFFFFFFFFFFFFFFFFFFFFFFFFFFFFFFFFFFFFFFFFFFFFFFFFFFFFFFFFFFFFFFFFFFFFFFFFFFFFFFFFFFFFFF
310
FFFFFFFFFFFFFFFFFFFFFFFFFFFFFFFFFFFFFFFFFFFFFFFFFFFFFFFFFFFFFFFFFFFFFFFFFFFFFFFFFFFFFFFFFFFFFFFFFFFFFFFFFFFFFFFFFFFFFFFFFFFFFFFFFFFFFFFFFFFFFFFFFFFFFFFFFFFFFFFFFFFFFFFFFFFFFFFFFFFFFFFFFFFFFFFFFFFFFFFFFFFFFFFFFFFFFFFFFFFFFFFFFFFFFFFFFFFFFFFFFFFFFFFFFFFFFF
310
FFFFFFFFFFFFFFFFFFFFFFFFFFFFFFFFFFFFFFFFFFFFFFFFFFFFFFFFFFFFFFFFFFFFFFFFFFFFFFFFFFFFFFFFFFFFFFFFFFFFFFFF0000000000000000000000000000000000000000000000000000000000FFFFFF0000000000000000000000000000000000FFFFFFFFFFFFFFFFFFFF0000FFFFFF0000000000000000000000
310
00000000000000FFFFFFFFFFFFFFFFFFFF0000FFFF000000000000000000000000000000000000FFFFFF00000000FFFFFF0000FFFF00FFFFFFFFFFFF00FFFFFF00FFFFFFFFFF00FFFFFF0000000000FFFF0000FFFF00FFFFFFFFFFFF00FFFFFF00FFFFFFFFFF00FFFFFF00FFFF0000FFFF0000FFFF00FFFFFFFFFFFF00FFFF
310
00FFFFFFFFFFFF00FFFFFF00FFFF0000FFFF0000FFFF0000000000FFFF00000000FFFFFF00000000FFFFFF00000000FFFFFF0000FFFFFFFFFFFF00FFFFFFFFFFFFFFFFFF00FFFFFFFFFFFFFFFFFFFFFFFFFF0000FFFFFFFFFFFF00FFFFFFFFFFFFFFFFFF00FFFFFFFFFFFFFFFFFFFFFFFFFF0000FFFFFFFFFFFF00FFFFFFFF
310
FFFFFFFFFF00FFFFFFFFFFFFFFFFFFFFFFFF0000FFFFFF0000000000FFFF00000000FFFFFF0000000000000000000000000000FFFFFFFF00FFFFFFFFFFFF00FFFF00FFFFFFFFFFFF00FFFFFFFFFFFFFFFFFFFFFFFFFFFF00FFFFFFFFFFFF00FFFFFF00FFFFFFFFFF00FFFFFFFFFFFFFFFFFFFFFFFFFFFF0000000000000000
310
FFFFFF00000000000000FFFFFFFFFFFFFFFFFFFFFFFFFFFFFFFFFFFFFFFFFFFFFFFFFFFFFFFFFFFFFFFFFFFFFFFFFFFFFFFFFFFFFFFFFFFFFFFFFFFFFFFFFFFFFFFFFFFFFFFFFFFFFFFFFFFFFFFFFFFFFFFFFFFFFFFFFFFFFFFFFFFFFFFFFFFFFFFFFFFFFFFFFFFFFFFFFFFFFFFFFFFFFFFFFFFFFFFFFFFFFFFFFFFFFFFFFF
310
FFFFFFFFFFFFFFFFFFFFFFFFFFFFFFFFFFFFFFFFFFFFFFFFFFFFFFFFFFFFFFFFFFFFFFFFFFFFFFFFFFFFFFFFFFFFFFFFFFFFFFFFFFFFFFFF
102
{BLKREFS
331
2A00
331
2A2A
331
2A2E
102
}
  0
BLOCK_RECORD
  5
29FF
330
26DF
100
AcDbSymbolTableRecord
100
AcDbBlockTableRecord
  2
HD Logo
340
0
310
2800000020000000200000000100080000000000000400000000000000000000000000000000000000000000000080000080000000808000800000008000800080800000C0C0C000C0DCC000F0CAA6000020400000206000002080000020A0000020C0000020E00000400000004020000040400000406000004080000040A0
310
000040C0000040E00000600000006020000060400000606000006080000060A0000060C0000060E00000800000008020000080400000806000008080000080A0000080C0000080E00000A0000000A0200000A0400000A0600000A0800000A0A00000A0C00000A0E00000C0000000C0200000C0400000C0600000C0800000C0
310
A00000C0C00000C0E00000E0000000E0200000E0400000E0600000E0800000E0A00000E0C00000E0E00040000000400020004000400040006000400080004000A0004000C0004000E00040200000402020004020400040206000402080004020A0004020C0004020E000404000004040200040404000404060004040800040
310
40A0004040C0004040E00040600000406020004060400040606000406080004060A0004060C0004060E00040800000408020004080400040806000408080004080A0004080C0004080E00040A0000040A0200040A0400040A0600040A0800040A0A00040A0C00040A0E00040C0000040C0200040C0400040C0600040C08000
310
40C0A00040C0C00040C0E00040E0000040E0200040E0400040E0600040E0800040E0A00040E0C00040E0E00080000000800020008000400080006000800080008000A0008000C0008000E00080200000802020008020400080206000802080008020A0008020C0008020E00080400000804020008040400080406000804080
310
008040A0008040C0008040E00080600000806020008060400080606000806080008060A0008060C0008060E00080800000808020008080400080806000808080008080A0008080C0008080E00080A0000080A0200080A0400080A0600080A0800080A0A00080A0C00080A0E00080C0000080C0200080C0400080C0600080C0
310
800080C0A00080C0C00080C0E00080E0000080E0200080E0400080E0600080E0800080E0A00080E0C00080E0E000C0000000C0002000C0004000C0006000C0008000C000A000C000C000C000E000C0200000C0202000C0204000C0206000C0208000C020A000C020C000C020E000C0400000C0402000C0404000C0406000C0
310
408000C040A000C040C000C040E000C0600000C0602000C0604000C0606000C0608000C060A000C060C000C060E000C0800000C0802000C0804000C0806000C0808000C080A000C080C000C080E000C0A00000C0A02000C0A04000C0A06000C0A08000C0A0A000C0A0C000C0A0E000C0C00000C0C02000C0C04000C0C06000
310
C0C08000C0C0A000F0FBFF00A4A0A000808080000000FF0000FF000000FFFF00FF000000FF00FF00FFFF0000FFFFFF00FFFFFFFFFFFFFFFFFFFFFFFFFFFFFFFFFFFFFFFFFFFFFFFFFFFFFFFFFFFFFFFFFFFFFFFFFFFFFFFFFFFFFFFFFFFFFFFFFFFFFFFFFFFFFFFFFFFFFFFFFFFFFFFFFFFFFFFFFFFFFFFFFFFFFFFFFFFFFF
310
FFFFFFFFFFFFFFFFFFFFFFFFFFFFFFFFFFFFFFFFFFFFFFFFFFFFFFFFFFFFFFFFFFFFFFFFFFFFFFFFFFFFFFFFFFFFFFFFFFFFFFFFFFFFFFFFFFFFFFFFFFFFFFFFFFFFFFFFFFFFFFFFFFFFFFFFFFFFFFFFFFFFFFFFFFFFFFFFFFFFFFFFFFFFFFFFFFFFFFFFFFFFFFFFFFFFFFFFFFFFFFFFFFFFFFFFFFFFFFFFFFFFFFFFFFFFFF
310
FFFFFFFFFFFFFFFFFFFFFFFFFFFFFFFFFFFFFFFFFFFFFFFFFFFFFFFFFFFFFFFFFFFFFFFFFFFFFFFFFFFFFFFFFFFFFFFFFFFFFFFFFFFFFFFFFFFFFFFFFFFFFFFFFFFFFFFFFFFFFFFFFFFFFFFFFFFFFFFFFFFFFFFFFFFFFFFFFFFFFFFFFFFFFFFFFFFFFFFFFFFFFFFFFFFFFFFFFFFFFFFFFFFFFFFFFFFFFFFFFFFFFFFFFFFFFF
310
FFFFFFFFFFFFFFFFFFFFFFFFFFFFFFFFFFFFFFFFFFFFFFFFFFFFFFFFFFFFFFFFFFFFFFFFFFFFFFFFFFFFFFFFFFFFFFFFFFFFFFFF0000000000000000000000000000000000000000000000000000000000FFFFFF0000000000000000000000000000000000FFFFFFFFFFFFFFFFFFFF0000FFFFFF0000000000000000000000
310
00000000000000FFFFFFFFFFFFFFFFFFFF0000FFFF000000000000000000000000000000000000FFFFFF00000000FFFFFF0000FFFF00FFFFFFFFFFFF00FFFFFF00FFFFFFFFFF00FFFFFF0000000000FFFF0000FFFF00FFFFFFFFFFFF00FFFFFF00FFFFFFFFFF00FFFFFF00FFFF0000FFFF0000FFFF00FFFFFFFFFFFF00FFFF
310
00FFFFFFFFFFFF00FFFFFF00FFFF0000FFFF0000FFFF0000000000FFFF00000000FFFFFF00000000FFFFFF00000000FFFFFF0000FFFFFFFFFFFF00FFFFFFFFFFFFFFFFFF00FFFFFFFFFFFFFFFFFFFFFFFFFF0000FFFFFFFFFFFF00FFFFFFFFFFFFFFFFFF00FFFFFFFFFFFFFFFFFFFFFFFFFF0000FFFFFFFFFFFF00FFFFFFFF
310
FFFFFFFFFF00FFFFFFFFFFFFFFFFFFFFFFFF0000FFFFFF0000000000FFFF00000000FFFFFF0000000000000000000000000000FFFFFFFF00FFFFFFFFFFFF00FFFF00FFFFFFFFFFFF00FFFFFFFFFFFFFFFFFFFFFFFFFFFF00FFFFFFFFFFFF00FFFFFF00FFFFFFFFFF00FFFFFFFFFFFFFFFFFFFFFFFFFFFF0000000000000000
310
FFFFFF00000000000000FFFFFFFFFFFFFFFFFFFFFFFFFFFFFFFFFFFFFFFFFFFFFFFFFFFFFFFFFFFFFFFFFFFFFFFFFFFFFFFFFFFFFFFFFFFFFFFFFFFFFFFFFFFFFFFFFFFFFFFFFFFFFFFFFFFFFFFFFFFFFFFFFFFFFFFFFFFFFFFFFFFFFFFFFFFFFFFFFFFFFFFFFFFFFFFFFFFFFFFFFFFFFFFFFFFFFFFFFFFFFFFFFFFFFFFFFF
310
FFFFFFFFFFFFFFFFFFFFFFFFFFFFFFFFFFFFFFFFFFFFFFFFFFFFFFFFFFFFFFFFFFFFFFFFFFFFFFFFFFFFFFFFFFFFFFFFFFFFFFFFFFFFFFFF
102
{BLKREFS
331
2A06
331
2A0A
102
}
  0
BLOCK_RECORD
  5
2A0B
330
26DF
100
AcDbSymbolTableRecord
100
AcDbBlockTableRecord
  2
Harmonic Drive LLC
340
0
310
2800000020000000200000000100080000000000000400000000000000000000000000000000000000000000000080000080000000808000800000008000800080800000C0C0C000C0DCC000F0CAA6000020400000206000002080000020A0000020C0000020E00000400000004020000040400000406000004080000040A0
310
000040C0000040E00000600000006020000060400000606000006080000060A0000060C0000060E00000800000008020000080400000806000008080000080A0000080C0000080E00000A0000000A0200000A0400000A0600000A0800000A0A00000A0C00000A0E00000C0000000C0200000C0400000C0600000C0800000C0
310
A00000C0C00000C0E00000E0000000E0200000E0400000E0600000E0800000E0A00000E0C00000E0E00040000000400020004000400040006000400080004000A0004000C0004000E00040200000402020004020400040206000402080004020A0004020C0004020E000404000004040200040404000404060004040800040
310
40A0004040C0004040E00040600000406020004060400040606000406080004060A0004060C0004060E00040800000408020004080400040806000408080004080A0004080C0004080E00040A0000040A0200040A0400040A0600040A0800040A0A00040A0C00040A0E00040C0000040C0200040C0400040C0600040C08000
310
40C0A00040C0C00040C0E00040E0000040E0200040E0400040E0600040E0800040E0A00040E0C00040E0E00080000000800020008000400080006000800080008000A0008000C0008000E00080200000802020008020400080206000802080008020A0008020C0008020E00080400000804020008040400080406000804080
310
008040A0008040C0008040E00080600000806020008060400080606000806080008060A0008060C0008060E00080800000808020008080400080806000808080008080A0008080C0008080E00080A0000080A0200080A0400080A0600080A0800080A0A00080A0C00080A0E00080C0000080C0200080C0400080C0600080C0
310
800080C0A00080C0C00080C0E00080E0000080E0200080E0400080E0600080E0800080E0A00080E0C00080E0E000C0000000C0002000C0004000C0006000C0008000C000A000C000C000C000E000C0200000C0202000C0204000C0206000C0208000C020A000C020C000C020E000C0400000C0402000C0404000C0406000C0
310
408000C040A000C040C000C040E000C0600000C0602000C0604000C0606000C0608000C060A000C060C000C060E000C0800000C0802000C0804000C0806000C0808000C080A000C080C000C080E000C0A00000C0A02000C0A04000C0A06000C0A08000C0A0A000C0A0C000C0A0E000C0C00000C0C02000C0C04000C0C06000
310
C0C08000C0C0A000F0FBFF00A4A0A000808080000000FF0000FF000000FFFF00FF000000FF00FF00FFFF0000FFFFFF00FFFFFFFFFFFFFFFFFFFFFFFFFFFFFFFFFFFFFFFFFFFFFFFFFFFFFFFFFFFFFFFFFFFFFFFFFFFFFFFFFFFFFFFFFFFFFFFFFFFFFFFFFFFFFFFFFFFFFFFFFFFFFFFFFFFFFFFFFFFFFFFFFFFFFFFFFFFFFF
310
FFFFFFFFFFFFFFFFFFFFFFFFFFFFFFFFFFFFFFFFFFFFFFFFFFFFFFFFFFFFFFFFFFFFFFFFFFFFFFFFFFFFFFFFFFFFFFFFFFFFFFFFFFFFFFFFFFFFFFFFFFFFFFFFFFFFFFFFFFFFFFFFFFFFFFFFFFFFFFFFFFFFFFFFFFFFFFFFFFFFFFFFFFFFFFFFFFFFFFFFFFFFFFFFFFFFFFFFFFFFFFFFFFFFFFFFFFFFFFFFFFFFFFFFFFFFFF
310
FFFFFFFFFFFFFFFFFFFFFFFFFFFFFFFFFFFFFFFFFFFFFFFFFFFFFFFFFFFFFFFFFFFFFFFFFFFFFFFFFFFFFFFFFFFFFFFFFFFFFFFFFFFFFFFFFFFFFFFFFFFFFFFFFFFFFFFFFFFFFFFFFFFFFFFFFFFFFFFFFFFFFFFFFFFFFFFFFFFFFFFFFFFFFFFFFFFFFFFFFFFFFFFFFFFFFFFFFFFFFFFFFFFFFFFFFFFFFFFFFFFFFFFFFFFFFF
310
FFFFFFFFFFFFFFFFFFFFFFFFFFFFFFFFFFFFFFFFFFFFFFFFFFFFFFFFFFFFFFFFFFFFFFFFFFFFFFFFFFFFFFFFFFFFFFFFFFFFFFFFFFFFFFFFFFFFFFFFFFFFFFFFFFFFFFFFFFFFFFFFFFFFFFFFFFFFFFFFFFFFFFFFFFFFFFFFFFFFFFFF0000000000000000000000000000FFFFFFFFFFFFFFFFFFFFFFFFFFFFFFFFFFFF000000
310
0000000000000000000000FFFFFFFFFFFFFFFFFFFFFFFFFFFFFFFFFFFFFFFFFF000000000000000000FFFFFFFFFFFFFFFFFFFFFFFFFFFFFFFFFFFFFFFFFFFFFF000000000000000000FFFFFFFFFFFFFFFFFFFFFFFFFFFFFFFFFFFFFFFFFF000000000000000000000000FFFFFFFFFFFFFFFFFFFFFFFFFFFFFFFFFFFFFFFF00
310
FFFFFF00FF0000FF000000FFFFFFFFFFFFFFFFFFFFFFFFFFFFFFFFFFFFFFFFFFFFFFFFFFFFFFFFFFFFFFFFFFFFFFFFFFFFFFFFFFFFFFFFFFFFFFFFFFFFFFFFFFFFFFFFFFFFFFFFFFFFFFFFFFFFFFFFFFFFFFFFFFFFFFFFFFFFFFFFFFFFFFFFFFFFFFFFFFFFFFFFFFFFFFFFFFFFFFFFFFFFFFFFFFFFFFFFFFFFFFFFFFFFFFFF
310
FFFFFFFFFFFFFFFFFFFFFFFFFFFFFFFFFFFFFFFFFFFFFFFFFFFFFFFFFFFFFFFFFFFFFFFFFFFFFFFFFFFFFFFFFFFFFFFFFFFFFFFFFFFFFFFFFFFFFFFFFFFFFFFFFFFFFFFFFFFFFFFFFFFFFFFFFFFFFFFFFFFFFFFFFFFFFFFFFFFFFFFFFFFFFFFFFFFFFFFFFFFFFFFFFFFFFFFFFFFFFFFFFFFFFFFFFFFFFFFFFFFFFFFFFFFFFF
310
FFFFFFFFFFFFFFFFFFFFFFFFFFFFFFFFFFFFFFFFFFFFFFFFFFFFFFFFFFFFFFFFFFFFFFFFFFFFFFFFFFFFFFFFFFFFFFFFFFFFFFFFFFFFFFFFFFFFFFFFFFFFFFFFFFFFFFFFFFFFFFFFFFFFFFFFFFFFFFFFFFFFFFFFFFFFFFFFFFFFFFFFFFFFFFFFFFFFFFFFFFFFFFFFFFFFFFFFFFFFFFFFFFFFFFFFFFFFFFFFFFFFFFFFFFFFFF
310
FFFFFFFFFFFFFFFFFFFFFFFFFFFFFFFFFFFFFFFFFFFFFFFFFFFFFFFFFFFFFFFFFFFFFFFFFFFFFFFFFFFFFFFFFFFFFFFFFFFFFFFFFFFFFFFF
102
{BLKREFS
331
2A10
331
2A15
102
}
  0
BLOCK_RECORD
  5
2A1F
330
26DF
100
AcDbSymbolTableRecord
100
AcDbBlockTableRecord
  2
HD LLC
340
0
310
2800000020000000200000000100080000000000000400000000000000000000000000000000000000000000000080000080000000808000800000008000800080800000C0C0C000C0DCC000F0CAA6000020400000206000002080000020A0000020C0000020E00000400000004020000040400000406000004080000040A0
310
000040C0000040E00000600000006020000060400000606000006080000060A0000060C0000060E00000800000008020000080400000806000008080000080A0000080C0000080E00000A0000000A0200000A0400000A0600000A0800000A0A00000A0C00000A0E00000C0000000C0200000C0400000C0600000C0800000C0
310
A00000C0C00000C0E00000E0000000E0200000E0400000E0600000E0800000E0A00000E0C00000E0E00040000000400020004000400040006000400080004000A0004000C0004000E00040200000402020004020400040206000402080004020A0004020C0004020E000404000004040200040404000404060004040800040
310
40A0004040C0004040E00040600000406020004060400040606000406080004060A0004060C0004060E00040800000408020004080400040806000408080004080A0004080C0004080E00040A0000040A0200040A0400040A0600040A0800040A0A00040A0C00040A0E00040C0000040C0200040C0400040C0600040C08000
310
40C0A00040C0C00040C0E00040E0000040E0200040E0400040E0600040E0800040E0A00040E0C00040E0E00080000000800020008000400080006000800080008000A0008000C0008000E00080200000802020008020400080206000802080008020A0008020C0008020E00080400000804020008040400080406000804080
310
008040A0008040C0008040E00080600000806020008060400080606000806080008060A0008060C0008060E00080800000808020008080400080806000808080008080A0008080C0008080E00080A0000080A0200080A0400080A0600080A0800080A0A00080A0C00080A0E00080C0000080C0200080C0400080C0600080C0
310
800080C0A00080C0C00080C0E00080E0000080E0200080E0400080E0600080E0800080E0A00080E0C00080E0E000C0000000C0002000C0004000C0006000C0008000C000A000C000C000C000E000C0200000C0202000C0204000C0206000C0208000C020A000C020C000C020E000C0400000C0402000C0404000C0406000C0
310
408000C040A000C040C000C040E000C0600000C0602000C0604000C0606000C0608000C060A000C060C000C060E000C0800000C0802000C0804000C0806000C0808000C080A000C080C000C080E000C0A00000C0A02000C0A04000C0A06000C0A08000C0A0A000C0A0C000C0A0E000C0C00000C0C02000C0C04000C0C06000
310
C0C08000C0C0A000F0FBFF00A4A0A000808080000000FF0000FF000000FFFF00FF000000FF00FF00FFFF0000FFFFFF00FFFFFFFFFFFFFFFFFFFFFFFFFFFFFFFFFFFFFFFFFFFFFFFFFFFFFFFFFFFFFFFFFFFFFFFFFFFFFFFFFFFFFFFFFFFFFFFFFFFFFFFFFFFFFFFFFFFFFFFFFFFFFFFFFFFFFFFFFFFFFFFFFFFFFFFFFFFFFF
310
FFFFFFFFFFFFFFFFFFFFFFFFFFFFFFFFFFFFFFFFFFFFFFFFFFFFFFFFFFFFFFFFFFFFFFFFFFFFFFFFFFFFFFFFFFFFFFFFFFFFFFFFFFFFFFFFFFFFFFFFFFFFFFFFFFFFFFFFFFFFFFFFFFFFFFFFFFFFFFFFFFFFFFFFFFFFFFFFFFFFFFFFFFFFFFFFFFFFFFFFFFFFFFFFFFFFFFFFFFFFFFFFFFFFFFFFFFFFFFFFFFFFFFFFFFFFFF
310
FFFFFFFFFFFFFFFFFFFFFFFFFFFFFFFFFFFFFFFFFFFFFFFFFFFFFFFFFFFFFFFFFFFFFFFFFFFFFFFFFFFFFFFFFFFFFFFFFFFFFFFFFFFFFFFFFFFFFFFFFFFFFFFFFFFFFFFFFFFFFFFFFFFFFFFFFFFFFFFFFFFFFFFFFFFFFFFFFFFFFFFFFFFFFFFFFFFFFFFFFFFFFFFFFFFFFFFFFFFFFFFFFFFFFFFFFFFFFFFFFFFFFFFFFFFFFF
310
FFFFFFFFFFFFFFFFFFFFFFFFFFFFFFFFFFFFFFFFFFFFFFFFFFFFFFFFFFFFFFFFFFFFFFFFFFFFFFFFFFFFFFFFFFFFFFFFFFFFFFFFFFFFFFFFFFFFFFFFFFFFFFFFFFFFFFFFFFFFFFFFFFFFFFFFFFFFFFFFFFFFFFFFFFFFFFFFFFFFFFFFFFFFFFFFFFFFFFFFFFFFFFFFFFFFFFFFFFFFFFFFFFFFFFFFFFFFFFFFFFFFFFFFFFFF00
310
000000000000000000FFFFFFFFFFFFFFFFFFFFFFFFFFFFFFFFFFFFFFFFFFFF00000000000000000000FFFFFFFFFFFFFFFFFFFFFFFFFFFFFFFFFFFFFFFFFFFF00000000000000000000FFFFFFFFFFFFFFFFFFFFFFFFFFFFFFFFFFFFFFFFFFFF00000000000000000000FFFFFFFFFFFFFFFFFFFFFFFFFFFFFFFFFFFFFFFFFFFF
310
FFFFFFFFFFFFFFFFFFFFFFFFFFFFFFFFFFFFFFFFFFFFFFFFFFFFFFFFFFFFFFFFFFFFFFFFFFFFFFFFFFFFFFFFFFFFFFFFFFFFFFFFFFFFFFFFFFFFFFFFFFFFFFFFFFFFFFFFFFFFFFFFFFFFFFFFFFFFFFFFFFFFFFFFFFFFFFFFFFFFFFFFFFFFFFFFFFFFFFFFFFFFFFFFFFFFFFFFFFFFFFFFFFFFFFFFFFFFFFFFFFFFFFFFFFFFFF
310
FFFFFFFFFFFFFFFFFFFFFFFFFFFFFFFFFFFFFFFFFFFFFFFFFFFFFFFFFFFFFFFFFFFFFFFFFFFFFFFFFFFFFFFFFFFFFFFFFFFFFFFFFFFFFFFFFFFFFFFFFFFFFFFFFFFFFFFFFFFFFFFFFFFFFFFFFFFFFFFFFFFFFFFFFFFFFFFFFFFFFFFFFFFFFFFFFFFFFFFFFFFFFFFFFFFFFFFFFFFFFFFFFFFFFFFFFFFFFFFFFFFFFFFFFFFFFF
310
FFFFFFFFFFFFFFFFFFFFFFFFFFFFFFFFFFFFFFFFFFFFFFFFFFFFFFFFFFFFFFFFFFFFFFFFFFFFFFFFFFFFFFFFFFFFFFFFFFFFFFFFFFFFFFFFFFFFFFFFFFFFFFFFFFFFFFFFFFFFFFFFFFFFFFFFFFFFFFFFFFFFFFFFFFFFFFFFFFFFFFFFFFFFFFFFFFFFFFFFFFFFFFFFFFFFFFFFFFFFFFFFFFFFFFFFFFFFFFFFFFFFFFFFFFFFFF
310
FFFFFFFFFFFFFFFFFFFFFFFFFFFFFFFFFFFFFFFFFFFFFFFFFFFFFFFFFFFFFFFFFFFFFFFFFFFFFFFFFFFFFFFFFFFFFFFFFFFFFFFFFFFFFFFF
102
{BLKREFS
331
2A24
331
2A28
102
}
  0
BLOCK_RECORD
  5
2A2F
330
26DF
100
AcDbSymbolTableRecord
100
AcDbBlockTableRecord
  2
NTC
340
0
310
2800000020000000200000000100080000000000000400000000000000000000000000000000000000000000000080000080000000808000800000008000800080800000C0C0C000C0DCC000F0CAA6000020400000206000002080000020A0000020C0000020E00000400000004020000040400000406000004080000040A0
310
000040C0000040E00000600000006020000060400000606000006080000060A0000060C0000060E00000800000008020000080400000806000008080000080A0000080C0000080E00000A0000000A0200000A0400000A0600000A0800000A0A00000A0C00000A0E00000C0000000C0200000C0400000C0600000C0800000C0
310
A00000C0C00000C0E00000E0000000E0200000E0400000E0600000E0800000E0A00000E0C00000E0E00040000000400020004000400040006000400080004000A0004000C0004000E00040200000402020004020400040206000402080004020A0004020C0004020E000404000004040200040404000404060004040800040
310
40A0004040C0004040E00040600000406020004060400040606000406080004060A0004060C0004060E00040800000408020004080400040806000408080004080A0004080C0004080E00040A0000040A0200040A0400040A0600040A0800040A0A00040A0C00040A0E00040C0000040C0200040C0400040C0600040C08000
310
40C0A00040C0C00040C0E00040E0000040E0200040E0400040E0600040E0800040E0A00040E0C00040E0E00080000000800020008000400080006000800080008000A0008000C0008000E00080200000802020008020400080206000802080008020A0008020C0008020E00080400000804020008040400080406000804080
310
008040A0008040C0008040E00080600000806020008060400080606000806080008060A0008060C0008060E00080800000808020008080400080806000808080008080A0008080C0008080E00080A0000080A0200080A0400080A0600080A0800080A0A00080A0C00080A0E00080C0000080C0200080C0400080C0600080C0
310
800080C0A00080C0C00080C0E00080E0000080E0200080E0400080E0600080E0800080E0A00080E0C00080E0E000C0000000C0002000C0004000C0006000C0008000C000A000C000C000C000E000C0200000C0202000C0204000C0206000C0208000C020A000C020C000C020E000C0400000C0402000C0404000C0406000C0
310
408000C040A000C040C000C040E000C0600000C0602000C0604000C0606000C0608000C060A000C060C000C060E000C0800000C0802000C0804000C0806000C0808000C080A000C080C000C080E000C0A00000C0A02000C0A04000C0A06000C0A08000C0A0A000C0A0C000C0A0E000C0C00000C0C02000C0C04000C0C06000
310
C0C08000C0C0A000F0FBFF00A4A0A000808080000000FF0000FF000000FFFF00FF000000FF00FF00FFFF0000FFFFFF00FFFFFFFFFFFFFFFFFFFFFFFFFFFFFFFFFFFFFFFFFFFFFFFFFFFFFFFFFFFFFFFFFFFFFFFFFFFFFFFFFFFFFFFFFFFFFFFFFFFFFFFFFFFFFFFFFFFFFFFFFFFFFFFFFFFFFFFFFFFFFFFFFFFFFFFFFFFFFF
310
FFFFFFFFFFFFFFFFFFFFFFFFFFFFFFFFFFFFFFFFFFFFFFFFFFFFFFFFFFFFFFFFFFFFFFFFFFFFFFFFFFFFFFFFFFFFFFFFFFFFFFFFFFFFFFFFFFFFFFFFFFFFFFFFFFFFFFFFFFFFFFFFFFFFFFFFFFFFFFFFFFFFFFFFFFFFFFFFFFFFFFFFFFFFFFFFFFFFFFFFFFFFFFFFFFFFFFFFFFFFFFFFFFFFFFFFFFFFFFFFFFFFFFFFFFFFFF
310
FFFFFFFFFFFFFFFFFFFFFFFFFFFFFFFFFFFFFFFFFFFFFFFFFFFFFFFFFFFFFFFFFFFFFFFFFFFFFFFFFFFFFFFFFFFFFFFFFFFFFFFFFFFFFFFFFFFFFFFFFFFFFFFFFFFFFFFFFFFFFFFFFFFFFFFFFFFFFFFFFFFFFFFFFFFFFFFFFFFFFFFFFFFFFFFFFFFFFFFFFFFFFFFFFFFFFFFFFFFFFFFFFFFFFFFFFFFFFFFFFFFFFFFFFFFFFF
310
FFFFFFFFFFFFFFFFFFFFFFFFFFFFFFFFFFFFFFFF000000000000000000000000000000000000000000000000000000000000FFFF00FF0000000000000000FFFFFFFFFFFFFFFFFFFFFFFFFFFFFFFFFFFFFF00FFFF00FF0000000000000000FFFFFFFFFFFFFFFFFFFFFFFFFFFFFFFFFFFFFF00FFFF00FF000000000000000000
310
00000000000000000000000000FFFFFFFFFF00FFFF00FF0000000000000000000000000000000000000000000000000000FF00FFFF00FF0000000000000000000000000000000000000000000000000000FF00FFFF00FF0000000000000000000000000000000000000000000000000000FF00FFFF00FF0000000000000000
310
00000000000000000000000000000000FFFFFF00FFFF00FF0000000000FFFFFFFFFFFFFFFFFFFFFFFFFFFFFFFFFFFFFFFFFFFF00FFFF000000000000000000000000000000000000000000000000000000000000FFFFFFFFFFFFFFFFFFFFFFFFFFFFFFFFFFFFFFFFFFFFFFFFFFFFFFFFFFFFFFFFFFFFFFFFFFFFFFFFFFFFFF
310
FFFFFFFFFFFFFFFFFFFFFFFFFFFFFFFFFFFFFFFFFFFFFFFFFFFFFFFFFFFFFFFFFFFFFFFFFFFFFFFFFFFFFFFFFFFFFFFFFFFFFFFFFFFFFFFFFFFFFFFFFFFFFFFFFFFFFFFFFFFFFFFFFFFFFFFFFFFFFFFFFFFFFFFFFFFFFFFFFFFFFFFFFFFFFFFFFFFFFFFFFFFFFFFFFFFFFFFFFFFFFFFFFFFFFFFFFFFFFFFFFFFFFFFFFFFFFF
310
FFFFFFFFFFFFFFFFFFFFFFFFFFFFFFFFFFFFFFFFFFFFFFFFFFFFFFFFFFFFFFFFFFFFFFFFFFFFFFFFFFFFFFFFFFFFFFFFFFFFFFFFFFFFFFFFFFFFFFFFFFFFFFFFFFFFFFFFFFFFFFFFFFFFFFFFFFFFFFFFFFFFFFFFFFFFFFFFFFFFFFFFFFFFFFFFFFFFFFFFFFFFFFFFFFFFFFFFFFFFFFFFFFFFFFFFFFFFFFFFFFFFFFFFFFFFFF
310
FFFFFFFFFFFFFFFFFFFFFFFFFFFFFFFFFFFFFFFFFFFFFFFFFFFFFFFFFFFFFFFFFFFFFFFFFFFFFFFFFFFFFFFFFFFFFFFFFFFFFFFFFFFFFFFF
102
{BLKREFS
331
2A35
331
2A3B
102
}
  0
ENDTAB
  0
ENDSEC
  0
SECTION
  2
BLOCKS
  0
BLOCK
  5
26FD
330
26FC
100
AcDbEntity
  8
0
100
AcDbBlockBegin
  2
*Model_Space
 70
     0
 10
0.0
 20
0.0
 30
0.0
  3
*Model_Space
  1

  0
ENDBLK
  5
26FE
330
26FC
100
AcDbEntity
  8
0
100
AcDbBlockEnd
  0
BLOCK
  5
26F9
330
26F8
100
AcDbEntity
 67
     1
  8
0
100
AcDbBlockBegin
  2
*Paper_Space
 70
     0
 10
0.0
 20
0.0
 30
0.0
  3
*Paper_Space
  1

  0
ENDBLK
  5
26FA
330
26F8
100
AcDbEntity
 67
     1
  8
0
100
AcDbBlockEnd
  0
BLOCK
  5
2716
330
2715
100
AcDbEntity
  8
0
100
AcDbBlockBegin
  2
$MODEL_SPACE
 70
     0
 10
0.0
 20
0.0
 30
0.0
  3
$MODEL_SPACE
  1

  0
ENDBLK
  5
2717
330
2715
100
AcDbEntity
  8
0
100
AcDbBlockEnd
  0
BLOCK
  5
2719
330
2718
100
AcDbEntity
  8
0
100
AcDbBlockBegin
  2
$PAPER_SPACE
 70
     0
 10
0.0
 20
0.0
 30
0.0
  3
$PAPER_SPACE
  1

  0
ENDBLK
  5
271A
330
2718
100
AcDbEntity
  8
0
100
AcDbBlockEnd
  0
BLOCK
  5
299A
330
2997
100
AcDbEntity
  8
0
 62
     7
100
AcDbBlockBegin
  2
AI9-BLK14
 70
     0
 10
0.0
 20
0.0
 30
0.0
  3
AI9-BLK14
  1

  0
SPLINE
  5
2998
330
2997
100
AcDbEntity
  8
LAYER_1
 62
     7
100
AcDbSpline
210
0.0
220
0.0
230
1.0
 70
    11
 71
     3
 72
    23
 73
    19
 74
     0
 42
0.0000000001
 43
0.0000000001
 40
0.0
 40
0.0
 40
0.0
 40
0.0
 40
1.0
 40
1.0
 40
1.0
 40
2.0
 40
2.0
 40
2.0
 40
3.0
 40
3.0
 40
3.0
 40
4.0
 40
4.0
 40
4.0
 40
5.0
 40
5.0
 40
5.0
 40
6.0
 40
6.0
 40
6.0
 40
6.0
 10
-10.90321044921874
 20
10.88107571072048
 30
0.0
 10
-10.90321044921874
 20
10.88107571072048
 30
0.0
 10
-10.90321044921874
 20
-10.88107571072048
 30
0.0
 10
-10.90321044921874
 20
-10.88107571072048
 30
0.0
 10
-10.90321044921874
 20
-10.88107571072048
 30
0.0
 10
1.752692328559025
 20
-10.88107571072048
 30
0.0
 10
1.752692328559025
 20
-10.88107571072048
 30
0.0
 10
3.280592176649305
 20
-10.88107571072048
 30
0.0
 10
10.90321044921874
 20
-10.32383151584201
 30
0.0
 10
10.90321044921874
 20
0.6792867024739583
 30
0.0
 10
10.90321044921874
 20
10.61700914171006
 30
0.0
 10
2.773129611545138
 20
10.87952541775172
 30
0.0
 10
2.691136338975693
 20
10.88090345594618
 30
0.0
 10
2.691136338975693
 20
10.88090345594618
 30
0.0
 10
-9.903099229600693
 20
10.88107571072048
 30
0.0
 10
-9.903099229600693
 20
10.88107571072048
 30
0.0
 10
-9.903099229600693
 20
10.88107571072048
 30
0.0
 10
-10.90321044921874
 20
10.88107571072048
 30
0.0
 10
-10.90321044921874
 20
10.88107571072048
 30
0.0
  0
SPLINE
  5
2999
330
2997
100
AcDbEntity
  8
LAYER_1
 62
     7
100
AcDbSpline
210
0.0
220
0.0
230
1.0
 70
    11
 71
     3
 72
    20
 73
    16
 74
     0
 42
0.0000000001
 43
0.0000000001
 40
0.0
 40
0.0
 40
0.0
 40
0.0
 40
1.0
 40
1.0
 40
1.0
 40
2.0
 40
2.0
 40
2.0
 40
3.0
 40
3.0
 40
3.0
 40
4.0
 40
4.0
 40
4.0
 40
5.0
 40
5.0
 40
5.0
 40
5.0
 10
2.672877332899305
 20
8.881197781032986
 30
0.0
 10
2.905421278211805
 20
8.874307590060762
 30
0.0
 10
8.902988009982637
 20
8.616442192925347
 30
0.0
 10
8.902988009982637
 20
0.6792867024739583
 30
0.0
 10
8.902988009982637
 20
-8.191661919487842
 30
0.0
 10
3.430109320746526
 20
-8.881197781032986
 30
0.0
 10
1.752692328559025
 20
-8.881197781032986
 30
0.0
 10
1.752692328559025
 20
-8.881197781032986
 30
0.0
 10
-7.231427680121528
 20
-8.881197781032986
 30
0.0
 10
-8.902988009982637
 20
-8.881197781032986
 30
0.0
 10
-8.902988009982637
 20
-7.174497477213541
 30
0.0
 10
-8.902988009982637
 20
7.174497477213541
 30
0.0
 10
-8.902988009982637
 20
8.881197781032986
 30
0.0
 10
-7.208690049913191
 20
8.881197781032986
 30
0.0
 10
2.672877332899305
 20
8.881197781032986
 30
0.0
 10
2.672877332899305
 20
8.881197781032986
 30
0.0
  0
ENDBLK
  5
299B
330
2997
100
AcDbEntity
  8
0
100
AcDbBlockEnd
  0
BLOCK
  5
299F
330
299C
100
AcDbEntity
  8
0
 62
     7
100
AcDbBlockBegin
  2
AI9-BLK13
 70
     0
 10
0.0
 20
0.0
 30
0.0
  3
AI9-BLK13
  1

  0
LWPOLYLINE
  5
299D
330
299C
100
AcDbEntity
  8
LAYER_1
 62
     7
100
AcDbPolyline
 90
       12
 70
     1
 43
0.0
 10
-3.792361111111107
 20
10.7376736111111
 10
-2.469444444444443
 20
10.7376736111111
 10
-2.469444444444443
 20
1.874131944444444
 10
2.469444444444443
 20
1.874131944444444
 10
2.469444444444443
 20
10.7376736111111
 10
3.792361111111107
 20
10.7376736111111
 10
3.792361111111107
 20
-10.7376736111111
 10
2.469444444444443
 20
-10.7376736111111
 10
2.469444444444443
 20
-0.6835069444444444
 10
-2.469444444444443
 20
-0.6835069444444444
 10
-2.469444444444443
 20
-10.7376736111111
 10
-3.792361111111107
 20
-10.7376736111111
  0
HATCH
  5
299E
330
299C
100
AcDbEntity
  8
LAYER_1
 62
     7
100
AcDbHatch
 10
0.0
 20
0.0
 30
0.0
210
0.0
220
0.0
230
1.0
  2
SOLID
 70
     1
 71
     0
 91
        1
 92
        3
 72
     0
 73
     1
 93
       12
 10
-3.792361111111107
 20
10.7376736111111
 10
-2.469444444444443
 20
10.7376736111111
 10
-2.469444444444443
 20
1.874131944444444
 10
2.469444444444443
 20
1.874131944444444
 10
2.469444444444443
 20
10.7376736111111
 10
3.792361111111107
 20
10.7376736111111
 10
3.792361111111107
 20
-10.7376736111111
 10
2.469444444444443
 20
-10.7376736111111
 10
2.469444444444443
 20
-0.6835069444444444
 10
-2.469444444444443
 20
-0.6835069444444444
 10
-2.469444444444443
 20
-10.7376736111111
 10
-3.792361111111107
 20
-10.7376736111111
 97
        0
 75
     2
 76
     1
 98
        1
 10
0.0
 20
0.0
  0
ENDBLK
  5
29A0
330
299C
100
AcDbEntity
  8
0
100
AcDbBlockEnd
  0
BLOCK
  5
29A4
330
29A1
100
AcDbEntity
  8
0
 62
     7
100
AcDbBlockBegin
  2
AI9-BLK11
 70
     0
 10
0.0
 20
0.0
 30
0.0
  3
AI9-BLK11
  1

  0
SPLINE
  5
29A2
330
29A1
100
AcDbEntity
  8
LAYER_1
 62
     7
100
AcDbSpline
210
0.0
220
0.0
230
1.0
 70
    11
 71
     3
 72
    26
 73
    22
 74
     0
 42
0.0000000001
 43
0.0000000001
 40
0.0
 40
0.0
 40
0.0
 40
0.0
 40
1.0
 40
1.0
 40
1.0
 40
2.0
 40
2.0
 40
2.0
 40
3.0
 40
3.0
 40
3.0
 40
4.0
 40
4.0
 40
4.0
 40
5.0
 40
5.0
 40
5.0
 40
6.0
 40
6.0
 40
6.0
 40
7.0
 40
7.0
 40
7.0
 40
7.0
 10
-2.645833333333333
 20
0.9039930555555551
 30
0.0
 10
-2.645833333333333
 20
0.9039930555555551
 30
0.0
 10
-2.645833333333333
 20
8.180034722222217
 30
0.0
 10
-2.645833333333333
 20
8.180034722222217
 30
0.0
 10
-2.645833333333333
 20
8.180034722222217
 30
0.0
 10
0.465087890625
 20
8.180034722222217
 30
0.0
 10
0.465087890625
 20
8.180034722222217
 30
0.0
 10
0.9026150173611108
 20
8.180034722222217
 30
0.0
 10
1.24988064236111
 20
8.034651692708331
 30
0.0
 10
1.506884765625
 20
7.745263671874997
 30
0.0
 10
2.001600477430554
 20
7.194048394097221
 30
0.0
 10
2.248958333333332
 20
6.160519748263887
 30
0.0
 10
2.248958333333332
 20
4.643299696180553
 30
0.0
 10
2.248958333333332
 20
3.232188585069443
 30
0.0
 10
2.072569444444444
 20
2.256537543402775
 30
0.0
 10
1.720480685763888
 20
1.715657552083333
 30
0.0
 10
1.368391927083333
 20
1.174088541666665
 30
0.0
 10
0.8929687499999998
 20
0.9039930555555551
 30
0.0
 10
0.2942111545138888
 20
0.9039930555555551
 30
0.0
 10
0.2942111545138888
 20
0.9039930555555551
 30
0.0
 10
-2.645833333333333
 20
0.9039930555555551
 30
0.0
 10
-2.645833333333333
 20
0.9039930555555551
 30
0.0
  0
SPLINE
  5
29A3
330
29A1
100
AcDbEntity
  8
LAYER_1
 62
     7
100
AcDbSpline
210
0.0
220
0.0
230
1.0
 70
    11
 71
     3
 72
    68
 73
    64
 74
     0
 42
0.0000000001
 43
0.0000000001
 40
0.0
 40
0.0
 40
0.0
 40
0.0
 40
1.0
 40
1.0
 40
1.0
 40
2.0
 40
2.0
 40
2.0
 40
3.0
 40
3.0
 40
3.0
 40
4.0
 40
4.0
 40
4.0
 40
5.0
 40
5.0
 40
5.0
 40
6.0
 40
6.0
 40
6.0
 40
7.0
 40
7.0
 40
7.0
 40
8.0
 40
8.0
 40
8.0
 40
9.0
 40
9.0
 40
9.0
 40
10.0
 40
10.0
 40
10.0
 40
11.0
 40
11.0
 40
11.0
 40
12.0
 40
12.0
 40
12.0
 40
13.0
 40
13.0
 40
13.0
 40
14.0
 40
14.0
 40
14.0
 40
15.0
 40
15.0
 40
15.0
 40
16.0
 40
16.0
 40
16.0
 40
17.0
 40
17.0
 40
17.0
 40
18.0
 40
18.0
 40
18.0
 40
19.0
 40
19.0
 40
19.0
 40
20.0
 40
20.0
 40
20.0
 40
21.0
 40
21.0
 40
21.0
 40
21.0
 10
-3.968749999999998
 20
-10.7376736111111
 30
0.0
 10
-3.968749999999998
 20
-10.7376736111111
 30
0.0
 10
-2.645833333333333
 20
-10.7376736111111
 30
0.0
 10
-2.645833333333333
 20
-10.7376736111111
 30
0.0
 10
-2.645833333333333
 20
-10.7376736111111
 30
0.0
 10
-2.645833333333333
 20
-1.521354166666665
 30
0.0
 10
-2.645833333333333
 20
-1.521354166666665
 30
0.0
 10
-2.645833333333333
 20
-1.521354166666665
 30
0.0
 10
0.2390896267361111
 20
-1.521354166666665
 30
0.0
 10
0.2390896267361111
 20
-1.521354166666665
 30
0.0
 10
0.7599880642361111
 20
-1.521354166666665
 30
0.0
 10
1.143771701388887
 20
-1.65295681423611
 30
0.0
 10
1.390440538194444
 20
-1.916162109374999
 30
0.0
 10
1.816254340277773
 20
-2.39434136284722
 30
0.0
 10
2.04363064236111
 20
-3.335541449652775
 30
0.0
 10
2.072569444444444
 20
-4.739762369791666
 30
0.0
 10
2.072569444444444
 20
-4.739762369791666
 30
0.0
 10
2.160763888888888
 20
-8.324039713541665
 30
0.0
 10
2.160763888888888
 20
-8.324039713541665
 30
0.0
 10
2.18005642361111
 20
-9.163264973958332
 30
0.0
 10
2.202794053819443
 20
-9.728949652777775
 30
0.0
 10
2.227598741319444
 20
-10.02109374999998
 30
0.0
 10
2.252403428819443
 20
-10.31392686631944
 30
0.0
 10
2.28892144097222
 20
-10.55301649305555
 30
0.0
 10
2.33853081597222
 20
-10.7376736111111
 30
0.0
 10
2.33853081597222
 20
-10.7376736111111
 30
0.0
 10
3.968749999999998
 20
-10.7376736111111
 30
0.0
 10
3.968749999999998
 20
-10.7376736111111
 30
0.0
 10
3.968749999999998
 20
-10.7376736111111
 30
0.0
 10
3.968749999999998
 20
-10.25260416666666
 30
0.0
 10
3.968749999999998
 20
-10.25260416666666
 30
0.0
 10
3.766867404513888
 20
-10.05830078125
 30
0.0
 10
3.625618489583333
 20
-9.621462673611112
 30
0.0
 10
3.545692274305555
 20
-8.942089843749997
 30
0.0
 10
3.49470486111111
 20
-8.543836805555555
 30
0.0
 10
3.459564887152775
 20
-7.937499999999999
 30
0.0
 10
3.439583333333333
 20
-7.121701388888887
 30
0.0
 10
3.439583333333333
 20
-7.121701388888887
 30
0.0
 10
3.395486111111106
 20
-4.232644314236106
 30
0.0
 10
3.395486111111106
 20
-4.232644314236106
 30
0.0
 10
3.375504557291666
 20
-2.981385633680555
 30
0.0
 10
3.26870659722222
 20
-2.077392578125
 30
0.0
 10
3.075781249999999
 20
-1.522043185763888
 30
0.0
 10
2.882166883680555
 20
-0.9666937934027776
 30
0.0
 10
2.592089843749999
 20
-0.5188313802083333
 30
0.0
 10
2.204861111111106
 20
-0.1770779079861111
 30
0.0
 10
2.63618706597222
 20
0.3197048611111111
 30
0.0
 10
2.971739366319443
 20
0.9770290798611107
 30
0.0
 10
3.211518012152775
 20
1.79558376736111
 30
0.0
 10
3.451296657986107
 20
2.613449435763888
 30
0.0
 10
3.571874999999999
 20
3.66558159722222
 30
0.0
 10
3.571874999999999
 20
4.951291232638888
 30
0.0
 10
3.571874999999999
 20
7.415912543402777
 30
0.0
 10
3.124701605902775
 20
9.106076388888887
 30
0.0
 10
2.231043836805555
 20
10.02178276909722
 30
0.0
 10
1.759754774305553
 20
10.498583984375
 30
0.0
 10
1.163753255208332
 20
10.7376736111111
 30
0.0
 10
0.443039279513889
 20
10.7376736111111
 30
0.0
 10
0.443039279513889
 20
10.7376736111111
 30
0.0
 10
-3.968749999999998
 20
10.7376736111111
 30
0.0
 10
-3.968749999999998
 20
10.7376736111111
 30
0.0
 10
-3.968749999999998
 20
10.7376736111111
 30
0.0
 10
-3.968749999999998
 20
-10.7376736111111
 30
0.0
 10
-3.968749999999998
 20
-10.7376736111111
 30
0.0
  0
ENDBLK
  5
29A5
330
29A1
100
AcDbEntity
  8
0
100
AcDbBlockEnd
  0
BLOCK
  5
29A8
330
29A6
100
AcDbEntity
  8
0
 62
     7
100
AcDbBlockBegin
  2
AI9-BLK10
 70
     0
 10
0.0
 20
0.0
 30
0.0
  3
AI9-BLK10
  1

  0
SPLINE
  5
29A7
330
29A6
100
AcDbEntity
  8
LAYER_1
 62
     7
100
AcDbSpline
210
0.0
220
0.0
230
1.0
 70
    11
 71
     3
 72
    59
 73
    55
 74
     0
 42
0.0000000001
 43
0.0000000001
 40
0.0
 40
0.0
 40
0.0
 40
0.0
 40
1.0
 40
1.0
 40
1.0
 40
2.0
 40
2.0
 40
2.0
 40
3.0
 40
3.0
 40
3.0
 40
4.0
 40
4.0
 40
4.0
 40
5.0
 40
5.0
 40
5.0
 40
6.0
 40
6.0
 40
6.0
 40
7.0
 40
7.0
 40
7.0
 40
8.0
 40
8.0
 40
8.0
 40
9.0
 40
9.0
 40
9.0
 40
10.0
 40
10.0
 40
10.0
 40
11.0
 40
11.0
 40
11.0
 40
12.0
 40
12.0
 40
12.0
 40
13.0
 40
13.0
 40
13.0
 40
14.0
 40
14.0
 40
14.0
 40
15.0
 40
15.0
 40
15.0
 40
16.0
 40
16.0
 40
16.0
 40
17.0
 40
17.0
 40
17.0
 40
18.0
 40
18.0
 40
18.0
 40
18.0
 10
-4.652256944444443
 20
10.7376736111111
 30
0.0
 10
-4.652256944444443
 20
10.7376736111111
 30
0.0
 10
-2.798795572916666
 20
10.7376736111111
 30
0.0
 10
-2.798795572916666
 20
10.7376736111111
 30
0.0
 10
-2.798795572916666
 20
10.7376736111111
 30
0.0
 10
0.0
 20
-7.419357638888887
 30
0.0
 10
0.0
 20
-7.419357638888887
 30
0.0
 10
0.0
 20
-7.419357638888887
 30
0.0
 10
2.793283420138888
 20
10.7376736111111
 30
0.0
 10
2.793283420138888
 20
10.7376736111111
 30
0.0
 10
2.793283420138888
 20
10.7376736111111
 30
0.0
 10
4.652256944444443
 20
10.7376736111111
 30
0.0
 10
4.652256944444443
 20
10.7376736111111
 30
0.0
 10
4.652256944444443
 20
10.7376736111111
 30
0.0
 10
4.652256944444443
 20
-10.7376736111111
 30
0.0
 10
4.652256944444443
 20
-10.7376736111111
 30
0.0
 10
4.652256944444443
 20
-10.7376736111111
 30
0.0
 10
3.41753472222222
 20
-10.7376736111111
 30
0.0
 10
3.41753472222222
 20
-10.7376736111111
 30
0.0
 10
3.41753472222222
 20
-10.7376736111111
 30
0.0
 10
3.41753472222222
 20
1.936832682291665
 30
0.0
 10
3.41753472222222
 20
1.936832682291665
 30
0.0
 10
3.41753472222222
 20
2.375048828124999
 30
0.0
 10
3.424424913194443
 20
3.101274956597221
 30
0.0
 10
3.439583333333333
 20
4.11482204861111
 30
0.0
 10
3.454052734374998
 20
5.128369140624998
 30
0.0
 10
3.461631944444443
 20
6.214952256944441
 30
0.0
 10
3.461631944444443
 20
7.375260416666666
 30
0.0
 10
3.461631944444443
 20
7.375260416666666
 30
0.0
 10
0.6538791232638889
 20
-10.7376736111111
 30
0.0
 10
0.6538791232638889
 20
-10.7376736111111
 30
0.0
 10
0.6538791232638889
 20
-10.7376736111111
 30
0.0
 10
-0.6628363715277778
 20
-10.7376736111111
 30
0.0
 10
-0.6628363715277778
 20
-10.7376736111111
 30
0.0
 10
-0.6628363715277778
 20
-10.7376736111111
 30
0.0
 10
-3.461631944444443
 20
7.375260416666666
 30
0.0
 10
-3.461631944444443
 20
7.375260416666666
 30
0.0
 10
-3.461631944444443
 20
7.375260416666666
 30
0.0
 10
-3.461631944444443
 20
6.717247178819441
 30
0.0
 10
-3.461631944444443
 20
6.717247178819441
 30
0.0
 10
-3.461631944444443
 20
6.190836588541666
 30
0.0
 10
-3.45474175347222
 20
5.389507378472222
 30
0.0
 10
-3.439583333333333
 20
4.312570529513888
 30
0.0
 10
-3.425113932291666
 20
3.235633680555555
 30
0.0
 10
-3.41753472222222
 20
2.44395073784722
 30
0.0
 10
-3.41753472222222
 20
1.936832682291665
 30
0.0
 10
-3.41753472222222
 20
1.936832682291665
 30
0.0
 10
-3.41753472222222
 20
-10.7376736111111
 30
0.0
 10
-3.41753472222222
 20
-10.7376736111111
 30
0.0
 10
-3.41753472222222
 20
-10.7376736111111
 30
0.0
 10
-4.652256944444443
 20
-10.7376736111111
 30
0.0
 10
-4.652256944444443
 20
-10.7376736111111
 30
0.0
 10
-4.652256944444443
 20
-10.7376736111111
 30
0.0
 10
-4.652256944444443
 20
10.7376736111111
 30
0.0
 10
-4.652256944444443
 20
10.7376736111111
 30
0.0
  0
ENDBLK
  5
29A9
330
29A6
100
AcDbEntity
  8
0
100
AcDbBlockEnd
  0
BLOCK
  5
29AD
330
29AA
100
AcDbEntity
  8
0
 62
     7
100
AcDbBlockBegin
  2
AI9-BLK9
 70
     0
 10
0.0
 20
0.0
 30
0.0
  3
AI9-BLK9
  1

  0
SPLINE
  5
29AB
330
29AA
100
AcDbEntity
  8
LAYER_1
 62
     7
100
AcDbSpline
210
0.0
220
0.0
230
1.0
 70
    11
 71
     3
 72
    29
 73
    25
 74
     0
 42
0.0000000001
 43
0.0000000001
 40
0.0
 40
0.0
 40
0.0
 40
0.0
 40
1.0
 40
1.0
 40
1.0
 40
2.0
 40
2.0
 40
2.0
 40
3.0
 40
3.0
 40
3.0
 40
4.0
 40
4.0
 40
4.0
 40
5.0
 40
5.0
 40
5.0
 40
6.0
 40
6.0
 40
6.0
 40
7.0
 40
7.0
 40
7.0
 40
8.0
 40
8.0
 40
8.0
 40
8.0
 10
0.0668348524305556
 20
-8.753298611111111
 30
0.0
 10
-0.9067491319444444
 20
-8.753298611111111
 30
0.0
 10
-1.60954861111111
 20
-7.936810980902778
 30
0.0
 10
-2.041563585069444
 20
-6.30383572048611
 30
0.0
 10
-2.474267578124999
 20
-4.670860460069443
 30
0.0
 10
-2.689930555555555
 20
-2.664436848958333
 30
0.0
 10
-2.689930555555555
 20
-0.28525390625
 30
0.0
 10
-2.689930555555555
 20
2.68855251736111
 30
0.0
 10
-2.439127604166666
 20
4.938199869791666
 30
0.0
 10
-1.937521701388888
 20
6.464377170138886
 30
0.0
 10
-1.43591579861111
 20
7.989865451388887
 30
0.0
 10
-0.7827256944444444
 20
8.753298611111111
 30
0.0
 10
0.0220486111111111
 20
8.753298611111111
 30
0.0
 10
0.8468044704861108
 20
8.753298611111111
 30
0.0
 10
1.49792751736111
 20
7.982975260416663
 30
0.0
 10
1.974728732638888
 20
6.442328559027776
 30
0.0
 10
2.451529947916665
 20
4.901681857638886
 30
0.0
 10
2.689930555555555
 20
2.868386501736111
 30
0.0
 10
2.689930555555555
 20
0.3438205295138888
 30
0.0
 10
2.689930555555555
 20
-2.045697699652774
 30
0.0
 10
2.483224826388884
 20
-4.15891927083333
 30
0.0
 10
2.071191406249999
 20
-5.996533203124998
 30
0.0
 10
1.65915798611111
 20
-7.834836154513887
 30
0.0
 10
0.9908094618055557
 20
-8.753298611111111
 30
0.0
 10
0.0668348524305556
 20
-8.753298611111111
 30
0.0
  0
SPLINE
  5
29AC
330
29AA
100
AcDbEntity
  8
LAYER_1
 62
     7
100
AcDbSpline
210
0.0
220
0.0
230
1.0
 70
    11
 71
     3
 72
    29
 73
    25
 74
     0
 42
0.0000000001
 43
0.0000000001
 40
0.0
 40
0.0
 40
0.0
 40
0.0
 40
1.0
 40
1.0
 40
1.0
 40
2.0
 40
2.0
 40
2.0
 40
3.0
 40
3.0
 40
3.0
 40
4.0
 40
4.0
 40
4.0
 40
5.0
 40
5.0
 40
5.0
 40
6.0
 40
6.0
 40
6.0
 40
7.0
 40
7.0
 40
7.0
 40
8.0
 40
8.0
 40
8.0
 40
8.0
 10
-0.0289388020833333
 20
11.35503472222222
 30
0.0
 10
-1.317404513888887
 20
11.35503472222222
 30
0.0
 10
-2.28892144097222
 20
10.02798394097222
 30
0.0
 10
-2.94280056423611
 20
7.374571397569441
 30
0.0
 10
-3.450607638888888
 20
5.30613606770833
 30
0.0
 10
-3.704166666666666
 20
2.81877712673611
 30
0.0
 10
-3.704166666666666
 20
-0.0881944444444445
 30
0.0
 10
-3.704166666666666
 20
-3.307291666666666
 30
0.0
 10
-3.406510416666666
 20
-5.97035047743055
 30
0.0
 10
-2.811197916666666
 20
-8.077370876736106
 30
0.0
 10
-2.147672526041664
 20
-10.26293945312499
 30
0.0
 10
-1.229899088541666
 20
-11.35503472222222
 30
0.0
 10
-0.0585666232638889
 20
-11.35503472222222
 30
0.0
 10
1.20027126736111
 20
-11.35503472222222
 30
0.0
 10
2.166276041666665
 20
-10.10653211805555
 30
0.0
 10
2.840136718749998
 20
-7.609526909722221
 30
0.0
 10
3.416156684027776
 20
-5.483213975694441
 30
0.0
 10
3.704166666666666
 20
-2.814643012152775
 30
0.0
 10
3.704166666666666
 20
0.3948079427083333
 30
0.0
 10
3.704166666666666
 20
3.360346137152776
 30
0.0
 10
3.449918619791666
 20
5.793961588541666
 30
0.0
 10
2.94280056423611
 20
7.696343315972222
 30
0.0
 10
2.298567708333333
 20
10.13547092013888
 30
0.0
 10
1.307758246527777
 20
11.35503472222222
 30
0.0
 10
-0.0289388020833333
 20
11.35503472222222
 30
0.0
  0
ENDBLK
  5
29AE
330
29AA
100
AcDbEntity
  8
0
100
AcDbBlockEnd
  0
BLOCK
  5
29B2
330
29AF
100
AcDbEntity
  8
0
 62
     7
100
AcDbBlockBegin
  2
AI9-BLK8
 70
     0
 10
0.0
 20
0.0
 30
0.0
  3
AI9-BLK8
  1

  0
LWPOLYLINE
  5
29B0
330
29AF
100
AcDbEntity
  8
LAYER_1
 62
     7
100
AcDbPolyline
 90
       10
 70
     1
 43
0.0
 10
-3.792361111111107
 20
10.7376736111111
 10
-2.268939887152773
 20
10.7376736111111
 10
2.557638888888888
 20
-6.505718315972222
 10
2.557638888888888
 20
10.7376736111111
 10
3.792361111111107
 20
10.7376736111111
 10
3.792361111111107
 20
-10.7376736111111
 10
2.32612847222222
 20
-10.7376736111111
 10
-2.557638888888888
 20
6.549815538194441
 10
-2.557638888888888
 20
-10.7376736111111
 10
-3.792361111111107
 20
-10.7376736111111
  0
HATCH
  5
29B1
330
29AF
100
AcDbEntity
  8
LAYER_1
 62
     7
100
AcDbHatch
 10
0.0
 20
0.0
 30
0.0
210
0.0
220
0.0
230
1.0
  2
SOLID
 70
     1
 71
     0
 91
        1
 92
        3
 72
     0
 73
     1
 93
       10
 10
-3.792361111111107
 20
10.7376736111111
 10
-2.268939887152773
 20
10.7376736111111
 10
2.557638888888888
 20
-6.505718315972222
 10
2.557638888888888
 20
10.7376736111111
 10
3.792361111111107
 20
10.7376736111111
 10
3.792361111111107
 20
-10.7376736111111
 10
2.32612847222222
 20
-10.7376736111111
 10
-2.557638888888888
 20
6.549815538194441
 10
-2.557638888888888
 20
-10.7376736111111
 10
-3.792361111111107
 20
-10.7376736111111
 97
        0
 75
     2
 76
     1
 98
        1
 10
0.0
 20
0.0
  0
ENDBLK
  5
29B3
330
29AF
100
AcDbEntity
  8
0
100
AcDbBlockEnd
  0
BLOCK
  5
29B7
330
29B4
100
AcDbEntity
  8
0
 62
     7
100
AcDbBlockBegin
  2
AI9-BLK7
 70
     0
 10
0.0
 20
0.0
 30
0.0
  3
AI9-BLK7
  1

  0
LWPOLYLINE
  5
29B5
330
29B4
100
AcDbEntity
  8
LAYER_1
 62
     7
100
AcDbPolyline
 90
        4
 70
     1
 43
0.0
 10
-0.6614583333333333
 20
10.7376736111111
 10
0.6614583333333333
 20
10.7376736111111
 10
0.6614583333333333
 20
-10.7376736111111
 10
-0.6614583333333333
 20
-10.7376736111111
  0
HATCH
  5
29B6
330
29B4
100
AcDbEntity
  8
LAYER_1
 62
     7
100
AcDbHatch
 10
0.0
 20
0.0
 30
0.0
210
0.0
220
0.0
230
1.0
  2
SOLID
 70
     1
 71
     0
 91
        1
 92
        3
 72
     0
 73
     1
 93
        4
 10
-0.6614583333333333
 20
10.7376736111111
 10
0.6614583333333333
 20
10.7376736111111
 10
0.6614583333333333
 20
-10.7376736111111
 10
-0.6614583333333333
 20
-10.7376736111111
 97
        0
 75
     2
 76
     1
 98
        1
 10
0.0
 20
0.0
  0
ENDBLK
  5
29B8
330
29B4
100
AcDbEntity
  8
0
100
AcDbBlockEnd
  0
BLOCK
  5
29BB
330
29B9
100
AcDbEntity
  8
0
 62
     7
100
AcDbBlockBegin
  2
AI9-BLK6
 70
     0
 10
0.0
 20
0.0
 30
0.0
  3
AI9-BLK6
  1

  0
SPLINE
  5
29BA
330
29B9
100
AcDbEntity
  8
LAYER_1
 62
     7
100
AcDbSpline
210
0.0
220
0.0
230
1.0
 70
    11
 71
     3
 72
    59
 73
    55
 74
     0
 42
0.0000000001
 43
0.0000000001
 40
0.0
 40
0.0
 40
0.0
 40
0.0
 40
1.0
 40
1.0
 40
1.0
 40
2.0
 40
2.0
 40
2.0
 40
3.0
 40
3.0
 40
3.0
 40
4.0
 40
4.0
 40
4.0
 40
5.0
 40
5.0
 40
5.0
 40
6.0
 40
6.0
 40
6.0
 40
7.0
 40
7.0
 40
7.0
 40
8.0
 40
8.0
 40
8.0
 40
9.0
 40
9.0
 40
9.0
 40
10.0
 40
10.0
 40
10.0
 40
11.0
 40
11.0
 40
11.0
 40
12.0
 40
12.0
 40
12.0
 40
13.0
 40
13.0
 40
13.0
 40
14.0
 40
14.0
 40
14.0
 40
15.0
 40
15.0
 40
15.0
 40
16.0
 40
16.0
 40
16.0
 40
17.0
 40
17.0
 40
17.0
 40
18.0
 40
18.0
 40
18.0
 40
18.0
 10
3.062689887152775
 20
9.168088107638887
 30
0.0
 10
3.735172526041666
 20
7.739062499999997
 30
0.0
 10
4.110687934027776
 20
6.116422526041666
 30
0.0
 10
4.189236111111108
 20
4.299479166666666
 30
0.0
 10
4.189236111111108
 20
4.299479166666666
 30
0.0
 10
2.866319444444443
 20
4.299479166666666
 30
0.0
 10
2.866319444444443
 20
4.299479166666666
 30
0.0
 10
2.720936414930555
 20
5.667871093749997
 30
0.0
 10
2.435682508680555
 20
6.752387152777776
 30
0.0
 10
2.009868706597218
 20
7.553027343749997
 30
0.0
 10
1.584054904513888
 20
8.352978515624997
 30
0.0
 10
0.9839192708333332
 20
8.753298611111111
 30
0.0
 10
0.2101508246527778
 20
8.753298611111111
 30
0.0
 10
-0.7386284722222222
 20
8.753298611111111
 30
0.0
 10
-1.503439670138888
 20
8.010536024305555
 30
0.0
 10
-2.083593749999999
 20
6.526388888888886
 30
0.0
 10
-2.664436848958333
 20
5.042241753472221
 30
0.0
 10
-2.954513888888888
 20
2.767100694444443
 30
0.0
 10
-2.954513888888888
 20
-0.2990342881944444
 30
0.0
 10
-2.954513888888888
 20
-2.811197916666666
 30
0.0
 10
-2.693375651041666
 20
-4.847938368055555
 30
0.0
 10
-2.17041015625
 20
-6.409944661458332
 30
0.0
 10
-1.648133680555553
 20
-7.972639973958332
 30
0.0
 10
-0.8640299479166666
 20
-8.753298611111111
 30
0.0
 10
0.1812120225694444
 20
-8.753298611111111
 30
0.0
 10
1.138948567708333
 20
-8.753298611111111
 30
0.0
 10
1.865174696180553
 20
-7.927853732638887
 30
0.0
 10
2.359201388888884
 20
-6.275585937499998
 30
0.0
 10
2.62998589409722
 20
-5.406043836805555
 30
0.0
 10
2.828423394097221
 20
-4.262272135416666
 30
0.0
 10
2.954513888888888
 20
-2.844270833333331
 30
0.0
 10
2.954513888888888
 20
-2.844270833333331
 30
0.0
 10
4.277430555555555
 20
-2.844270833333331
 30
0.0
 10
4.277430555555555
 20
-2.844270833333331
 30
0.0
 10
4.169943576388888
 20
-5.109765624999996
 30
0.0
 10
3.795117187499998
 20
-7.009391276041665
 30
0.0
 10
3.151573350694443
 20
-8.542458767361106
 30
0.0
 10
2.381249999999999
 20
-10.38834092881943
 30
0.0
 10
1.347721354166665
 20
-11.3109375
 30
0.0
 10
0.0509874131944445
 20
-11.3109375
 30
0.0
 10
-1.07004665798611
 20
-11.3109375
 30
0.0
 10
-2.010557725694444
 20
-10.55577256944443
 30
0.0
 10
-2.771234809027776
 20
-9.04475368923611
 30
0.0
 10
-3.775824652777775
 20
-7.046598307291666
 30
0.0
 10
-4.277430555555555
 20
-3.961170789930555
 30
0.0
 10
-4.277430555555555
 20
0.2115288628472222
 30
0.0
 10
-4.277430555555555
 20
3.379638671874998
 30
0.0
 10
-3.902604166666666
 20
5.977929687499997
 30
0.0
 10
-3.151573350694443
 20
8.005712890624996
 30
0.0
 10
-2.333018663194443
 20
10.20919596354165
 30
0.0
 10
-1.20647243923611
 20
11.3109375
 30
0.0
 10
0.2266872829861111
 20
11.3109375
 30
0.0
 10
1.444873046875
 20
11.3109375
 30
0.0
 10
2.390207248263884
 20
10.59642469618055
 30
0.0
 10
3.062689887152775
 20
9.168088107638887
 30
0.0
  0
ENDBLK
  5
29BC
330
29B9
100
AcDbEntity
  8
0
100
AcDbBlockEnd
  0
BLOCK
  5
29C0
330
29BD
100
AcDbEntity
  8
0
 62
     7
100
AcDbBlockBegin
  2
AI9-BLK5
 70
     0
 10
0.0
 20
0.0
 30
0.0
  3
AI9-BLK5
  1

  0
SPLINE
  5
29BE
330
29BD
100
AcDbEntity
  8
LAYER_1
 62
     7
100
AcDbSpline
210
0.0
220
0.0
230
1.0
 70
    11
 71
     3
 72
    32
 73
    28
 74
     0
 42
0.0000000001
 43
0.0000000001
 40
0.0
 40
0.0
 40
0.0
 40
0.0
 40
1.0
 40
1.0
 40
1.0
 40
2.0
 40
2.0
 40
2.0
 40
3.0
 40
3.0
 40
3.0
 40
4.0
 40
4.0
 40
4.0
 40
5.0
 40
5.0
 40
5.0
 40
6.0
 40
6.0
 40
6.0
 40
7.0
 40
7.0
 40
7.0
 40
8.0
 40
8.0
 40
8.0
 40
9.0
 40
9.0
 40
9.0
 40
9.0
 10
-2.62378472222222
 20
-8.268229166666666
 30
0.0
 10
-2.62378472222222
 20
-8.268229166666666
 30
0.0
 10
-2.62378472222222
 20
8.180034722222217
 30
0.0
 10
-2.62378472222222
 20
8.180034722222217
 30
0.0
 10
-2.62378472222222
 20
8.180034722222217
 30
0.0
 10
-0.3376193576388888
 20
8.180034722222217
 30
0.0
 10
-0.3376193576388888
 20
8.180034722222217
 30
0.0
 10
0.6972873263888888
 20
8.180034722222217
 30
0.0
 10
1.449007161458333
 20
7.445540364583332
 30
0.0
 10
1.918918185763885
 20
5.977929687499997
 30
0.0
 10
2.388829210069443
 20
4.510319010416666
 30
0.0
 10
2.62378472222222
 20
2.449462890624999
 30
0.0
 10
2.62378472222222
 20
-0.204638671875
 30
0.0
 10
2.62378472222222
 20
-0.8950358072916666
 30
0.0
 10
2.590022786458332
 20
-1.643310546874999
 30
0.0
 10
2.523187934027773
 20
-2.45015190972222
 30
0.0
 10
2.408121744791666
 20
-3.80200737847222
 30
0.0
 10
2.226220703124999
 20
-4.909950086805555
 30
0.0
 10
1.976795789930553
 20
-5.774669053819441
 30
0.0
 10
1.659847005208333
 20
-6.853672960069442
 30
0.0
 10
1.252636718749998
 20
-7.583344184027778
 30
0.0
 10
0.7544759114583333
 20
-7.962304687499997
 30
0.0
 10
0.4664659288194444
 20
-8.166254340277777
 30
0.0
 10
0.1074869791666666
 20
-8.268229166666666
 30
0.0
 10
-0.3231499565972222
 20
-8.268229166666666
 30
0.0
 10
-0.3231499565972222
 20
-8.268229166666666
 30
0.0
 10
-2.62378472222222
 20
-8.268229166666666
 30
0.0
 10
-2.62378472222222
 20
-8.268229166666666
 30
0.0
  0
SPLINE
  5
29BF
330
29BD
100
AcDbEntity
  8
LAYER_1
 62
     7
100
AcDbSpline
210
0.0
220
0.0
230
1.0
 70
    11
 71
     3
 72
    26
 73
    22
 74
     0
 42
0.0000000001
 43
0.0000000001
 40
0.0
 40
0.0
 40
0.0
 40
0.0
 40
1.0
 40
1.0
 40
1.0
 40
2.0
 40
2.0
 40
2.0
 40
3.0
 40
3.0
 40
3.0
 40
4.0
 40
4.0
 40
4.0
 40
5.0
 40
5.0
 40
5.0
 40
6.0
 40
6.0
 40
6.0
 40
7.0
 40
7.0
 40
7.0
 40
7.0
 10
-3.946701388888888
 20
-10.7376736111111
 30
0.0
 10
-3.946701388888888
 20
-10.7376736111111
 30
0.0
 10
-0.0943956163194444
 20
-10.7376736111111
 30
0.0
 10
-0.0943956163194444
 20
-10.7376736111111
 30
0.0
 10
1.546847873263885
 20
-10.7376736111111
 30
0.0
 10
2.705777994791666
 20
-9.11021050347222
 30
0.0
 10
3.381705729166666
 20
-5.854595269097222
 30
0.0
 10
3.757910156249999
 20
-4.01284722222222
 30
0.0
 10
3.946701388888888
 20
-1.951991102430555
 30
0.0
 10
3.946701388888888
 20
0.328662109375
 30
0.0
 10
3.946701388888888
 20
3.281797960069443
 30
0.0
 10
3.622862413194443
 20
5.703700086805552
 30
0.0
 10
2.976562499999998
 20
7.594368489583332
 30
0.0
 10
2.25171440972222
 20
9.689675564236106
 30
0.0
 10
1.233344184027777
 20
10.7376736111111
 30
0.0
 10
-0.0799262152777778
 20
10.7376736111111
 30
0.0
 10
-0.0799262152777778
 20
10.7376736111111
 30
0.0
 10
-3.946701388888888
 20
10.7376736111111
 30
0.0
 10
-3.946701388888888
 20
10.7376736111111
 30
0.0
 10
-3.946701388888888
 20
10.7376736111111
 30
0.0
 10
-3.946701388888888
 20
-10.7376736111111
 30
0.0
 10
-3.946701388888888
 20
-10.7376736111111
 30
0.0
  0
ENDBLK
  5
29C1
330
29BD
100
AcDbEntity
  8
0
100
AcDbBlockEnd
  0
BLOCK
  5
29C5
330
29C2
100
AcDbEntity
  8
0
 62
     7
100
AcDbBlockBegin
  2
AI9-BLK4
 70
     0
 10
0.0
 20
0.0
 30
0.0
  3
AI9-BLK4
  1

  0
SPLINE
  5
29C3
330
29C2
100
AcDbEntity
  8
LAYER_1
 62
     7
100
AcDbSpline
210
0.0
220
0.0
230
1.0
 70
    11
 71
     3
 72
    26
 73
    22
 74
     0
 42
0.0000000001
 43
0.0000000001
 40
0.0
 40
0.0
 40
0.0
 40
0.0
 40
1.0
 40
1.0
 40
1.0
 40
2.0
 40
2.0
 40
2.0
 40
3.0
 40
3.0
 40
3.0
 40
4.0
 40
4.0
 40
4.0
 40
5.0
 40
5.0
 40
5.0
 40
6.0
 40
6.0
 40
6.0
 40
7.0
 40
7.0
 40
7.0
 40
7.0
 10
-2.645833333333333
 20
0.9039930555555551
 30
0.0
 10
-2.645833333333333
 20
0.9039930555555551
 30
0.0
 10
-2.645833333333333
 20
8.180034722222217
 30
0.0
 10
-2.645833333333333
 20
8.180034722222217
 30
0.0
 10
-2.645833333333333
 20
8.180034722222217
 30
0.0
 10
0.465087890625
 20
8.180034722222217
 30
0.0
 10
0.465087890625
 20
8.180034722222217
 30
0.0
 10
0.9026150173611108
 20
8.180034722222217
 30
0.0
 10
1.24988064236111
 20
8.034651692708331
 30
0.0
 10
1.506884765625
 20
7.745263671874997
 30
0.0
 10
2.001600477430554
 20
7.194048394097221
 30
0.0
 10
2.248958333333332
 20
6.160519748263887
 30
0.0
 10
2.248958333333332
 20
4.643299696180553
 30
0.0
 10
2.248958333333332
 20
3.232188585069443
 30
0.0
 10
2.072569444444444
 20
2.256537543402775
 30
0.0
 10
1.720480685763888
 20
1.715657552083333
 30
0.0
 10
1.368391927083333
 20
1.174088541666665
 30
0.0
 10
0.8929687499999998
 20
0.9039930555555551
 30
0.0
 10
0.2942111545138888
 20
0.9039930555555551
 30
0.0
 10
0.2942111545138888
 20
0.9039930555555551
 30
0.0
 10
-2.645833333333333
 20
0.9039930555555551
 30
0.0
 10
-2.645833333333333
 20
0.9039930555555551
 30
0.0
  0
SPLINE
  5
29C4
330
29C2
100
AcDbEntity
  8
LAYER_1
 62
     7
100
AcDbSpline
210
0.0
220
0.0
230
1.0
 70
    11
 71
     3
 72
    68
 73
    64
 74
     0
 42
0.0000000001
 43
0.0000000001
 40
0.0
 40
0.0
 40
0.0
 40
0.0
 40
1.0
 40
1.0
 40
1.0
 40
2.0
 40
2.0
 40
2.0
 40
3.0
 40
3.0
 40
3.0
 40
4.0
 40
4.0
 40
4.0
 40
5.0
 40
5.0
 40
5.0
 40
6.0
 40
6.0
 40
6.0
 40
7.0
 40
7.0
 40
7.0
 40
8.0
 40
8.0
 40
8.0
 40
9.0
 40
9.0
 40
9.0
 40
10.0
 40
10.0
 40
10.0
 40
11.0
 40
11.0
 40
11.0
 40
12.0
 40
12.0
 40
12.0
 40
13.0
 40
13.0
 40
13.0
 40
14.0
 40
14.0
 40
14.0
 40
15.0
 40
15.0
 40
15.0
 40
16.0
 40
16.0
 40
16.0
 40
17.0
 40
17.0
 40
17.0
 40
18.0
 40
18.0
 40
18.0
 40
19.0
 40
19.0
 40
19.0
 40
20.0
 40
20.0
 40
20.0
 40
21.0
 40
21.0
 40
21.0
 40
21.0
 10
-3.968749999999998
 20
-10.7376736111111
 30
0.0
 10
-3.968749999999998
 20
-10.7376736111111
 30
0.0
 10
-2.645833333333333
 20
-10.7376736111111
 30
0.0
 10
-2.645833333333333
 20
-10.7376736111111
 30
0.0
 10
-2.645833333333333
 20
-10.7376736111111
 30
0.0
 10
-2.645833333333333
 20
-1.521354166666665
 30
0.0
 10
-2.645833333333333
 20
-1.521354166666665
 30
0.0
 10
-2.645833333333333
 20
-1.521354166666665
 30
0.0
 10
0.2390896267361111
 20
-1.521354166666665
 30
0.0
 10
0.2390896267361111
 20
-1.521354166666665
 30
0.0
 10
0.7599880642361111
 20
-1.521354166666665
 30
0.0
 10
1.143771701388887
 20
-1.65295681423611
 30
0.0
 10
1.390440538194444
 20
-1.916162109374999
 30
0.0
 10
1.816254340277773
 20
-2.39434136284722
 30
0.0
 10
2.04363064236111
 20
-3.335541449652775
 30
0.0
 10
2.072569444444444
 20
-4.739762369791666
 30
0.0
 10
2.072569444444444
 20
-4.739762369791666
 30
0.0
 10
2.160763888888888
 20
-8.324039713541665
 30
0.0
 10
2.160763888888888
 20
-8.324039713541665
 30
0.0
 10
2.18005642361111
 20
-9.163264973958332
 30
0.0
 10
2.202794053819443
 20
-9.728949652777775
 30
0.0
 10
2.227598741319444
 20
-10.02109374999998
 30
0.0
 10
2.252403428819443
 20
-10.31392686631944
 30
0.0
 10
2.28892144097222
 20
-10.55301649305555
 30
0.0
 10
2.33853081597222
 20
-10.7376736111111
 30
0.0
 10
2.33853081597222
 20
-10.7376736111111
 30
0.0
 10
3.968749999999998
 20
-10.7376736111111
 30
0.0
 10
3.968749999999998
 20
-10.7376736111111
 30
0.0
 10
3.968749999999998
 20
-10.7376736111111
 30
0.0
 10
3.968749999999998
 20
-10.25260416666666
 30
0.0
 10
3.968749999999998
 20
-10.25260416666666
 30
0.0
 10
3.766867404513888
 20
-10.05830078125
 30
0.0
 10
3.625618489583333
 20
-9.621462673611112
 30
0.0
 10
3.545692274305555
 20
-8.942089843749997
 30
0.0
 10
3.49470486111111
 20
-8.543836805555555
 30
0.0
 10
3.459564887152775
 20
-7.937499999999999
 30
0.0
 10
3.439583333333333
 20
-7.121701388888887
 30
0.0
 10
3.439583333333333
 20
-7.121701388888887
 30
0.0
 10
3.395486111111106
 20
-4.232644314236106
 30
0.0
 10
3.395486111111106
 20
-4.232644314236106
 30
0.0
 10
3.375504557291666
 20
-2.981385633680555
 30
0.0
 10
3.26870659722222
 20
-2.077392578125
 30
0.0
 10
3.075781249999999
 20
-1.522043185763888
 30
0.0
 10
2.882166883680555
 20
-0.9666937934027776
 30
0.0
 10
2.592089843749999
 20
-0.5188313802083333
 30
0.0
 10
2.204861111111106
 20
-0.1770779079861111
 30
0.0
 10
2.63618706597222
 20
0.3197048611111111
 30
0.0
 10
2.971739366319443
 20
0.9770290798611107
 30
0.0
 10
3.211518012152775
 20
1.79558376736111
 30
0.0
 10
3.451296657986107
 20
2.613449435763888
 30
0.0
 10
3.571874999999999
 20
3.66558159722222
 30
0.0
 10
3.571874999999999
 20
4.951291232638888
 30
0.0
 10
3.571874999999999
 20
7.415912543402777
 30
0.0
 10
3.124701605902775
 20
9.106076388888887
 30
0.0
 10
2.231043836805555
 20
10.02178276909722
 30
0.0
 10
1.759754774305553
 20
10.498583984375
 30
0.0
 10
1.163753255208332
 20
10.7376736111111
 30
0.0
 10
0.443039279513889
 20
10.7376736111111
 30
0.0
 10
0.443039279513889
 20
10.7376736111111
 30
0.0
 10
-3.968749999999998
 20
10.7376736111111
 30
0.0
 10
-3.968749999999998
 20
10.7376736111111
 30
0.0
 10
-3.968749999999998
 20
10.7376736111111
 30
0.0
 10
-3.968749999999998
 20
-10.7376736111111
 30
0.0
 10
-3.968749999999998
 20
-10.7376736111111
 30
0.0
  0
ENDBLK
  5
29C6
330
29C2
100
AcDbEntity
  8
0
100
AcDbBlockEnd
  0
BLOCK
  5
29CA
330
29C7
100
AcDbEntity
  8
0
 62
     7
100
AcDbBlockBegin
  2
AI9-BLK3
 70
     0
 10
0.0
 20
0.0
 30
0.0
  3
AI9-BLK3
  1

  0
LWPOLYLINE
  5
29C8
330
29C7
100
AcDbEntity
  8
LAYER_1
 62
     7
100
AcDbPolyline
 90
        4
 70
     1
 43
0.0
 10
-0.6613722059461809
 20
10.7376736111111
 10
0.6613722059461809
 20
10.7376736111111
 10
0.6613722059461809
 20
-10.7376736111111
 10
-0.6613722059461809
 20
-10.7376736111111
  0
HATCH
  5
29C9
330
29C7
100
AcDbEntity
  8
LAYER_1
 62
     7
100
AcDbHatch
 10
0.0
 20
0.0
 30
0.0
210
0.0
220
0.0
230
1.0
  2
SOLID
 70
     1
 71
     0
 91
        1
 92
        3
 72
     0
 73
     1
 93
        4
 10
-0.6613722059461809
 20
10.7376736111111
 10
0.6613722059461809
 20
10.7376736111111
 10
0.6613722059461809
 20
-10.7376736111111
 10
-0.6613722059461809
 20
-10.7376736111111
 97
        0
 75
     2
 76
     1
 98
        1
 10
0.0
 20
0.0
  0
ENDBLK
  5
29CB
330
29C7
100
AcDbEntity
  8
0
100
AcDbBlockEnd
  0
BLOCK
  5
29CF
330
29CC
100
AcDbEntity
  8
0
 62
     7
100
AcDbBlockBegin
  2
AI9-BLK2
 70
     0
 10
0.0
 20
0.0
 30
0.0
  3
AI9-BLK2
  1

  0
LWPOLYLINE
  5
29CD
330
29CC
100
AcDbEntity
  8
LAYER_1
 62
     7
100
AcDbPolyline
 90
        7
 70
     1
 43
0.0
 10
-2.785704210069443
 20
10.7376736111111
 10
0.0
 20
-7.550960286458332
 10
2.771234809027776
 20
10.7376736111111
 10
4.233333333333331
 20
10.7376736111111
 10
0.6910861545138888
 20
-10.7376736111111
 10
-0.7055555555555558
 20
-10.7376736111111
 10
-4.233333333333331
 20
10.7376736111111
  0
HATCH
  5
29CE
330
29CC
100
AcDbEntity
  8
LAYER_1
 62
     7
100
AcDbHatch
 10
0.0
 20
0.0
 30
0.0
210
0.0
220
0.0
230
1.0
  2
SOLID
 70
     1
 71
     0
 91
        1
 92
        3
 72
     0
 73
     1
 93
        7
 10
-2.785704210069443
 20
10.7376736111111
 10
0.0
 20
-7.550960286458332
 10
2.771234809027776
 20
10.7376736111111
 10
4.233333333333331
 20
10.7376736111111
 10
0.6910861545138888
 20
-10.7376736111111
 10
-0.7055555555555558
 20
-10.7376736111111
 10
-4.233333333333331
 20
10.7376736111111
 97
        0
 75
     2
 76
     1
 98
        1
 10
0.0
 20
0.0
  0
ENDBLK
  5
29D0
330
29CC
100
AcDbEntity
  8
0
100
AcDbBlockEnd
  0
BLOCK
  5
29D4
330
29D1
100
AcDbEntity
  8
0
 62
     7
100
AcDbBlockBegin
  2
AI9-BLK1
 70
     0
 10
0.0
 20
0.0
 30
0.0
  3
AI9-BLK1
  1

  0
LWPOLYLINE
  5
29D2
330
29D1
100
AcDbEntity
  8
LAYER_1
 62
     7
100
AcDbPolyline
 90
       12
 70
     1
 43
0.0
 10
-3.571874999999999
 20
10.7376736111111
 10
3.483680555555555
 20
10.7376736111111
 10
3.483680555555555
 20
8.091840277777777
 10
-2.248958333333332
 20
8.091840277777777
 10
-2.248958333333332
 20
1.565451388888888
 10
3.042708333333333
 20
1.565451388888888
 10
3.042708333333333
 20
-0.9039930555555551
 10
-2.248958333333332
 20
-0.9039930555555551
 10
-2.248958333333332
 20
-8.180034722222217
 10
3.571874999999999
 20
-8.180034722222217
 10
3.571874999999999
 20
-10.7376736111111
 10
-3.571874999999999
 20
-10.7376736111111
  0
HATCH
  5
29D3
330
29D1
100
AcDbEntity
  8
LAYER_1
 62
     7
100
AcDbHatch
 10
0.0
 20
0.0
 30
0.0
210
0.0
220
0.0
230
1.0
  2
SOLID
 70
     1
 71
     0
 91
        1
 92
        3
 72
     0
 73
     1
 93
       12
 10
-3.571874999999999
 20
10.7376736111111
 10
3.483680555555555
 20
10.7376736111111
 10
3.483680555555555
 20
8.091840277777777
 10
-2.248958333333332
 20
8.091840277777777
 10
-2.248958333333332
 20
1.565451388888888
 10
3.042708333333333
 20
1.565451388888888
 10
3.042708333333333
 20
-0.9039930555555551
 10
-2.248958333333332
 20
-0.9039930555555551
 10
-2.248958333333332
 20
-8.180034722222217
 10
3.571874999999999
 20
-8.180034722222217
 10
3.571874999999999
 20
-10.7376736111111
 10
-3.571874999999999
 20
-10.7376736111111
 97
        0
 75
     2
 76
     1
 98
        1
 10
0.0
 20
0.0
  0
ENDBLK
  5
29D5
330
29D1
100
AcDbEntity
  8
0
100
AcDbBlockEnd
  0
BLOCK
  5
29F9
330
29D6
100
AcDbEntity
  8
0
100
AcDbBlockBegin
  2
HD_LLC_logo_OT5
 70
     0
 10
0.0
 20
0.0
 30
0.0
  3
HD_LLC_logo_OT5
  1

  0
SPLINE
  5
29D7
102
{ACAD_REACTORS
330
29F7
102
}
330
29D6
100
AcDbEntity
  8
LAYER_1
 62
     7
100
AcDbSpline
210
0.0
220
0.0
230
1.0
 70
    11
 71
     3
 72
   113
 73
   109
 74
     0
 42
0.0000000001
 43
0.0000000001
 40
0.0
 40
0.0
 40
0.0
 40
0.0
 40
1.0
 40
1.0
 40
1.0
 40
2.0
 40
2.0
 40
2.0
 40
3.0
 40
3.0
 40
3.0
 40
4.0
 40
4.0
 40
4.0
 40
5.0
 40
5.0
 40
5.0
 40
6.0
 40
6.0
 40
6.0
 40
7.0
 40
7.0
 40
7.0
 40
8.0
 40
8.0
 40
8.0
 40
9.0
 40
9.0
 40
9.0
 40
10.0
 40
10.0
 40
10.0
 40
11.0
 40
11.0
 40
11.0
 40
12.0
 40
12.0
 40
12.0
 40
13.0
 40
13.0
 40
13.0
 40
14.0
 40
14.0
 40
14.0
 40
15.0
 40
15.0
 40
15.0
 40
16.0
 40
16.0
 40
16.0
 40
17.0
 40
17.0
 40
17.0
 40
18.0
 40
18.0
 40
18.0
 40
19.0
 40
19.0
 40
19.0
 40
20.0
 40
20.0
 40
20.0
 40
21.0
 40
21.0
 40
21.0
 40
22.0
 40
22.0
 40
22.0
 40
23.0
 40
23.0
 40
23.0
 40
24.0
 40
24.0
 40
24.0
 40
25.0
 40
25.0
 40
25.0
 40
26.0
 40
26.0
 40
26.0
 40
27.0
 40
27.0
 40
27.0
 40
28.0
 40
28.0
 40
28.0
 40
29.0
 40
29.0
 40
29.0
 40
30.0
 40
30.0
 40
30.0
 40
31.0
 40
31.0
 40
31.0
 40
32.0
 40
32.0
 40
32.0
 40
33.0
 40
33.0
 40
33.0
 40
34.0
 40
34.0
 40
34.0
 40
35.0
 40
35.0
 40
35.0
 40
36.0
 40
36.0
 40
36.0
 40
36.0
 10
193.3039632161458
 20
186.1548733181423
 30
0.0
 10
193.3039632161458
 20
186.1860514322916
 30
0.0
 10
193.3039632161458
 20
219.6932223849826
 30
0.0
 10
193.3039632161458
 20
219.6932223849826
 30
0.0
 10
193.3039632161458
 20
219.6932223849826
 30
0.0
 10
193.2974175347219
 20
219.7488606770833
 30
0.0
 10
193.2974175347219
 20
219.7488606770833
 30
0.0
 10
191.5293945312499
 20
235.455740017361
 30
0.0
 10
175.1458984374999
 20
235.2467949761284
 30
0.0
 10
174.9808783637151
 20
235.2428331163193
 30
0.0
 10
174.9808783637151
 20
235.2428331163193
 30
0.0
 10
125.8827555338541
 20
235.2430053710937
 30
0.0
 10
125.8827555338541
 20
235.2430053710937
 30
0.0
 10
125.8827555338541
 20
235.2430053710937
 30
0.0
 10
125.8827555338541
 20
255.5278998480901
 30
0.0
 10
125.8827555338541
 20
255.5278998480901
 30
0.0
 10
125.8827555338541
 20
255.5278998480901
 30
0.0
 10
84.5626247829861
 20
255.5278998480901
 30
0.0
 10
84.5626247829861
 20
255.5278998480901
 30
0.0
 10
84.5626247829861
 20
255.5278998480901
 30
0.0
 10
84.55711263020829
 20
233.7919311523436
 30
0.0
 10
84.55711263020829
 20
233.7919311523436
 30
0.0
 10
84.55711263020829
 20
233.7919311523436
 30
0.0
 10
64.42052951388888
 20
233.7919311523436
 30
0.0
 10
64.42052951388888
 20
233.7919311523436
 30
0.0
 10
64.42052951388888
 20
233.7919311523436
 30
0.0
 10
64.41501736111111
 20
255.5278998480901
 30
0.0
 10
64.41501736111111
 20
255.5278998480901
 30
0.0
 10
64.41501736111111
 20
255.5278998480901
 30
0.0
 10
23.91757541232637
 20
255.5278998480901
 30
0.0
 10
23.91757541232637
 20
255.5278998480901
 30
0.0
 10
23.91757541232637
 20
255.5278998480901
 30
0.0
 10
23.91757541232637
 20
233.2393378363715
 30
0.0
 10
23.91757541232637
 20
233.2393378363715
 30
0.0
 10
23.91757541232637
 20
233.2393378363715
 30
0.0
 10
43.65624999999999
 20
233.2393378363715
 30
0.0
 10
43.65624999999999
 20
233.2393378363715
 30
0.0
 10
43.65624999999999
 20
233.2393378363715
 30
0.0
 10
43.65624999999999
 20
211.5188720703125
 30
0.0
 10
43.65624999999999
 20
211.5188720703125
 30
0.0
 10
43.65624999999999
 20
211.5188720703125
 30
0.0
 10
23.91757541232637
 20
211.5188720703125
 30
0.0
 10
23.91757541232637
 20
211.5188720703125
 30
0.0
 10
23.91757541232637
 20
211.5188720703125
 30
0.0
 10
23.91757541232637
 20
189.2303100585936
 30
0.0
 10
23.91757541232637
 20
189.2303100585936
 30
0.0
 10
23.91757541232637
 20
189.2303100585936
 30
0.0
 10
64.41501736111111
 20
189.2303100585936
 30
0.0
 10
64.41501736111111
 20
189.2303100585936
 30
0.0
 10
64.41501736111111
 20
189.2303100585936
 30
0.0
 10
64.42052951388888
 20
211.069976128472
 30
0.0
 10
64.42052951388888
 20
211.069976128472
 30
0.0
 10
64.42052951388888
 20
211.069976128472
 30
0.0
 10
84.55711263020829
 20
211.069976128472
 30
0.0
 10
84.55711263020829
 20
211.069976128472
 30
0.0
 10
84.55711263020829
 20
211.069976128472
 30
0.0
 10
84.5626247829861
 20
189.2303100585936
 30
0.0
 10
84.5626247829861
 20
189.2303100585936
 30
0.0
 10
84.5626247829861
 20
189.2303100585936
 30
0.0
 10
125.8827555338541
 20
189.2303100585936
 30
0.0
 10
125.8827555338541
 20
189.2303100585936
 30
0.0
 10
125.8827555338541
 20
189.2303100585936
 30
0.0
 10
125.8827555338541
 20
211.5188720703125
 30
0.0
 10
125.8827555338541
 20
211.5188720703125
 30
0.0
 10
125.8827555338541
 20
211.5188720703125
 30
0.0
 10
105.3213921440971
 20
211.5188720703125
 30
0.0
 10
105.3213921440971
 20
211.5188720703125
 30
0.0
 10
105.3213921440971
 20
211.5188720703125
 30
0.0
 10
105.3213921440971
 20
233.2393378363715
 30
0.0
 10
105.3213921440971
 20
233.2393378363715
 30
0.0
 10
105.3213921440971
 20
233.2393378363715
 30
0.0
 10
175.0046495225693
 20
233.243127441406
 30
0.0
 10
175.0046495225693
 20
233.243127441406
 30
0.0
 10
175.6268337673611
 20
233.2560465494791
 30
0.0
 10
189.7165852864583
 20
233.3962619357638
 30
0.0
 10
191.3037407769094
 20
219.5690266927083
 30
0.0
 10
191.3037407769094
 20
219.4332899305555
 30
0.0
 10
191.3037407769094
 20
186.1142211914062
 30
0.0
 10
191.3037407769094
 20
186.1142211914062
 30
0.0
 10
191.3037407769094
 20
186.1142211914062
 30
0.0
 10
191.3051188151039
 20
186.0880384657115
 30
0.0
 10
191.3051188151039
 20
186.0880384657115
 30
0.0
 10
191.3054633246526
 20
186.0787367078991
 30
0.0
 10
191.3109754774304
 20
185.9566080729166
 30
0.0
 10
191.3109754774304
 20
185.7399115668401
 30
0.0
 10
191.3109754774304
 20
184.2090833875865
 30
0.0
 10
191.0488037109374
 20
177.9643310546874
 30
0.0
 10
186.9866916232638
 20
173.5652886284722
 30
0.0
 10
184.2540418836804
 20
170.6064683702255
 30
0.0
 10
180.3224989149304
 20
169.0308539496526
 30
0.0
 10
175.300927734375
 20
168.8825425889756
 30
0.0
 10
175.300927734375
 20
168.8825425889756
 30
0.0
 10
107.0094889322916
 20
168.8828870985243
 30
0.0
 10
107.0094889322916
 20
168.8828870985243
 30
0.0
 10
107.0094889322916
 20
168.8828870985243
 30
0.0
 10
107.0094889322916
 20
166.8830091688368
 30
0.0
 10
107.0094889322916
 20
166.8830091688368
 30
0.0
 10
107.0094889322916
 20
166.8830091688368
 30
0.0
 10
175.3305555555555
 20
166.8830091688368
 30
0.0
 10
175.3305555555555
 20
166.8830091688368
 30
0.0
 10
180.9467502170138
 20
167.0485460069444
 30
0.0
 10
185.3571614583333
 20
168.8448187934026
 30
0.0
 10
188.4687717013888
 20
172.2223904079861
 30
0.0
 10
192.9649658203124
 20
177.1034016927083
 30
0.0
 10
193.3136094835069
 20
183.7202243381076
 30
0.0
 10
193.3136094835069
 20
185.6520616319443
 30
0.0
 10
193.3136094835069
 20
185.9247409396701
 30
0.0
 10
193.3070638020833
 20
186.0868326822916
 30
0.0
 10
193.3039632161458
 20
186.1548733181423
 30
0.0
  0
INSERT
  5
29D8
102
{ACAD_REACTORS
330
29F8
102
}
330
29D6
100
AcDbEntity
  8
LAYER_1
 62
     7
100
AcDbBlockReference
  2
AI9-BLK14
 10
159.5625257703993
 20
200.5118781195744
 30
0.0
  0
INSERT
  5
29D9
330
29D6
100
AcDbEntity
  8
LAYER_1
 62
     7
100
AcDbBlockReference
  2
AI9-BLK13
 10
27.69615614149305
 20
179.2145562065971
 30
0.0
 42
0.9200000000000001
  0
INSERT
  5
29DA
102
{ACAD_REACTORS
330
29E5
102
}
330
29D6
100
AcDbEntity
  8
LAYER_1
 62
     7
100
AcDbBlockReference
  2
AI9-BLK11
 10
44.76591525607638
 20
179.2145562065971
 30
0.0
 42
0.9200000000000001
  0
INSERT
  5
29DB
102
{ACAD_REACTORS
330
29F3
102
}
330
29D6
100
AcDbEntity
  8
LAYER_1
 62
     7
100
AcDbBlockReference
  2
AI9-BLK10
 10
54.04665798611111
 20
179.2145562065971
 30
0.0
 42
0.9200000000000001
  0
INSERT
  5
29DC
102
{ACAD_REACTORS
330
29F2
102
}
330
29D6
100
AcDbEntity
  8
LAYER_1
 62
     7
100
AcDbBlockReference
  2
AI9-BLK9
 10
62.79013807508679
 20
179.2145562065971
 30
0.0
 42
0.9
  0
INSERT
  5
29DD
330
29D6
100
AcDbEntity
  8
LAYER_1
 62
     7
100
AcDbBlockReference
  2
AI9-BLK8
 10
71.03046196831595
 20
179.2145562065971
 30
0.0
 42
0.9200000000000001
  0
INSERT
  5
29DE
330
29D6
100
AcDbEntity
  8
LAYER_1
 62
     7
100
AcDbBlockReference
  2
AI9-BLK7
 10
76.93793945312498
 20
179.2145562065971
 30
0.0
 42
0.9200000000000001
  0
INSERT
  5
29DF
102
{ACAD_REACTORS
330
29E6
102
}
330
29D6
100
AcDbEntity
  8
LAYER_1
 62
     7
100
AcDbBlockReference
  2
AI9-BLK6
 10
82.55602891710069
 20
179.2145562065971
 30
0.0
 42
0.9
  0
INSERT
  5
29E0
102
{ACAD_REACTORS
330
29F4
102
}
330
29D6
100
AcDbEntity
  8
LAYER_1
 62
     7
100
AcDbBlockReference
  2
AI9-BLK5
 10
94.32430284288193
 20
179.2145562065971
 30
0.0
 42
0.9200000000000001
  0
INSERT
  5
29E1
102
{ACAD_REACTORS
330
29F5
102
}
330
29D6
100
AcDbEntity
  8
LAYER_1
 62
     7
100
AcDbBlockReference
  2
AI9-BLK4
 10
103.2081705729166
 20
179.2145562065971
 30
0.0
 42
0.9200000000000001
  0
INSERT
  5
29E2
330
29D6
100
AcDbEntity
  8
LAYER_1
 62
     7
100
AcDbBlockReference
  2
AI9-BLK3
 10
108.850978597005
 20
179.2145562065971
 30
0.0
 42
0.9200000000000001
  0
INSERT
  5
29E3
330
29D6
100
AcDbEntity
  8
LAYER_1
 62
     7
100
AcDbBlockReference
  2
AI9-BLK2
 10
114.2045708550346
 20
179.2145562065971
 30
0.0
 42
0.9200000000000001
  0
INSERT
  5
29E4
330
29D6
100
AcDbEntity
  8
LAYER_1
 62
     7
100
AcDbBlockReference
  2
AI9-BLK1
 10
122.4125108506944
 20
179.2145562065971
 30
0.0
 42
0.9200000000000001
  0
HATCH
  5
29E5
330
29D6
100
AcDbEntity
  8
0
  6
Continuous
100
AcDbHatch
 10
0.0
 20
0.0
 30
0.0
210
0.0
220
0.0
230
1.0
  2
SOLID
 70
     1
 71
     1
 91
        2
 92
       16
 93
        1
 72
     4
 94
        3
 73
     0
 74
     0
 95
       26
 96
       22
 40
0.0
 40
0.0
 40
0.0
 40
0.0
 40
1.0
 40
1.0
 40
1.0
 40
2.0
 40
2.0
 40
2.0
 40
3.0
 40
3.0
 40
3.0
 40
4.0
 40
4.0
 40
4.0
 40
5.0
 40
5.0
 40
5.0
 40
6.0
 40
6.0
 40
6.0
 40
7.0
 40
7.0
 40
7.0
 40
7.0
 10
42.12008192274304
 20
180.046229817708
 10
42.12008192274304
 20
180.046229817708
 10
42.12008192274304
 20
186.7401881510414
 10
42.12008192274304
 20
186.7401881510414
 10
42.12008192274304
 20
186.7401881510414
 10
45.23100314670138
 20
186.7401881510414
 10
45.23100314670138
 20
186.7401881510414
 10
45.66853027343749
 20
186.7401881510414
 10
46.01579589843749
 20
186.6064357638887
 10
46.27280002170138
 20
186.3401987847218
 10
46.76751573350694
 20
185.8330807291664
 10
47.01487358940972
 20
184.8822343749996
 10
47.01487358940972
 20
183.4863919270832
 10
47.01487358940972
 20
182.188169704861
 10
46.83848470052082
 20
181.2905707465276
 10
46.48639594184028
 20
180.7929611545137
 10
46.13430718315971
 20
180.2947176649304
 10
45.65888400607638
 20
180.046229817708
 10
45.06012641059028
 20
180.046229817708
 10
45.06012641059028
 20
180.046229817708
 10
42.12008192274304
 20
180.046229817708
 10
42.12008192274304
 20
180.046229817708
 97
        1
330
29DA
 92
        1
 93
        1
 72
     4
 94
        3
 73
     0
 74
     0
 95
       68
 96
       64
 40
0.0
 40
0.0
 40
0.0
 40
0.0
 40
1.0
 40
1.0
 40
1.0
 40
2.0
 40
2.0
 40
2.0
 40
3.0
 40
3.0
 40
3.0
 40
4.0
 40
4.0
 40
4.0
 40
5.0
 40
5.0
 40
5.0
 40
6.0
 40
6.0
 40
6.0
 40
7.0
 40
7.0
 40
7.0
 40
8.0
 40
8.0
 40
8.0
 40
9.0
 40
9.0
 40
9.0
 40
10.0
 40
10.0
 40
10.0
 40
11.0
 40
11.0
 40
11.0
 40
12.0
 40
12.0
 40
12.0
 40
13.0
 40
13.0
 40
13.0
 40
14.0
 40
14.0
 40
14.0
 40
15.0
 40
15.0
 40
15.0
 40
16.0
 40
16.0
 40
16.0
 40
17.0
 40
17.0
 40
17.0
 40
18.0
 40
18.0
 40
18.0
 40
19.0
 40
19.0
 40
19.0
 40
20.0
 40
20.0
 40
20.0
 40
21.0
 40
21.0
 40
21.0
 40
21.0
 10
40.79716525607638
 20
169.3358964843748
 10
40.79716525607638
 20
169.3358964843748
 10
42.12008192274304
 20
169.3358964843748
 10
42.12008192274304
 20
169.3358964843748
 10
42.12008192274304
 20
169.3358964843748
 10
42.12008192274304
 20
177.8149103732637
 10
42.12008192274304
 20
177.8149103732637
 10
42.12008192274304
 20
177.8149103732637
 10
45.00500488281249
 20
177.8149103732637
 10
45.00500488281249
 20
177.8149103732637
 10
45.52590332031249
 20
177.8149103732637
 10
45.90968695746528
 20
177.6938359374998
 10
46.15635579427083
 20
177.4516870659719
 10
46.58216959635415
 20
177.0117621527776
 10
46.80954589843749
 20
176.1458580729164
 10
46.83848470052082
 20
174.8539748263887
 10
46.83848470052082
 20
174.8539748263887
 10
46.92667914496527
 20
171.5564396701385
 10
46.92667914496527
 20
171.5564396701385
 10
46.94597167968749
 20
170.7843524305554
 10
46.96870930989581
 20
170.2639225260415
 10
46.99351399739582
 20
169.9951499565971
 10
47.01831868489581
 20
169.725743489583
 10
47.0548366970486
 20
169.5057810329859
 10
47.10444607204859
 20
169.3358964843748
 10
47.10444607204859
 20
169.3358964843748
 10
48.73466525607638
 20
169.3358964843748
 10
48.73466525607638
 20
169.3358964843748
 10
48.73466525607638
 20
169.3358964843748
 10
48.73466525607638
 20
169.7821603732635
 10
48.73466525607638
 20
169.7821603732635
 10
48.53278266059028
 20
169.9609194878471
 10
48.39153374565971
 20
170.3628105468748
 10
48.31160753038194
 20
170.9878335503471
 10
48.26062011718749
 20
171.3542263454858
 10
48.22548014322915
 20
171.9120562065971
 10
48.20549858940971
 20
172.6625909288193
 10
48.20549858940971
 20
172.6625909288193
 10
48.16140136718749
 20
175.3205234374999
 10
48.16140136718749
 20
175.3205234374999
 10
48.14141981336803
 20
176.4716814236109
 10
48.03462185329859
 20
177.3033550347219
 10
47.84169650607638
 20
177.8142764756941
 10
47.64808213975693
 20
178.3251979166665
 10
47.35800509982638
 20
178.7372313368054
 10
46.97077636718749
 20
179.0516445312498
 10
47.4021023220486
 20
179.5086846788193
 10
47.73765462239582
 20
180.1134229600693
 10
47.97743326822915
 20
180.8664932725691
 10
48.21721191406249
 20
181.6189296874999
 10
48.33779025607638
 20
182.5868912760413
 10
48.33779025607638
 20
183.7697441406248
 10
48.33779025607638
 20
186.0371957465274
 10
47.89061686197916
 20
187.5921464843749
 10
46.99695909288194
 20
188.4345963541665
 10
46.52567003038194
 20
188.8732534722221
 10
45.92966851128472
 20
189.0932159288193
 10
45.20895453559027
 20
189.0932159288193
 10
45.20895453559027
 20
189.0932159288193
 10
40.79716525607638
 20
189.0932159288193
 10
40.79716525607638
 20
189.0932159288193
 10
40.79716525607638
 20
189.0932159288193
 10
40.79716525607638
 20
169.3358964843748
 10
40.79716525607638
 20
169.3358964843748
 97
        0
 75
     0
 76
     1
 98
        0
  0
HATCH
  5
29E6
330
29D6
100
AcDbEntity
  8
0
  6
Continuous
100
AcDbHatch
 10
0.0
 20
0.0
 30
0.0
210
0.0
220
0.0
230
1.0
  2
SOLID
 70
     1
 71
     1
 91
        1
 92
        1
 93
        1
 72
     4
 94
        3
 73
     0
 74
     0
 95
       59
 96
       55
 40
0.0
 40
0.0
 40
0.0
 40
0.0
 40
1.0
 40
1.0
 40
1.0
 40
2.0
 40
2.0
 40
2.0
 40
3.0
 40
3.0
 40
3.0
 40
4.0
 40
4.0
 40
4.0
 40
5.0
 40
5.0
 40
5.0
 40
6.0
 40
6.0
 40
6.0
 40
7.0
 40
7.0
 40
7.0
 40
8.0
 40
8.0
 40
8.0
 40
9.0
 40
9.0
 40
9.0
 40
10.0
 40
10.0
 40
10.0
 40
11.0
 40
11.0
 40
11.0
 40
12.0
 40
12.0
 40
12.0
 40
13.0
 40
13.0
 40
13.0
 40
14.0
 40
14.0
 40
14.0
 40
15.0
 40
15.0
 40
15.0
 40
16.0
 40
16.0
 40
16.0
 40
17.0
 40
17.0
 40
17.0
 40
18.0
 40
18.0
 40
18.0
 40
18.0
 10
85.61871880425345
 20
187.4658355034721
 10
86.29120144314232
 20
186.1797124565971
 10
86.66671685112847
 20
184.7193364800346
 10
86.7452650282118
 20
183.0840874565969
 10
86.7452650282118
 20
183.0840874565969
 10
85.42234836154511
 20
183.0840874565969
 10
85.42234836154511
 20
183.0840874565969
 10
85.27696533203123
 20
184.3156401909719
 10
84.99171142578125
 20
185.2917046440971
 10
84.56589762369791
 20
186.0122808159719
 10
84.14008382161458
 20
186.7322368706594
 10
83.53994818793401
 20
187.0925249565969
 10
82.76617974175342
 20
187.0925249565969
 10
81.81740044487847
 20
187.0925249565969
 10
81.05258924696178
 20
186.4240386284721
 10
80.47243516710068
 20
185.0883062065971
 10
79.89159206814234
 20
183.7525737847219
 10
79.6015150282118
 20
181.7049468315971
 10
79.6015150282118
 20
178.9454253472221
 10
79.6015150282118
 20
176.6844780815969
 10
79.86265326605901
 20
174.8514116753471
 10
80.38561876085069
 20
173.4456060112846
 10
80.90789523654512
 20
172.0391802300344
 10
81.69199896918403
 20
171.3365874565971
 10
82.73724093967013
 20
171.3365874565971
 10
83.69497748480901
 20
171.3365874565971
 10
84.42120361328125
 20
172.0794878472221
 10
84.91523030598958
 20
173.5665288628469
 10
85.18601481119791
 20
174.3491167534719
 10
85.38445231119791
 20
175.3785112847221
 10
85.51054280598959
 20
176.6547124565971
 10
85.51054280598959
 20
176.6547124565971
 10
86.83345947265625
 20
176.6547124565971
 10
86.83345947265625
 20
176.6547124565971
 10
86.72597249348957
 20
174.6157671440971
 10
86.35114610460069
 20
172.9061040581596
 10
85.70760226779514
 20
171.526343315972
 10
84.93727891710069
 20
169.8650493706596
 10
83.90375027126735
 20
169.0347124565971
 10
82.60701633029514
 20
169.0347124565971
 10
81.48598225911458
 20
169.0347124565971
 10
80.54547119140625
 20
169.7143608940971
 10
79.78479410807292
 20
171.0742778862845
 10
78.78020426432292
 20
172.8726177300344
 10
78.27859836154512
 20
175.6495024956596
 10
78.27859836154512
 20
179.4049321831594
 10
78.27859836154512
 20
182.2562310112846
 10
78.65342475043402
 20
184.5946929253469
 10
79.40445556640622
 20
186.4196978081596
 10
80.22301025390625
 20
188.4028325737846
 10
81.34955647786458
 20
189.3943999565971
 10
82.78271620008679
 20
189.3943999565971
 10
84.00090196397568
 20
189.3943999565971
 10
84.94623616536458
 20
188.7513384331594
 10
85.61871880425345
 20
187.4658355034721
 97
        1
330
29DF
 75
     0
 76
     1
 98
        1
 10
0.0
 20
0.0
  0
LINE
  5
29E7
102
{ACAD_REACTORS
330
29F6
102
}
330
29D6
100
AcDbEntity
  8
LAYER_1
 62
     7
100
AcDbLine
 10
34.65766059027778
 20
177.4497853732638
 30
0.0
 11
36.19830729166666
 21
186.1658769531249
 31
0.0
  0
LINE
  5
29E8
102
{ACAD_REACTORS
330
29F6
102
}
330
29D6
100
AcDbEntity
  8
LAYER_1
 62
     7
100
AcDbLine
 10
36.19830729166666
 20
186.1658769531249
 30
0.0
 11
37.67556423611111
 21
177.4497853732638
 31
0.0
  0
LINE
  5
29E9
102
{ACAD_REACTORS
330
29F6
102
}
330
29D6
100
AcDbEntity
  8
LAYER_1
 62
     7
100
AcDbLine
 10
37.67556423611111
 20
177.4497853732638
 30
0.0
 11
34.65766059027778
 21
177.4497853732638
 31
0.0
  0
LINE
  5
29EA
102
{ACAD_REACTORS
330
29F6
102
}
330
29D6
100
AcDbEntity
  8
LAYER_1
 62
     7
100
AcDbLine
 10
31.83957248263888
 20
169.3358964843748
 30
0.0
 11
33.22450086805555
 21
169.3358964843748
 31
0.0
  0
LINE
  5
29EB
102
{ACAD_REACTORS
330
29F6
102
}
330
29D6
100
AcDbEntity
  8
LAYER_1
 62
     7
100
AcDbLine
 10
33.22450086805555
 20
169.3358964843748
 30
0.0
 11
34.27043185763887
 21
175.2590353732638
 31
0.0
  0
LINE
  5
29EC
102
{ACAD_REACTORS
330
29F6
102
}
330
29D6
100
AcDbEntity
  8
LAYER_1
 62
     7
100
AcDbLine
 10
34.27043185763887
 20
175.2590353732638
 30
0.0
 11
38.04694552951389
 21
175.2590353732638
 31
0.0
  0
LINE
  5
29ED
102
{ACAD_REACTORS
330
29F6
102
}
330
29D6
100
AcDbEntity
  8
LAYER_1
 62
     7
100
AcDbLine
 10
38.04694552951389
 20
175.2590353732638
 30
0.0
 11
39.05015733506942
 21
169.3358964843748
 31
0.0
  0
LINE
  5
29EE
102
{ACAD_REACTORS
330
29F6
102
}
330
29D6
100
AcDbEntity
  8
LAYER_1
 62
     7
100
AcDbLine
 10
39.05015733506942
 20
169.3358964843748
 30
0.0
 11
40.43508572048611
 21
169.3358964843748
 31
0.0
  0
LINE
  5
29EF
102
{ACAD_REACTORS
330
29F6
102
}
330
29D6
100
AcDbEntity
  8
LAYER_1
 62
     7
100
AcDbLine
 10
40.43508572048611
 20
169.3358964843748
 30
0.0
 11
36.952783203125
 21
189.0932159288193
 31
0.0
  0
LINE
  5
29F0
102
{ACAD_REACTORS
330
29F6
102
}
330
29D6
100
AcDbEntity
  8
LAYER_1
 62
     7
100
AcDbLine
 10
36.952783203125
 20
189.0932159288193
 30
0.0
 11
35.47828233506943
 21
189.0932159288193
 31
0.0
  0
LINE
  5
29F1
102
{ACAD_REACTORS
330
29F6
102
}
330
29D6
100
AcDbEntity
  8
LAYER_1
 62
     7
100
AcDbLine
 10
35.47828233506943
 20
189.0932159288193
 30
0.0
 11
31.83957248263888
 21
169.3358964843748
 31
0.0
  0
HATCH
  5
29F2
330
29D6
100
AcDbEntity
  8
0
  6
Continuous
100
AcDbHatch
 10
0.0
 20
0.0
 30
0.0
210
0.0
220
0.0
230
1.0
  2
SOLID
 70
     1
 71
     1
 91
        2
 92
       16
 93
        1
 72
     4
 94
        3
 73
     0
 74
     0
 95
       29
 96
       25
 40
0.0
 40
0.0
 40
0.0
 40
0.0
 40
1.0
 40
1.0
 40
1.0
 40
2.0
 40
2.0
 40
2.0
 40
3.0
 40
3.0
 40
3.0
 40
4.0
 40
4.0
 40
4.0
 40
5.0
 40
5.0
 40
5.0
 40
6.0
 40
6.0
 40
6.0
 40
7.0
 40
7.0
 40
7.0
 40
8.0
 40
8.0
 40
8.0
 40
8.0
 10
62.85697292751734
 20
171.3365874565971
 10
61.88338894314235
 20
171.3365874565971
 10
61.18058946397566
 20
172.0714263237844
 10
60.74857449001735
 20
173.5411040581594
 10
60.31587049696178
 20
175.0107817925344
 10
60.10020751953123
 20
176.8165630425343
 10
60.10020751953123
 20
178.9578276909721
 10
60.10020751953123
 20
181.6342534722221
 10
60.35101047092013
 20
183.6589360894094
 10
60.85261637369789
 20
185.0324956597219
 10
61.35422227647566
 20
186.4054351128471
 10
62.00741238064235
 20
187.0925249565969
 10
62.81218668619789
 20
187.0925249565969
 10
63.6369425455729
 20
187.0925249565969
 10
64.28806559244789
 20
186.3992339409721
 10
64.76486680772568
 20
185.0126519097221
 10
65.24166802300347
 20
183.6260698784719
 10
65.48006863064235
 20
181.7961040581594
 10
65.48006863064235
 20
179.5239946831596
 10
65.48006863064235
 20
177.3734282769096
 10
65.27336290147568
 20
175.4715288628469
 10
64.86132948133678
 20
173.8176763237846
 10
64.4492960611979
 20
172.1632036675344
 10
63.78094753689235
 20
171.3365874565971
 10
62.85697292751734
 20
171.3365874565971
 97
        1
330
29DC
 92
        1
 93
        1
 72
     4
 94
        3
 73
     0
 74
     0
 95
       29
 96
       25
 40
0.0
 40
0.0
 40
0.0
 40
0.0
 40
1.0
 40
1.0
 40
1.0
 40
2.0
 40
2.0
 40
2.0
 40
3.0
 40
3.0
 40
3.0
 40
4.0
 40
4.0
 40
4.0
 40
5.0
 40
5.0
 40
5.0
 40
6.0
 40
6.0
 40
6.0
 40
7.0
 40
7.0
 40
7.0
 40
8.0
 40
8.0
 40
8.0
 40
8.0
 10
62.76119927300346
 20
189.4340874565971
 10
61.47273356119789
 20
189.4340874565971
 10
60.50121663411457
 20
188.2397417534719
 10
59.84733751085068
 20
185.8516704644094
 10
59.3395304361979
 20
183.9900786675344
 10
59.08597140842012
 20
181.7514556206596
 10
59.08597140842012
 20
179.1351812065971
 10
59.08597140842012
 20
176.2379937065971
 10
59.3836276584201
 20
173.8412407769094
 10
59.9789401584201
 20
171.9449224175346
 10
60.6424655490451
 20
169.9779106987846
 10
61.5602389865451
 20
168.9950249565971
 10
62.7315714518229
 20
168.9950249565971
 10
63.9904093424479
 20
168.9950249565971
 10
64.95641411675345
 20
170.1186773003469
 10
65.63027479383679
 20
172.3659819878471
 10
66.20629475911457
 20
174.2796636284719
 10
66.49430474175345
 20
176.6813774956593
 10
66.49430474175345
 20
179.5698833550344
 10
66.49430474175345
 20
182.2388677300343
 10
66.24005669487845
 20
184.4291216362844
 10
65.73293863932289
 20
186.1412651909719
 10
65.08870578342011
 20
188.3364800347219
 10
64.09789632161457
 20
189.4340874565971
 10
62.76119927300346
 20
189.4340874565971
 97
        0
 75
     0
 76
     1
 98
        0
  0
HATCH
  5
29F3
330
29D6
100
AcDbEntity
  8
0
  6
Continuous
100
AcDbHatch
 10
0.0
 20
0.0
 30
0.0
210
0.0
220
0.0
230
1.0
  2
SOLID
 70
     1
 71
     1
 91
        1
 92
        1
 93
        1
 72
     4
 94
        3
 73
     0
 74
     0
 95
       59
 96
       55
 40
0.0
 40
0.0
 40
0.0
 40
0.0
 40
1.0
 40
1.0
 40
1.0
 40
2.0
 40
2.0
 40
2.0
 40
3.0
 40
3.0
 40
3.0
 40
4.0
 40
4.0
 40
4.0
 40
5.0
 40
5.0
 40
5.0
 40
6.0
 40
6.0
 40
6.0
 40
7.0
 40
7.0
 40
7.0
 40
8.0
 40
8.0
 40
8.0
 40
9.0
 40
9.0
 40
9.0
 40
10.0
 40
10.0
 40
10.0
 40
11.0
 40
11.0
 40
11.0
 40
12.0
 40
12.0
 40
12.0
 40
13.0
 40
13.0
 40
13.0
 40
14.0
 40
14.0
 40
14.0
 40
15.0
 40
15.0
 40
15.0
 40
16.0
 40
16.0
 40
16.0
 40
17.0
 40
17.0
 40
17.0
 40
18.0
 40
18.0
 40
18.0
 40
18.0
 10
49.39440104166666
 20
189.0932159288193
 10
49.39440104166666
 20
189.0932159288193
 10
51.24786241319444
 20
189.0932159288193
 10
51.24786241319444
 20
189.0932159288193
 10
51.24786241319444
 20
189.0932159288193
 10
54.04665798611111
 20
172.3887471788193
 10
54.04665798611111
 20
172.3887471788193
 10
54.04665798611111
 20
172.3887471788193
 10
56.83994140624999
 20
189.0932159288193
 10
56.83994140624999
 20
189.0932159288193
 10
56.83994140624999
 20
189.0932159288193
 10
58.69891493055553
 20
189.0932159288193
 10
58.69891493055553
 20
189.0932159288193
 10
58.69891493055553
 20
189.0932159288193
 10
58.69891493055553
 20
169.3358964843748
 10
58.69891493055553
 20
169.3358964843748
 10
58.69891493055553
 20
169.3358964843748
 10
57.46419270833333
 20
169.3358964843748
 10
57.46419270833333
 20
169.3358964843748
 10
57.46419270833333
 20
169.3358964843748
 10
57.46419270833333
 20
180.9964422743054
 10
57.46419270833333
 20
180.9964422743054
 10
57.46419270833333
 20
181.3996011284721
 10
57.47108289930555
 20
182.0677291666664
 10
57.48624131944444
 20
183.0001924913193
 10
57.50071072048609
 20
183.9326558159721
 10
57.50828993055553
 20
184.932312282986
 10
57.50828993055553
 20
185.9997957899304
 10
57.50828993055553
 20
185.9997957899304
 10
54.700537109375
 20
169.3358964843748
 10
54.700537109375
 20
169.3358964843748
 10
54.700537109375
 20
169.3358964843748
 10
53.38382161458333
 20
169.3358964843748
 10
53.38382161458333
 20
169.3358964843748
 10
53.38382161458333
 20
169.3358964843748
 10
50.58502604166665
 20
185.9997957899304
 10
50.58502604166665
 20
185.9997957899304
 10
50.58502604166665
 20
185.9997957899304
 10
50.58502604166665
 20
185.3944236111109
 10
50.58502604166665
 20
185.3944236111109
 10
50.58502604166665
 20
184.9101258680554
 10
50.59191623263888
 20
184.1729029947915
 10
50.60707465277777
 20
183.1821210937498
 10
50.62154405381942
 20
182.1913391927082
 10
50.62912326388889
 20
181.4629908854165
 10
50.62912326388889
 20
180.9964422743054
 10
50.62912326388889
 20
180.9964422743054
 10
50.62912326388889
 20
169.3358964843748
 10
50.62912326388889
 20
169.3358964843748
 10
50.62912326388889
 20
169.3358964843748
 10
49.39440104166666
 20
169.3358964843748
 10
49.39440104166666
 20
169.3358964843748
 10
49.39440104166666
 20
169.3358964843748
 10
49.39440104166666
 20
189.0932159288193
 10
49.39440104166666
 20
189.0932159288193
 97
        1
330
29DB
 75
     0
 76
     1
 98
        1
 10
0.0
 20
0.0
  0
HATCH
  5
29F4
330
29D6
100
AcDbEntity
  8
0
  6
Continuous
100
AcDbHatch
 10
0.0
 20
0.0
 30
0.0
210
0.0
220
0.0
230
1.0
  2
SOLID
 70
     1
 71
     1
 91
        2
 92
       16
 93
        1
 72
     4
 94
        3
 73
     0
 74
     0
 95
       32
 96
       28
 40
0.0
 40
0.0
 40
0.0
 40
0.0
 40
1.0
 40
1.0
 40
1.0
 40
2.0
 40
2.0
 40
2.0
 40
3.0
 40
3.0
 40
3.0
 40
4.0
 40
4.0
 40
4.0
 40
5.0
 40
5.0
 40
5.0
 40
6.0
 40
6.0
 40
6.0
 40
7.0
 40
7.0
 40
7.0
 40
8.0
 40
8.0
 40
8.0
 40
9.0
 40
9.0
 40
9.0
 40
9.0
 10
91.70051812065969
 20
171.6077853732635
 10
91.70051812065969
 20
171.6077853732635
 10
91.70051812065969
 20
186.7401881510414
 10
91.70051812065969
 20
186.7401881510414
 10
91.70051812065969
 20
186.7401881510414
 10
93.98668348524305
 20
186.7401881510414
 10
93.98668348524305
 20
186.7401881510414
 10
95.02159016927082
 20
186.7401881510414
 10
95.77331000434028
 20
186.0644533420137
 10
96.24322102864582
 20
184.7142515190969
 10
96.71313205295138
 20
183.3640496961804
 10
96.94808756510417
 20
181.4680620659721
 10
96.94808756510417
 20
179.0262886284719
 10
96.94808756510417
 20
178.3911232638887
 10
96.91432562934028
 20
177.7027105034721
 10
96.84749077690971
 20
176.9604164496524
 10
96.7324245876736
 20
175.7167094184024
 10
96.55052354600693
 20
174.6974021267359
 10
96.30109863281248
 20
173.901860677083
 10
95.98414984809028
 20
172.9091770833332
 10
95.57693956163193
 20
172.2378795572914
 10
95.07877875434026
 20
171.8892358940971
 10
94.79076877170138
 20
171.7016022135415
 10
94.43178982204859
 20
171.6077853732635
 10
94.00115288628471
 20
171.6077853732635
 10
94.00115288628471
 20
171.6077853732635
 10
91.70051812065969
 20
171.6077853732635
 10
91.70051812065969
 20
171.6077853732635
 97
        1
330
29E0
 92
        1
 93
        1
 72
     4
 94
        3
 73
     0
 74
     0
 95
       26
 96
       22
 40
0.0
 40
0.0
 40
0.0
 40
0.0
 40
1.0
 40
1.0
 40
1.0
 40
2.0
 40
2.0
 40
2.0
 40
3.0
 40
3.0
 40
3.0
 40
4.0
 40
4.0
 40
4.0
 40
5.0
 40
5.0
 40
5.0
 40
6.0
 40
6.0
 40
6.0
 40
7.0
 40
7.0
 40
7.0
 40
7.0
 10
90.37760145399305
 20
169.3358964843748
 10
90.37760145399305
 20
169.3358964843748
 10
94.22990722656248
 20
169.3358964843748
 10
94.22990722656248
 20
169.3358964843748
 10
95.87115071614581
 20
169.3358964843748
 10
97.03008083767359
 20
170.8331625434026
 10
97.70600857204859
 20
173.8283285590274
 10
98.08221299913194
 20
175.5227367621524
 10
98.27100423177082
 20
177.4187243923609
 10
98.27100423177082
 20
179.5169253472221
 10
98.27100423177082
 20
182.233810329861
 10
97.94716525607638
 20
184.4619602864582
 10
97.30086534288195
 20
186.2013752170135
 10
96.57601725260416
 20
188.1290577256941
 10
95.5576470269097
 20
189.0932159288193
 10
94.24437662760416
 20
189.0932159288193
 10
94.24437662760416
 20
189.0932159288193
 10
90.37760145399305
 20
189.0932159288193
 10
90.37760145399305
 20
189.0932159288193
 10
90.37760145399305
 20
189.0932159288193
 10
90.37760145399305
 20
169.3358964843748
 10
90.37760145399305
 20
169.3358964843748
 97
        0
 75
     0
 76
     1
 98
        0
  0
HATCH
  5
29F5
330
29D6
100
AcDbEntity
  8
0
  6
Continuous
100
AcDbHatch
 10
0.0
 20
0.0
 30
0.0
210
0.0
220
0.0
230
1.0
  2
SOLID
 70
     1
 71
     1
 91
        2
 92
       16
 93
        1
 72
     4
 94
        3
 73
     0
 74
     0
 95
       26
 96
       22
 40
0.0
 40
0.0
 40
0.0
 40
0.0
 40
1.0
 40
1.0
 40
1.0
 40
2.0
 40
2.0
 40
2.0
 40
3.0
 40
3.0
 40
3.0
 40
4.0
 40
4.0
 40
4.0
 40
5.0
 40
5.0
 40
5.0
 40
6.0
 40
6.0
 40
6.0
 40
7.0
 40
7.0
 40
7.0
 40
7.0
 10
100.5623372395832
 20
180.046229817708
 10
100.5623372395832
 20
180.046229817708
 10
100.5623372395832
 20
186.7401881510414
 10
100.5623372395832
 20
186.7401881510414
 10
100.5623372395832
 20
186.7401881510414
 10
103.6732584635416
 20
186.7401881510414
 10
103.6732584635416
 20
186.7401881510414
 10
104.1107855902777
 20
186.7401881510414
 10
104.4580512152777
 20
186.6064357638887
 10
104.7150553385415
 20
186.3401987847218
 10
105.2097710503471
 20
185.8330807291664
 10
105.4571289062497
 20
184.8822343749996
 10
105.4571289062497
 20
183.4863919270832
 10
105.4571289062497
 20
182.188169704861
 10
105.280740017361
 20
181.2905707465276
 10
104.9286512586804
 20
180.7929611545137
 10
104.5765624999999
 20
180.2947176649304
 10
104.1011393229166
 20
180.046229817708
 10
103.5023817274304
 20
180.046229817708
 10
103.5023817274304
 20
180.046229817708
 10
100.5623372395832
 20
180.046229817708
 10
100.5623372395832
 20
180.046229817708
 97
        1
330
29E1
 92
        1
 93
        1
 72
     4
 94
        3
 73
     0
 74
     0
 95
       68
 96
       64
 40
0.0
 40
0.0
 40
0.0
 40
0.0
 40
1.0
 40
1.0
 40
1.0
 40
2.0
 40
2.0
 40
2.0
 40
3.0
 40
3.0
 40
3.0
 40
4.0
 40
4.0
 40
4.0
 40
5.0
 40
5.0
 40
5.0
 40
6.0
 40
6.0
 40
6.0
 40
7.0
 40
7.0
 40
7.0
 40
8.0
 40
8.0
 40
8.0
 40
9.0
 40
9.0
 40
9.0
 40
10.0
 40
10.0
 40
10.0
 40
11.0
 40
11.0
 40
11.0
 40
12.0
 40
12.0
 40
12.0
 40
13.0
 40
13.0
 40
13.0
 40
14.0
 40
14.0
 40
14.0
 40
15.0
 40
15.0
 40
15.0
 40
16.0
 40
16.0
 40
16.0
 40
17.0
 40
17.0
 40
17.0
 40
18.0
 40
18.0
 40
18.0
 40
19.0
 40
19.0
 40
19.0
 40
20.0
 40
20.0
 40
20.0
 40
21.0
 40
21.0
 40
21.0
 40
21.0
 10
99.23942057291661
 20
169.3358964843748
 10
99.23942057291661
 20
169.3358964843748
 10
100.5623372395832
 20
169.3358964843748
 10
100.5623372395832
 20
169.3358964843748
 10
100.5623372395832
 20
169.3358964843748
 10
100.5623372395832
 20
177.8149103732637
 10
100.5623372395832
 20
177.8149103732637
 10
100.5623372395832
 20
177.8149103732637
 10
103.4472601996527
 20
177.8149103732637
 10
103.4472601996527
 20
177.8149103732637
 10
103.9681586371527
 20
177.8149103732637
 10
104.3519422743053
 20
177.6938359374998
 10
104.5986111111109
 20
177.4516870659719
 10
105.0244249131943
 20
177.0117621527776
 10
105.2518012152777
 20
176.1458580729164
 10
105.280740017361
 20
174.8539748263887
 10
105.280740017361
 20
174.8539748263887
 10
105.3689344618053
 20
171.5564396701385
 10
105.3689344618053
 20
171.5564396701385
 10
105.3882269965277
 20
170.7843524305554
 10
105.4109646267359
 20
170.2639225260415
 10
105.4357693142359
 20
169.9951499565971
 10
105.4605740017358
 20
169.725743489583
 10
105.4970920138888
 20
169.5057810329859
 10
105.5467013888887
 20
169.3358964843748
 10
105.5467013888887
 20
169.3358964843748
 10
107.1769205729166
 20
169.3358964843748
 10
107.1769205729166
 20
169.3358964843748
 10
107.1769205729166
 20
169.3358964843748
 10
107.1769205729166
 20
169.7821603732635
 10
107.1769205729166
 20
169.7821603732635
 10
106.9750379774303
 20
169.9609194878471
 10
106.8337890624997
 20
170.3628105468748
 10
106.7538628472221
 20
170.9878335503471
 10
106.7028754340274
 20
171.3542263454858
 10
106.6677354600692
 20
171.9120562065971
 10
106.6477539062497
 20
172.6625909288193
 10
106.6477539062497
 20
172.6625909288193
 10
106.6036566840277
 20
175.3205234374999
 10
106.6036566840277
 20
175.3205234374999
 10
106.5836751302082
 20
176.4716814236109
 10
106.4768771701387
 20
177.3033550347219
 10
106.2839518229166
 20
177.8142764756941
 10
106.0903374565971
 20
178.3251979166665
 10
105.8002604166666
 20
178.7372313368054
 10
105.4130316840277
 20
179.0516445312498
 10
105.8443576388886
 20
179.5086846788193
 10
106.179909939236
 20
180.1134229600693
 10
106.4196885850692
 20
180.8664932725691
 10
106.6594672309027
 20
181.6189296874999
 10
106.7800455729166
 20
182.5868912760413
 10
106.7800455729166
 20
183.7697441406248
 10
106.7800455729166
 20
186.0371957465274
 10
106.3328721788193
 20
187.5921464843749
 10
105.4392144097221
 20
188.4345963541665
 10
104.9679253472221
 20
188.8732534722221
 10
104.3719238281249
 20
189.0932159288193
 10
103.6512098524303
 20
189.0932159288193
 10
103.6512098524303
 20
189.0932159288193
 10
99.23942057291661
 20
189.0932159288193
 10
99.23942057291661
 20
189.0932159288193
 10
99.23942057291661
 20
189.0932159288193
 10
99.23942057291661
 20
169.3358964843748
 10
99.23942057291661
 20
169.3358964843748
 97
        0
 75
     0
 76
     1
 98
        0
  0
HATCH
  5
29F6
330
29D6
100
AcDbEntity
  8
0
  6
Continuous
100
AcDbHatch
 10
0.0
 20
0.0
 30
0.0
210
0.0
220
0.0
230
1.0
  2
SOLID
 70
     1
 71
     1
 91
        2
 92
        1
 93
        8
 72
     1
 10
35.47828233506943
 20
189.0932159288193
 11
31.83957248263888
 21
169.3358964843748
 72
     1
 10
31.83957248263888
 20
169.3358964843748
 11
33.22450086805555
 21
169.3358964843748
 72
     1
 10
33.22450086805555
 20
169.3358964843748
 11
34.27043185763887
 21
175.2590353732638
 72
     1
 10
34.27043185763887
 20
175.2590353732638
 11
38.04694552951389
 21
175.2590353732638
 72
     1
 10
38.04694552951389
 20
175.2590353732638
 11
39.05015733506942
 21
169.3358964843748
 72
     1
 10
39.05015733506942
 20
169.3358964843748
 11
40.43508572048611
 21
169.3358964843748
 72
     1
 10
40.43508572048611
 20
169.3358964843748
 11
36.952783203125
 21
189.0932159288193
 72
     1
 10
36.952783203125
 20
189.0932159288193
 11
35.47828233506943
 21
189.0932159288193
 97
        8
330
29F1
330
29EA
330
29EB
330
29EC
330
29ED
330
29EE
330
29EF
330
29F0
 92
       16
 93
        3
 72
     1
 10
37.67556423611111
 20
177.4497853732638
 11
34.65766059027778
 21
177.4497853732638
 72
     1
 10
34.65766059027778
 20
177.4497853732638
 11
36.19830729166666
 21
186.1658769531249
 72
     1
 10
36.19830729166666
 20
186.1658769531249
 11
37.67556423611111
 21
177.4497853732638
 97
        3
330
29E9
330
29E7
330
29E8
 75
     0
 76
     1
 98
        1
 10
0.0
 20
0.0
  0
HATCH
  5
29F7
330
29D6
100
AcDbEntity
  8
0
  6
Continuous
100
AcDbHatch
 10
0.0
 20
0.0
 30
0.0
210
0.0
220
0.0
230
1.0
  2
SOLID
 70
     1
 71
     1
 91
        1
 92
        1
 93
        1
 72
     4
 94
        3
 73
     0
 74
     0
 95
      113
 96
      109
 40
0.0
 40
0.0
 40
0.0
 40
0.0
 40
1.0
 40
1.0
 40
1.0
 40
2.0
 40
2.0
 40
2.0
 40
3.0
 40
3.0
 40
3.0
 40
4.0
 40
4.0
 40
4.0
 40
5.0
 40
5.0
 40
5.0
 40
6.0
 40
6.0
 40
6.0
 40
7.0
 40
7.0
 40
7.0
 40
8.0
 40
8.0
 40
8.0
 40
9.0
 40
9.0
 40
9.0
 40
10.0
 40
10.0
 40
10.0
 40
11.0
 40
11.0
 40
11.0
 40
12.0
 40
12.0
 40
12.0
 40
13.0
 40
13.0
 40
13.0
 40
14.0
 40
14.0
 40
14.0
 40
15.0
 40
15.0
 40
15.0
 40
16.0
 40
16.0
 40
16.0
 40
17.0
 40
17.0
 40
17.0
 40
18.0
 40
18.0
 40
18.0
 40
19.0
 40
19.0
 40
19.0
 40
20.0
 40
20.0
 40
20.0
 40
21.0
 40
21.0
 40
21.0
 40
22.0
 40
22.0
 40
22.0
 40
23.0
 40
23.0
 40
23.0
 40
24.0
 40
24.0
 40
24.0
 40
25.0
 40
25.0
 40
25.0
 40
26.0
 40
26.0
 40
26.0
 40
27.0
 40
27.0
 40
27.0
 40
28.0
 40
28.0
 40
28.0
 40
29.0
 40
29.0
 40
29.0
 40
30.0
 40
30.0
 40
30.0
 40
31.0
 40
31.0
 40
31.0
 40
32.0
 40
32.0
 40
32.0
 40
33.0
 40
33.0
 40
33.0
 40
34.0
 40
34.0
 40
34.0
 40
35.0
 40
35.0
 40
35.0
 40
36.0
 40
36.0
 40
36.0
 40
36.0
 10
193.3039632161458
 20
186.1548733181423
 10
193.3039632161458
 20
186.1860514322916
 10
193.3039632161458
 20
219.6932223849826
 10
193.3039632161458
 20
219.6932223849826
 10
193.3039632161458
 20
219.6932223849826
 10
193.2974175347219
 20
219.7488606770833
 10
193.2974175347219
 20
219.7488606770833
 10
191.5293945312499
 20
235.455740017361
 10
175.1458984374999
 20
235.2467949761284
 10
174.9808783637151
 20
235.2428331163193
 10
174.9808783637151
 20
235.2428331163193
 10
125.8827555338541
 20
235.2430053710937
 10
125.8827555338541
 20
235.2430053710937
 10
125.8827555338541
 20
235.2430053710937
 10
125.8827555338541
 20
255.5278998480901
 10
125.8827555338541
 20
255.5278998480901
 10
125.8827555338541
 20
255.5278998480901
 10
84.5626247829861
 20
255.5278998480901
 10
84.5626247829861
 20
255.5278998480901
 10
84.5626247829861
 20
255.5278998480901
 10
84.55711263020829
 20
233.7919311523436
 10
84.55711263020829
 20
233.7919311523436
 10
84.55711263020829
 20
233.7919311523436
 10
64.42052951388888
 20
233.7919311523436
 10
64.42052951388888
 20
233.7919311523436
 10
64.42052951388888
 20
233.7919311523436
 10
64.41501736111111
 20
255.5278998480901
 10
64.41501736111111
 20
255.5278998480901
 10
64.41501736111111
 20
255.5278998480901
 10
23.91757541232637
 20
255.5278998480901
 10
23.91757541232637
 20
255.5278998480901
 10
23.91757541232637
 20
255.5278998480901
 10
23.91757541232637
 20
233.2393378363715
 10
23.91757541232637
 20
233.2393378363715
 10
23.91757541232637
 20
233.2393378363715
 10
43.65624999999999
 20
233.2393378363715
 10
43.65624999999999
 20
233.2393378363715
 10
43.65624999999999
 20
233.2393378363715
 10
43.65624999999999
 20
211.5188720703125
 10
43.65624999999999
 20
211.5188720703125
 10
43.65624999999999
 20
211.5188720703125
 10
23.91757541232637
 20
211.5188720703125
 10
23.91757541232637
 20
211.5188720703125
 10
23.91757541232637
 20
211.5188720703125
 10
23.91757541232637
 20
189.2303100585936
 10
23.91757541232637
 20
189.2303100585936
 10
23.91757541232637
 20
189.2303100585936
 10
64.41501736111111
 20
189.2303100585936
 10
64.41501736111111
 20
189.2303100585936
 10
64.41501736111111
 20
189.2303100585936
 10
64.42052951388888
 20
211.069976128472
 10
64.42052951388888
 20
211.069976128472
 10
64.42052951388888
 20
211.069976128472
 10
84.55711263020829
 20
211.069976128472
 10
84.55711263020829
 20
211.069976128472
 10
84.55711263020829
 20
211.069976128472
 10
84.5626247829861
 20
189.2303100585936
 10
84.5626247829861
 20
189.2303100585936
 10
84.5626247829861
 20
189.2303100585936
 10
125.8827555338541
 20
189.2303100585936
 10
125.8827555338541
 20
189.2303100585936
 10
125.8827555338541
 20
189.2303100585936
 10
125.8827555338541
 20
211.5188720703125
 10
125.8827555338541
 20
211.5188720703125
 10
125.8827555338541
 20
211.5188720703125
 10
105.3213921440971
 20
211.5188720703125
 10
105.3213921440971
 20
211.5188720703125
 10
105.3213921440971
 20
211.5188720703125
 10
105.3213921440971
 20
233.2393378363715
 10
105.3213921440971
 20
233.2393378363715
 10
105.3213921440971
 20
233.2393378363715
 10
175.0046495225693
 20
233.243127441406
 10
175.0046495225693
 20
233.243127441406
 10
175.6268337673611
 20
233.2560465494791
 10
189.7165852864583
 20
233.3962619357638
 10
191.3037407769094
 20
219.5690266927083
 10
191.3037407769094
 20
219.4332899305555
 10
191.3037407769094
 20
186.1142211914062
 10
191.3037407769094
 20
186.1142211914062
 10
191.3037407769094
 20
186.1142211914062
 10
191.3051188151039
 20
186.0880384657115
 10
191.3051188151039
 20
186.0880384657115
 10
191.3054633246526
 20
186.0787367078991
 10
191.3109754774304
 20
185.9566080729166
 10
191.3109754774304
 20
185.7399115668401
 10
191.3109754774304
 20
184.2090833875865
 10
191.0488037109374
 20
177.9643310546874
 10
186.9866916232638
 20
173.5652886284722
 10
184.2540418836804
 20
170.6064683702255
 10
180.3224989149304
 20
169.0308539496526
 10
175.300927734375
 20
168.8825425889756
 10
175.300927734375
 20
168.8825425889756
 10
107.0094889322916
 20
168.8828870985243
 10
107.0094889322916
 20
168.8828870985243
 10
107.0094889322916
 20
168.8828870985243
 10
107.0094889322916
 20
166.8830091688368
 10
107.0094889322916
 20
166.8830091688368
 10
107.0094889322916
 20
166.8830091688368
 10
175.3305555555555
 20
166.8830091688368
 10
175.3305555555555
 20
166.8830091688368
 10
180.9467502170138
 20
167.0485460069444
 10
185.3571614583333
 20
168.8448187934026
 10
188.4687717013888
 20
172.2223904079861
 10
192.9649658203124
 20
177.1034016927083
 10
193.3136094835069
 20
183.7202243381076
 10
193.3136094835069
 20
185.6520616319443
 10
193.3136094835069
 20
185.9247409396701
 10
193.3070638020833
 20
186.0868326822916
 10
193.3039632161458
 20
186.1548733181423
 97
        1
330
29D7
 75
     0
 76
     1
 98
        1
 10
0.0
 20
0.0
  0
HATCH
  5
29F8
330
29D6
100
AcDbEntity
  8
0
  6
Continuous
100
AcDbHatch
 10
0.0
 20
0.0
 30
0.0
210
0.0
220
0.0
230
1.0
  2
SOLID
 70
     1
 71
     1
 91
        2
 92
        1
 93
        1
 72
     4
 94
        3
 73
     0
 74
     0
 95
       23
 96
       19
 40
0.0
 40
0.0
 40
0.0
 40
0.0
 40
1.0
 40
1.0
 40
1.0
 40
2.0
 40
2.0
 40
2.0
 40
3.0
 40
3.0
 40
3.0
 40
4.0
 40
4.0
 40
4.0
 40
5.0
 40
5.0
 40
5.0
 40
6.0
 40
6.0
 40
6.0
 40
6.0
 10
148.6593153211804
 20
211.3929538302949
 10
148.6593153211804
 20
211.3929538302949
 10
148.6593153211804
 20
189.630802408854
 10
148.6593153211804
 20
189.630802408854
 10
148.6593153211804
 20
189.630802408854
 10
161.3152180989583
 20
189.630802408854
 10
161.3152180989583
 20
189.630802408854
 10
162.8431179470483
 20
189.630802408854
 10
170.4657362196178
 20
190.1880466037324
 10
170.4657362196178
 20
201.1911648220484
 10
170.4657362196178
 20
211.1288872612845
 10
162.3356553819444
 20
211.3914035373261
 10
162.2536621093749
 20
211.3927815755205
 10
162.2536621093749
 20
211.3927815755205
 10
149.6594265407986
 20
211.3929538302949
 10
149.6594265407986
 20
211.3929538302949
 10
149.6594265407986
 20
211.3929538302949
 10
148.6593153211804
 20
211.3929538302949
 10
148.6593153211804
 20
211.3929538302949
 97
        1
330
29D8
 92
       16
 93
        1
 72
     4
 94
        3
 73
     0
 74
     0
 95
       20
 96
       16
 40
0.0
 40
0.0
 40
0.0
 40
0.0
 40
1.0
 40
1.0
 40
1.0
 40
2.0
 40
2.0
 40
2.0
 40
3.0
 40
3.0
 40
3.0
 40
4.0
 40
4.0
 40
4.0
 40
5.0
 40
5.0
 40
5.0
 40
5.0
 10
162.2354031032984
 20
209.3930759006075
 10
162.467947048611
 20
209.3861857096352
 10
168.4655137803819
 20
209.1283203124997
 10
168.4655137803819
 20
201.1911648220484
 10
168.4655137803819
 20
192.3202162000866
 10
162.9926350911458
 20
191.6306803385414
 10
161.3152180989583
 20
191.6306803385414
 10
161.3152180989583
 20
191.6306803385414
 10
152.3310980902776
 20
191.6306803385414
 10
150.6595377604166
 20
191.6306803385414
 10
150.6595377604166
 20
193.3373806423609
 10
150.6595377604166
 20
207.686375596788
 10
150.6595377604166
 20
209.3930759006075
 10
152.3538357204859
 20
209.3930759006075
 10
162.2354031032984
 20
209.3930759006075
 10
162.2354031032984
 20
209.3930759006075
 97
        0
 75
     0
 76
     1
 98
        0
  0
ENDBLK
  5
29FA
330
29D6
100
AcDbEntity
  8
0
100
AcDbBlockEnd
  0
BLOCK
  5
29FD
330
29FB
100
AcDbEntity
  8
0
100
AcDbBlockBegin
  2
HD logo-new
 70
     0
 10
0.0
 20
0.0
 30
0.0
  3
HD logo-new
  1

  0
INSERT
  5
29FC
330
29FB
100
AcDbEntity
  8
0
 62
     3
100
AcDbBlockReference
  2
HD_LLC_logo_OT5
 10
-27.1607188578505
 20
-68.37367811463031
 30
0.0
 41
0.2999999999999971
 42
0.3000000000000007
 43
0.3
  0
ENDBLK
  5
29FE
330
29FB
100
AcDbEntity
  8
0
100
AcDbBlockEnd
  0
BLOCK
  5
2A01
330
29FF
100
AcDbEntity
  8
0
100
AcDbBlockBegin
  2
HD Logo
 70
     0
 10
0.0
 20
0.0
 30
0.0
  3
HD Logo
  1

  0
INSERT
  5
2A00
330
29FF
100
AcDbEntity
  8
0
100
AcDbBlockReference
  2
HD logo-new
 10
0.9700256734946606
 20
7.273795608420527
 30
0.0
  0
ENDBLK
  5
2A02
330
29FF
100
AcDbEntity
  8
0
100
AcDbBlockEnd
  0
BLOCK
  5
2A0D
330
2A0B
100
AcDbEntity
  8
0
100
AcDbBlockBegin
  2
Harmonic Drive LLC
 70
     0
 10
0.0
 20
0.0
 30
0.0
  3
Harmonic Drive LLC
  1

  0
MTEXT
  5
2A0C
330
2A0B
100
AcDbEntity
  8
0
100
AcDbMText
 10
8.730232253264317
 20
-1.454758693481394
 30
0.0
 40
5.25
 41
158.5992
 71
     5
 72
     5
  1
{\fArial|b0|i0|c0|p34;Harmonic Drive LLC\P800-921-3332\Pwww.harmonicdrive.net}
 73
     1
 44
1.0
  0
ENDBLK
  5
2A0E
330
2A0B
100
AcDbEntity
  8
0
100
AcDbBlockEnd
  0
BLOCK
  5
2A21
330
2A1F
100
AcDbEntity
  8
0
100
AcDbBlockBegin
  2
HD LLC
 70
     0
 10
0.0
 20
0.0
 30
0.0
  3
HD LLC
  1

  0
MTEXT
  5
2A20
330
2A1F
100
AcDbEntity
  8
0
100
AcDbMText
 10
-2.314970886968865
 20
1.247205085865914
 30
0.0
 40
5.675387507387601
 41
236.1828726592229
 71
     5
 72
     5
  1
Harmonic Drive LLC\P800-921-3332\Pwww.harmonicdrive.net
 73
     1
 44
1.0
  0
ENDBLK
  5
2A22
330
2A1F
100
AcDbEntity
  8
0
100
AcDbBlockEnd
  0
BLOCK
  5
2A32
330
2A2F
100
AcDbEntity
  8
0
100
AcDbBlockBegin
  2
NTC
 70
     0
 10
0.0
 20
0.0
 30
0.0
  3
NTC
  1

  0
LWPOLYLINE
  5
2A30
330
2A2F
100
AcDbEntity
  8
0
100
AcDbPolyline
 90
        8
 70
     1
 43
0.0
 10
4.581008201925953
 20
-10.78862239032818
 10
319.3921777697513
 20
-10.78862239032818
 42
-0.4142135623730951
 10
324.9046777697513
 20
-16.30112239032816
 10
324.9046777697513
 20
-117.4075202476924
 42
-0.4142135623730951
 10
319.3921777697513
 20
-122.9200202476925
 10
4.581008201925838
 20
-122.9200202476925
 42
-0.4142135623730951
 10
-0.9314917980741483
 20
-117.4075202476924
 10
-0.9314917980740915
 20
-16.30112239032816
 42
-0.4142135623730951
  0
MTEXT
  5
2A31
330
2A2F
100
AcDbEntity
  8
0
  6
Continuous
370
    30
100
AcDbMText
 10
21.65307678143926
 20
-17.4535155144544
 30
0.0
 40
8.75
 41
294.5432999999998
 71
     1
 72
     5
  3
{\fTxt|b1|i0|c0|p2;Notice:\P\Ftxt.shx;\H0.5714x;All specifications and dimensions shown in the drawing are subject to change without notice. This drawing is the property of Harmonic Drive LLC.   This data is believed to be accurate, however, Harmonic
  1
 Drive LLC assumes no liability for any errors or omissions in the specifications, models, or drawings.\P\PHarmonic Drive LLC\PTel: 800-921-3332\Pwww.harmonicdrive.net}
 73
     1
 44
1.0
  0
ENDBLK
  5
2A33
330
2A2F
100
AcDbEntity
  8
0
100
AcDbBlockEnd
  0
ENDSEC
  0
SECTION
  2
ENTITIES
  0
LINE
  5
271B
330
26FC
100
AcDbEntity
  8
1
 62
     7
100
AcDbLine
 10
200.6923145179145
 20
229.8841042707687
 30
0.0
 11
199.2460120192547
 21
229.8462315069734
 31
0.0
  0
LINE
  5
271C
330
26FC
100
AcDbEntity
  8
1
 62
     7
100
AcDbLine
 10
199.2460120192547
 20
229.8462315069734
 30
0.0
 11
198.1360120192546
 21
229.8462315069734
 31
0.0
  0
LINE
  5
271D
330
26FC
100
AcDbEntity
  8
1
 62
     7
100
AcDbLine
 10
197.7360120192548
 20
233.1784929357832
 30
0.0
 11
197.7360120192548
 21
230.2462315069735
 31
0.0
  0
LINE
  5
271E
330
26FC
100
AcDbEntity
  8
1
 62
     7
100
AcDbLine
 10
197.7360120192548
 20
233.1784929357832
 30
0.0
 11
197.3911113131429
 21
235.9874837696113
 31
0.0
  0
LINE
  5
271F
330
26FC
100
AcDbEntity
  8
1
 62
     7
100
AcDbLine
 10
199.2460120192547
 20
236.4362315069735
 30
0.0
 11
197.7881297737994
 21
236.4362315069735
 31
0.0
  0
LINE
  5
2720
330
26FC
100
AcDbEntity
  8
1
 62
     7
100
AcDbLine
 10
199.2460120192547
 20
229.8462315069734
 30
0.0
 11
199.2460120192547
 21
236.4362315069735
 31
0.0
  0
LINE
  5
2721
330
26FC
100
AcDbEntity
  8
1
 62
     7
100
AcDbLine
 10
199.2460120192547
 20
236.4362315069735
 30
0.0
 11
200.8135442359023
 21
236.4362315069735
 31
0.0
  0
LINE
  5
2722
330
26FC
100
AcDbEntity
  8
1
 62
     7
100
AcDbLine
 10
200.8135442359023
 20
314.4162315069734
 30
0.0
 11
199.2460120192547
 21
314.4162315069734
 31
0.0
  0
LINE
  5
2723
330
26FC
100
AcDbEntity
  8
1
 62
     7
100
AcDbLine
 10
199.2460120192547
 20
314.4162315069734
 30
0.0
 11
199.2460120192547
 21
321.0062315069736
 31
0.0
  0
LINE
  5
2724
330
26FC
100
AcDbEntity
  8
1
 62
     7
100
AcDbLine
 10
197.7881297737994
 20
314.4162315069734
 30
0.0
 11
199.2460120192547
 21
314.4162315069734
 31
0.0
  0
LINE
  5
2725
330
26FC
100
AcDbEntity
  8
1
 62
     7
100
AcDbLine
 10
197.3911113131429
 20
314.8649792443356
 30
0.0
 11
197.7360120192548
 21
317.6739700781631
 31
0.0
  0
LINE
  5
2726
330
26FC
100
AcDbEntity
  8
1
 62
     7
100
AcDbLine
 10
197.7360120192548
 20
320.6062315069735
 30
0.0
 11
197.7360120192548
 21
317.6739700781631
 31
0.0
  0
LINE
  5
2727
330
26FC
100
AcDbEntity
  8
1
 62
     7
100
AcDbLine
 10
198.1360120192546
 20
321.0062315069736
 30
0.0
 11
199.2460120192547
 21
321.0062315069736
 31
0.0
  0
LINE
  5
2728
330
26FC
100
AcDbEntity
  8
1
 62
     7
100
AcDbLine
 10
199.2460120192547
 20
321.0062315069736
 30
0.0
 11
200.6923145179145
 21
320.9683587431779
 31
0.0
  0
LINE
  5
2729
330
26FC
100
AcDbEntity
  8
1
 62
     7
100
AcDbLine
 10
204.2085120192546
 20
226.3407315069735
 30
0.0
 11
197.5710120192546
 21
226.3407315069735
 31
0.0
  0
LINE
  5
272A
330
26FC
100
AcDbEntity
  8
1
 62
     7
100
AcDbLine
 10
196.9710120192547
 20
228.5162315069733
 30
0.0
 11
196.9710120192547
 21
226.6871416684872
 31
0.0
  0
LINE
  5
272B
330
26FC
100
AcDbEntity
  8
1
 62
     7
100
AcDbLine
 10
202.1197309752005
 20
228.8162315069731
 30
0.0
 11
197.2710120192546
 21
228.8162315069731
 31
0.0
  0
LINE
  5
272C
330
26FC
100
AcDbEntity
  8
1
 62
     7
100
AcDbLine
 10
197.2710120192546
 20
228.8162315069731
 30
0.0
 11
196.9710120192547
 21
228.5162315069733
 31
0.0
  0
LINE
  5
272D
330
26FC
100
AcDbEntity
  8
1
 62
     7
100
AcDbLine
 10
197.5710120192546
 20
226.3407315069735
 30
0.0
 11
196.9710120192547
 21
226.6871416684872
 31
0.0
  0
LINE
  5
272E
330
26FC
100
AcDbEntity
  8
1
 62
     7
100
AcDbLine
 10
211.4460120192546
 20
226.6871416684872
 30
0.0
 11
210.8460120192547
 21
226.3407315069735
 31
0.0
  0
LINE
  5
272F
330
26FC
100
AcDbEntity
  8
1
 62
     7
100
AcDbLine
 10
211.4460120192546
 20
228.5162315069733
 30
0.0
 11
211.1460120192546
 21
228.8162315069731
 31
0.0
  0
LINE
  5
2730
330
26FC
100
AcDbEntity
  8
1
 62
     7
100
AcDbLine
 10
209.3535120192547
 20
239.3662315069736
 30
0.0
 11
208.8535120192547
 21
239.8662315069735
 31
0.0
  0
LINE
  5
2731
330
26FC
100
AcDbEntity
  8
1
 62
     7
100
AcDbLine
 10
208.8535120192547
 20
237.3012315069733
 30
0.0
 11
209.3535120192547
 21
237.8012315069735
 31
0.0
  0
LINE
  5
2732
330
26FC
100
AcDbEntity
  8
1
 62
     7
100
AcDbLine
 10
208.8535120192547
 20
239.8662315069735
 30
0.0
 11
204.2085120192546
 21
239.8662315069735
 31
0.0
  0
LINE
  5
2733
330
26FC
100
AcDbEntity
  8
1
 62
     7
100
AcDbLine
 10
209.3535120192547
 20
239.3662315069736
 30
0.0
 11
209.3535120192547
 21
237.8012315069735
 31
0.0
  0
LINE
  5
2734
330
26FC
100
AcDbEntity
  8
1
 62
     7
100
AcDbLine
 10
208.8535120192547
 20
237.3012315069733
 30
0.0
 11
206.4444416357677
 21
237.3012315069733
 31
0.0
  0
LINE
  5
2735
330
26FC
100
AcDbEntity
  8
1
 62
     7
100
AcDbLine
 10
211.1460120192546
 20
228.8162315069731
 30
0.0
 11
206.2972930633088
 21
228.8162315069731
 31
0.0
  0
LINE
  5
2736
330
26FC
100
AcDbEntity
  8
1
 62
     7
100
AcDbLine
 10
211.4460120192546
 20
226.6871416684872
 30
0.0
 11
211.4460120192546
 21
228.5162315069733
 31
0.0
  0
LINE
  5
2737
330
26FC
100
AcDbEntity
  8
1
 62
     7
100
AcDbLine
 10
210.8460120192547
 20
226.3407315069735
 30
0.0
 11
204.2085120192546
 21
226.3407315069735
 31
0.0
  0
LINE
  5
2738
330
26FC
100
AcDbEntity
  8
1
 62
     7
100
AcDbLine
 10
199.0635120192546
 20
237.8012315069735
 30
0.0
 11
199.0635120192546
 21
239.3662315069736
 31
0.0
  0
LINE
  5
2739
330
26FC
100
AcDbEntity
  8
1
 62
     7
100
AcDbLine
 10
199.0635120192546
 20
237.8012315069735
 30
0.0
 11
199.5635120192546
 21
237.3012315069733
 31
0.0
  0
LINE
  5
273A
330
26FC
100
AcDbEntity
  8
1
 62
     7
100
AcDbLine
 10
199.5635120192546
 20
239.8662315069735
 30
0.0
 11
199.0635120192546
 21
239.3662315069736
 31
0.0
  0
LINE
  5
273B
330
26FC
100
AcDbEntity
  8
1
 62
     7
100
AcDbLine
 10
201.9725824027418
 20
237.3012315069733
 30
0.0
 11
199.5635120192546
 21
237.3012315069733
 31
0.0
  0
LINE
  5
273C
330
26FC
100
AcDbEntity
  8
1
 62
     7
100
AcDbLine
 10
204.2085120192546
 20
239.8662315069735
 30
0.0
 11
199.5635120192546
 21
239.8662315069735
 31
0.0
  0
LINE
  5
273D
330
26FC
100
AcDbEntity
  8
1
 62
     7
100
AcDbLine
 10
211.4460120192546
 20
236.155909125636
 30
0.0
 11
211.4460120192546
 21
228.5162315069733
 31
0.0
  0
LINE
  5
273E
330
26FC
100
AcDbEntity
  8
1
 62
     7
100
AcDbLine
 10
196.9710120192547
 20
228.5162315069733
 30
0.0
 11
196.9710120192547
 21
236.155909125636
 31
0.0
  0
LINE
  5
273F
330
26FC
100
AcDbEntity
  8
1
 62
     7
100
AcDbLine
 10
196.9710120192547
 20
314.696553888311
 30
0.0
 11
196.9710120192547
 21
322.3362315069735
 31
0.0
  0
LINE
  5
2740
330
26FC
100
AcDbEntity
  8
1
 62
     7
100
AcDbLine
 10
211.4460120192546
 20
322.3362315069735
 30
0.0
 11
211.4460120192546
 21
314.696553888311
 31
0.0
  0
LINE
  5
2741
330
26FC
100
AcDbEntity
  8
1
 62
     7
100
AcDbLine
 10
199.5635120192546
 20
310.9862315069733
 30
0.0
 11
204.2085120192546
 21
310.9862315069733
 31
0.0
  0
LINE
  5
2742
330
26FC
100
AcDbEntity
  8
1
 62
     7
100
AcDbLine
 10
199.5635120192546
 20
313.5512315069735
 30
0.0
 11
201.9725824027418
 21
313.5512315069735
 31
0.0
  0
LINE
  5
2743
330
26FC
100
AcDbEntity
  8
1
 62
     7
100
AcDbLine
 10
199.0635120192546
 20
311.4862315069736
 30
0.0
 11
199.5635120192546
 21
310.9862315069733
 31
0.0
  0
LINE
  5
2744
330
26FC
100
AcDbEntity
  8
1
 62
     7
100
AcDbLine
 10
199.5635120192546
 20
313.5512315069735
 30
0.0
 11
199.0635120192546
 21
313.0512315069736
 31
0.0
  0
LINE
  5
2745
330
26FC
100
AcDbEntity
  8
1
 62
     7
100
AcDbLine
 10
199.0635120192546
 20
311.4862315069736
 30
0.0
 11
199.0635120192546
 21
313.0512315069736
 31
0.0
  0
LINE
  5
2746
330
26FC
100
AcDbEntity
  8
1
 62
     7
100
AcDbLine
 10
204.2085120192546
 20
324.5117315069736
 30
0.0
 11
210.8460120192547
 21
324.5117315069736
 31
0.0
  0
LINE
  5
2747
330
26FC
100
AcDbEntity
  8
1
 62
     7
100
AcDbLine
 10
211.4460120192546
 20
322.3362315069735
 30
0.0
 11
211.4460120192546
 21
324.1653213454597
 31
0.0
  0
LINE
  5
2748
330
26FC
100
AcDbEntity
  8
1
 62
     7
100
AcDbLine
 10
206.2972930633088
 20
322.0362315069735
 30
0.0
 11
211.1460120192546
 21
322.0362315069735
 31
0.0
  0
LINE
  5
2749
330
26FC
100
AcDbEntity
  8
1
 62
     7
100
AcDbLine
 10
206.4444416357677
 20
313.5512315069735
 30
0.0
 11
208.8535120192547
 21
313.5512315069735
 31
0.0
  0
LINE
  5
274A
330
26FC
100
AcDbEntity
  8
1
 62
     7
100
AcDbLine
 10
209.3535120192547
 20
313.0512315069736
 30
0.0
 11
209.3535120192547
 21
311.4862315069736
 31
0.0
  0
LINE
  5
274B
330
26FC
100
AcDbEntity
  8
1
 62
     7
100
AcDbLine
 10
204.2085120192546
 20
310.9862315069733
 30
0.0
 11
208.8535120192547
 21
310.9862315069733
 31
0.0
  0
LINE
  5
274C
330
26FC
100
AcDbEntity
  8
1
 62
     7
100
AcDbLine
 10
209.3535120192547
 20
313.0512315069736
 30
0.0
 11
208.8535120192547
 21
313.5512315069735
 31
0.0
  0
LINE
  5
274D
330
26FC
100
AcDbEntity
  8
1
 62
     7
100
AcDbLine
 10
208.8535120192547
 20
310.9862315069733
 30
0.0
 11
209.3535120192547
 21
311.4862315069736
 31
0.0
  0
LINE
  5
274E
330
26FC
100
AcDbEntity
  8
1
 62
     7
100
AcDbLine
 10
211.1460120192546
 20
322.0362315069735
 30
0.0
 11
211.4460120192546
 21
322.3362315069735
 31
0.0
  0
LINE
  5
274F
330
26FC
100
AcDbEntity
  8
1
 62
     7
100
AcDbLine
 10
210.8460120192547
 20
324.5117315069736
 30
0.0
 11
211.4460120192546
 21
324.1653213454597
 31
0.0
  0
LINE
  5
2750
330
26FC
100
AcDbEntity
  8
1
 62
     7
100
AcDbLine
 10
196.9710120192547
 20
324.1653213454597
 30
0.0
 11
197.5710120192546
 21
324.5117315069736
 31
0.0
  0
LINE
  5
2751
330
26FC
100
AcDbEntity
  8
1
 62
     7
100
AcDbLine
 10
196.9710120192547
 20
322.3362315069735
 30
0.0
 11
197.2710120192546
 21
322.0362315069735
 31
0.0
  0
LINE
  5
2752
330
26FC
100
AcDbEntity
  8
1
 62
     7
100
AcDbLine
 10
197.2710120192546
 20
322.0362315069735
 30
0.0
 11
202.1197309752005
 21
322.0362315069735
 31
0.0
  0
LINE
  5
2753
330
26FC
100
AcDbEntity
  8
1
 62
     7
100
AcDbLine
 10
196.9710120192547
 20
324.1653213454597
 30
0.0
 11
196.9710120192547
 21
322.3362315069735
 31
0.0
  0
LINE
  5
2754
330
26FC
100
AcDbEntity
  8
1
 62
     7
100
AcDbLine
 10
197.5710120192546
 20
324.5117315069736
 30
0.0
 11
204.2085120192546
 21
324.5117315069736
 31
0.0
  0
LINE
  5
2759
330
26FC
100
AcDbEntity
  8
1
  6
CENTER
 62
     3
100
AcDbLine
 10
314.377645273092
 20
227.7570330286402
 30
0.0
 11
309.427645273092
 21
219.1833815311743
 31
0.0
  0
LINE
  5
275A
330
26FC
100
AcDbEntity
  8
1
  6
CENTER
 62
     3
100
AcDbLine
 10
294.2279467947587
 20
302.9567315069734
 30
0.0
 11
285.6542952972924
 21
307.9067315069734
 31
0.0
  0
LINE
  5
275B
330
26FC
100
AcDbEntity
  8
1
  6
CENTER
 62
     3
100
AcDbLine
 10
294.2279467947587
 20
247.9067315069735
 30
0.0
 11
285.6542952972924
 21
242.9567315069736
 31
0.0
  0
LINE
  5
275C
330
26FC
100
AcDbEntity
  8
1
  6
CENTER
 62
     3
100
AcDbLine
 10
314.377645273092
 20
323.1064299853068
 30
0.0
 11
309.427645273092
 21
331.6800814827729
 31
0.0
  0
LINE
  5
275D
330
26FC
100
AcDbEntity
  8
1
 62
     7
100
AcDbLine
 10
339.4026453063386
 20
281.9700798240788
 30
0.0
 11
339.4026453063386
 21
284.7317313673913
 31
0.0
  0
LINE
  5
275E
330
26FC
100
AcDbEntity
  8
1
 62
     7
100
AcDbLine
 10
339.4026453063386
 20
284.7317313673913
 30
0.0
 11
344.4026452319882
 21
284.7317313673913
 31
0.0
  0
LINE
  5
275F
330
26FC
100
AcDbEntity
  8
1
 62
     7
100
AcDbLine
 10
344.4026452319882
 20
284.7317313673913
 30
0.0
 11
344.4026452319882
 21
281.9700798240788
 31
0.0
  0
LINE
  5
2760
330
26FC
100
AcDbEntity
  8
0
 62
     7
100
AcDbLine
 10
336.7826453482458
 20
256.4983984580956
 30
0.0
 11
336.7826453482458
 21
258.6686624444772
 31
0.0
  0
LINE
  5
2761
330
26FC
100
AcDbEntity
  8
0
 62
     7
100
AcDbLine
 10
341.3693119460018
 20
255.4317318074276
 30
0.0
 11
337.8493119988597
 21
255.4317318074276
 31
0.0
  0
LINE
  5
2762
330
26FC
100
AcDbEntity
  8
0
 62
     7
100
AcDbLine
 10
341.3693119460018
 20
259.4946260964321
 30
0.0
 11
341.3693119460018
 21
255.4317318074276
 31
0.0
  0
LINE
  5
2763
330
26FC
100
AcDbEntity
  8
0
 62
     7
100
AcDbLine
 10
347.0226451944182
 20
256.4983984580956
 30
0.0
 11
347.0226451944182
 21
258.6686624444772
 31
0.0
  0
LINE
  5
2764
330
26FC
100
AcDbEntity
  8
0
 62
     7
100
AcDbLine
 10
342.435978596645
 20
255.4317318074276
 30
0.0
 11
345.9559785437908
 21
255.4317318074276
 31
0.0
  0
LINE
  5
2765
330
26FC
100
AcDbEntity
  8
0
 62
     7
100
AcDbLine
 10
342.435978596645
 20
259.4946260964321
 30
0.0
 11
342.435978596645
 21
255.4317318074276
 31
0.0
  0
LINE
  5
2766
330
26FC
100
AcDbEntity
  8
2
  6
CENTER
 62
     3
100
AcDbLine
 10
392.1826452695398
 20
275.4317315070532
 30
0.0
 11
414.402644254764
 21
275.4317315071334
 31
0.0
  0
LINE
  5
2767
330
26FC
100
AcDbEntity
  8
1
  6
DIVIDE
 62
     7
100
AcDbLine
 10
214.6060120191297
 20
328.4317315069734
 30
0.0
 11
212.6060120191297
 21
328.4317315069734
 31
0.0
  0
LINE
  5
2768
330
26FC
100
AcDbEntity
  8
1
  6
DIVIDE
 62
     7
100
AcDbLine
 10
214.6060120191296
 20
313.5923601413805
 30
0.0
 11
214.6060120191297
 21
328.4317315069734
 31
0.0
  0
LINE
  5
2769
330
26FC
100
AcDbEntity
  8
1
  6
DIVIDE
 62
     7
100
AcDbLine
 10
162.6060119589994
 20
328.4317315069734
 30
0.0
 11
176.540618974102
 21
328.4317315069734
 31
0.0
  0
LINE
  5
276A
330
26FC
100
AcDbEntity
  8
1
  6
DIVIDE
 62
     7
100
AcDbLine
 10
162.6060119589994
 20
315.6495765115007
 30
0.0
 11
162.6060119589994
 21
328.4317315069734
 31
0.0
  0
LINE
  5
276B
330
26FC
100
AcDbEntity
  8
2
  6
CENTER
 62
     3
100
AcDbLine
 10
266.6218541785049
 20
275.4317315070177
 30
0.0
 11
392.1826452695398
 21
275.4317315070532
 31
0.0
  0
LINE
  5
276C
330
26FC
100
AcDbEntity
  8
1
 62
     7
100
AcDbLine
 10
165.6060120192547
 20
249.8317315069733
 30
0.0
 11
165.6060120192547
 21
245.0317315069735
 31
0.0
  0
LINE
  5
276D
330
26FC
100
AcDbEntity
  8
1
 62
     7
100
AcDbLine
 10
161.6060120192547
 20
249.8317315069733
 30
0.0
 11
161.6060120192547
 21
245.0317315069735
 31
0.0
  0
LINE
  5
276E
330
26FC
100
AcDbEntity
  8
1
 62
     7
100
AcDbLine
 10
161.6060120192547
 20
249.8317315069733
 30
0.0
 11
165.6060120192547
 21
249.8317315069733
 31
0.0
  0
LINE
  5
276F
330
26FC
100
AcDbEntity
  8
1
 62
     7
100
AcDbLine
 10
165.6060120192547
 20
245.0317315069735
 30
0.0
 11
165.6060120192547
 21
244.4317315069732
 31
0.0
  0
LINE
  5
2770
330
26FC
100
AcDbEntity
  8
1
 62
     7
100
AcDbLine
 10
161.6060120192547
 20
245.0317315069735
 30
0.0
 11
161.6060120192547
 21
244.4317315069732
 31
0.0
  0
LINE
  5
2771
330
26FC
100
AcDbEntity
  8
1
 62
     7
100
AcDbLine
 10
161.6060120192547
 20
245.0317315069735
 30
0.0
 11
165.6060120192547
 21
245.0317315069735
 31
0.0
  0
LINE
  5
2772
330
26FC
100
AcDbEntity
  8
1
  6
CENTER
 62
     3
100
AcDbLine
 10
160.8060120192547
 20
247.4317315069732
 30
0.0
 11
166.4060120192547
 21
247.4317315069732
 31
0.0
  0
LINE
  5
2773
330
26FC
100
AcDbEntity
  8
1
 62
     7
100
AcDbLine
 10
165.6060120192547
 20
250.4317315069735
 30
0.0
 11
165.6060120192547
 21
249.8317315069733
 31
0.0
  0
LINE
  5
2774
330
26FC
100
AcDbEntity
  8
1
 62
     7
100
AcDbLine
 10
161.6060120192547
 20
250.4317315069735
 30
0.0
 11
161.6060120192547
 21
249.8317315069733
 31
0.0
  0
LINE
  5
2775
330
26FC
100
AcDbEntity
  8
1
 62
     3
100
AcDbLine
 10
161.6060120192547
 20
250.4317315069735
 30
0.0
 11
165.6060120192547
 21
250.4317315069735
 31
0.0
  0
LINE
  5
2776
330
26FC
100
AcDbEntity
  8
1
 62
     7
100
AcDbLine
 10
165.6060120192547
 20
244.4317315069732
 30
0.0
 11
165.6060120192547
 21
228.8517315069734
 31
0.0
  0
LINE
  5
2777
330
26FC
100
AcDbEntity
  8
1
 62
     7
100
AcDbLine
 10
161.6060120192547
 20
244.4317315069732
 30
0.0
 11
161.6060120192547
 21
243.9317315069732
 31
0.0
  0
LINE
  5
2778
330
26FC
100
AcDbEntity
  8
1
 62
     3
100
AcDbLine
 10
161.6060120192547
 20
244.4317315069732
 30
0.0
 11
165.6060120192547
 21
244.4317315069732
 31
0.0
  0
LINE
  5
2779
330
26FC
100
AcDbEntity
  8
2
  6
CENTER
 62
     3
100
AcDbLine
 10
341.3693119460114
 20
206.5544950384511
 30
0.0
 11
341.3693119459851
 21
351.5544929363182
 31
0.0
  0
LINE
  5
277A
330
26FC
100
AcDbEntity
  8
1
  6
DIVIDE
 62
     7
100
AcDbLine
 10
162.6060119589994
 20
222.4317315069734
 30
0.0
 11
162.6060119589994
 21
235.2138865024461
 31
0.0
  0
LINE
  5
277B
330
26FC
100
AcDbEntity
  8
1
  6
DIVIDE
 62
     7
100
AcDbLine
 10
176.540618974102
 20
222.4317315069734
 30
0.0
 11
162.6060119589994
 21
222.4317315069734
 31
0.0
  0
LINE
  5
277C
330
26FC
100
AcDbEntity
  8
1
  6
DIVIDE
 62
     7
100
AcDbLine
 10
214.6060120191297
 20
222.4317315069734
 30
0.0
 11
214.6060120191296
 21
237.2711028725662
 31
0.0
  0
LINE
  5
277D
330
26FC
100
AcDbEntity
  8
0
 62
     7
100
AcDbLine
 10
212.6060120191297
 20
222.4317315069734
 30
0.0
 11
212.6060120191177
 21
218.7317315069737
 31
0.0
  0
LINE
  5
277E
330
26FC
100
AcDbEntity
  8
1
  6
DIVIDE
 62
     7
100
AcDbLine
 10
212.6060120191297
 20
222.4317315069734
 30
0.0
 11
214.6060120191297
 21
222.4317315069734
 31
0.0
  0
LINE
  5
277F
330
26FC
100
AcDbEntity
  8
1
  6
CENTER
 62
     3
100
AcDbLine
 10
158.490535104964
 20
300.4317315069735
 30
0.0
 11
168.157875959959
 21
300.4317315069735
 31
0.0
  0
LINE
  5
2780
330
26FC
100
AcDbEntity
  8
1
 62
     7
100
AcDbLine
 10
165.6060120192547
 20
294.9317315069734
 30
0.0
 11
165.6060120192547
 21
250.4317315069735
 31
0.0
  0
LINE
  5
2781
330
26FC
100
AcDbEntity
  8
1
 62
     7
100
AcDbLine
 10
161.6060120192547
 20
294.9317315069734
 30
0.0
 11
161.6060120192547
 21
250.4317315069735
 31
0.0
  0
LINE
  5
2782
330
26FC
100
AcDbEntity
  8
1
 62
     7
100
AcDbLine
 10
161.6060120192547
 20
294.9317315069734
 30
0.0
 11
165.6060120192547
 21
294.9317315069734
 31
0.0
  0
LINE
  5
2783
330
26FC
100
AcDbEntity
  8
1
 62
     7
100
AcDbLine
 10
165.6060120192547
 20
305.9317315069734
 30
0.0
 11
165.6060120192547
 21
294.9317315069734
 31
0.0
  0
LINE
  5
2784
330
26FC
100
AcDbEntity
  8
1
 62
     7
100
AcDbLine
 10
161.6060120192547
 20
305.9317315069734
 30
0.0
 11
161.6060120192547
 21
294.9317315069734
 31
0.0
  0
LINE
  5
2785
330
26FC
100
AcDbEntity
  8
1
 62
     7
100
AcDbLine
 10
161.6060120192547
 20
305.9317315069734
 30
0.0
 11
165.6060120192547
 21
305.9317315069734
 31
0.0
  0
LINE
  5
2786
330
26FC
100
AcDbEntity
  8
1
  6
CENTER
 62
     3
100
AcDbLine
 10
155.3232439281599
 20
275.4317315069735
 30
0.0
 11
215.7993289266837
 21
275.4317315069735
 31
0.0
  0
LINE
  5
2787
330
26FC
100
AcDbEntity
  8
1
 62
     7
100
AcDbLine
 10
161.6060120192547
 20
306.9317315069734
 30
0.0
 11
161.6060120192547
 21
305.9317315069734
 31
0.0
  0
LINE
  5
2788
330
26FC
100
AcDbEntity
  8
1
 62
     7
100
AcDbLine
 10
207.4060120192545
 20
326.6457315069736
 30
0.0
 11
202.6060120192547
 21
326.6457315069736
 31
0.0
  0
LINE
  5
2789
330
26FC
100
AcDbEntity
  8
1
 62
     7
100
AcDbLine
 10
207.4060120192545
 20
326.6457315069736
 30
0.0
 11
211.2354575647384
 21
326.6022859614897
 31
0.0
  0
LINE
  5
278A
330
26FC
100
AcDbEntity
  8
1
 62
     7
100
AcDbLine
 10
202.6060120192547
 20
326.6457315069736
 30
0.0
 11
194.5970120192546
 21
326.5479205470053
 31
0.0
  0
LINE
  5
278B
330
26FC
100
AcDbEntity
  8
1
 62
     7
100
AcDbLine
 10
167.8040120192547
 20
325.2137315069735
 30
0.0
 11
183.9820120192545
 21
325.2137315069735
 31
0.0
  0
LINE
  5
278C
330
26FC
100
AcDbEntity
  8
1
 62
     7
100
AcDbLine
 10
162.1060120192547
 20
307.4317315069735
 30
0.0
 11
164.4040120192547
 21
307.4317315069735
 31
0.0
  0
LINE
  5
278D
330
26FC
100
AcDbEntity
  8
1
 62
     7
100
AcDbLine
 10
162.1060120192547
 20
307.4317315069735
 30
0.0
 11
161.6060120192547
 21
306.9317315069734
 31
0.0
  0
LINE
  5
278E
330
26FC
100
AcDbEntity
  8
1
 62
     7
100
AcDbLine
 10
165.6060120192547
 20
291.4317315069734
 30
0.0
 11
161.6060120192547
 21
291.4317315069734
 31
0.0
  0
LINE
  5
278F
330
26FC
100
AcDbEntity
  8
1
 62
     7
100
AcDbLine
 10
165.6060120192547
 20
322.0117315069736
 30
0.0
 11
165.6060120192547
 21
305.9317315069734
 31
0.0
  0
LINE
  5
2790
330
26FC
100
AcDbEntity
  8
1
 62
     7
100
AcDbLine
 10
211.2354575647384
 20
326.6022859614897
 30
0.0
 11
212.5474333754918
 21
325.2903101507362
 31
0.0
  0
LINE
  5
2791
330
26FC
100
AcDbEntity
  8
1
 62
     7
100
AcDbLine
 10
212.6060120192547
 20
325.1488887944988
 30
0.0
 11
212.6060120192547
 21
324.7644137554561
 31
0.0
  0
LINE
  5
2792
330
26FC
100
AcDbEntity
  8
1
 62
     7
100
AcDbLine
 10
212.4164792105032
 20
324.5646878485052
 30
0.0
 11
211.4060120192545
 21
324.5117315069736
 31
0.0
  0
LINE
  5
2793
330
26FC
100
AcDbEntity
  8
1
 62
     7
100
AcDbLine
 10
211.4060120192545
 20
324.5117315069736
 30
0.0
 11
168.0060120192547
 21
324.5117315069736
 31
0.0
  0
LINE
  5
2794
330
26FC
100
AcDbEntity
  8
1
 62
     7
100
AcDbLine
 10
202.6060120192547
 20
224.2177315069735
 30
0.0
 11
207.4060120192545
 21
224.2177315069735
 31
0.0
  0
LINE
  5
2795
330
26FC
100
AcDbEntity
  8
1
 62
     7
100
AcDbLine
 10
211.2354575647384
 20
224.261177052457
 30
0.0
 11
207.4060120192545
 21
224.2177315069735
 31
0.0
  0
LINE
  5
2796
330
26FC
100
AcDbEntity
  8
1
 62
     7
100
AcDbLine
 10
194.5970120192546
 20
224.3155424669414
 30
0.0
 11
202.6060120192547
 21
224.2177315069735
 31
0.0
  0
LINE
  5
2797
330
26FC
100
AcDbEntity
  8
1
 62
     7
100
AcDbLine
 10
164.4040120192547
 20
243.4317315069733
 30
0.0
 11
162.1060120192547
 21
243.4317315069733
 31
0.0
  0
LINE
  5
2798
330
26FC
100
AcDbEntity
  8
1
 62
     7
100
AcDbLine
 10
161.6060120192547
 20
243.9317315069732
 30
0.0
 11
162.1060120192547
 21
243.4317315069733
 31
0.0
  0
LINE
  5
2799
330
26FC
100
AcDbEntity
  8
1
 62
     7
100
AcDbLine
 10
161.6060120192547
 20
259.4317315069732
 30
0.0
 11
165.6060120192547
 21
259.4317315069732
 31
0.0
  0
LINE
  5
279A
330
26FC
100
AcDbEntity
  8
1
 62
     7
100
AcDbLine
 10
212.5474333754918
 20
225.5731528632106
 30
0.0
 11
211.2354575647384
 21
224.261177052457
 31
0.0
  0
LINE
  5
279B
330
26FC
100
AcDbEntity
  8
1
 62
     7
100
AcDbLine
 10
212.6060120192547
 20
226.0990492584909
 30
0.0
 11
212.6060120192547
 21
225.7145742194479
 31
0.0
  0
LINE
  5
279C
330
26FC
100
AcDbEntity
  8
1
 62
     7
100
AcDbLine
 10
211.4060120192545
 20
226.3517315069733
 30
0.0
 11
212.4164792105032
 21
226.2987751654417
 31
0.0
  0
LINE
  5
279D
330
26FC
100
AcDbEntity
  8
1
 62
     7
100
AcDbLine
 10
168.0060120192547
 20
226.3517315069733
 30
0.0
 11
211.4060120192545
 21
226.3517315069733
 31
0.0
  0
LINE
  5
279E
330
26FC
100
AcDbEntity
  8
1
 62
     7
100
AcDbLine
 10
212.6060120192547
 20
226.0990492584909
 30
0.0
 11
212.6060120192547
 21
239.2320382987092
 31
0.0
  0
LINE
  5
279F
330
26FC
100
AcDbEntity
  8
1
 62
     7
100
AcDbLine
 10
212.6060120192547
 20
312.2475834103703
 30
0.0
 11
212.6060120192547
 21
324.7644137554561
 31
0.0
  0
LINE
  5
27A0
330
26FC
100
AcDbEntity
  8
1
 62
     7
100
AcDbLine
 10
204.0863967170082
 20
333.0317315069736
 30
0.0
 11
204.6060119592788
 21
332.1317315069732
 31
0.0
  0
LINE
  5
27A1
330
26FC
100
AcDbEntity
  8
1
 62
     7
100
AcDbLine
 10
204.6060119592788
 20
338.7317315069736
 30
0.0
 11
204.6060119592788
 21
332.1317315069732
 31
0.0
  0
LINE
  5
27A2
330
26FC
100
AcDbEntity
  8
0
 62
     7
100
AcDbLine
 10
195.6060119592788
 20
337.8317315069733
 30
0.0
 11
195.6060119592788
 21
333.0317315069736
 31
0.0
  0
LINE
  5
27A3
330
26FC
100
AcDbEntity
  8
1
 62
     7
100
AcDbLine
 10
195.6060119592788
 20
337.8317315069733
 30
0.0
 11
204.0863967170082
 21
337.8317315069733
 31
0.0
  0
LINE
  5
27A4
330
26FC
100
AcDbEntity
  8
0
 62
     7
100
AcDbLine
 10
195.6060119592788
 20
333.0317315069736
 30
0.0
 11
195.6060119592788
 21
332.4317315069735
 31
0.0
  0
LINE
  5
27A5
330
26FC
100
AcDbEntity
  8
1
 62
     7
100
AcDbLine
 10
195.6060119592788
 20
333.0317315069736
 30
0.0
 11
204.0863967170082
 21
333.0317315069736
 31
0.0
  0
LINE
  5
27A6
330
26FC
100
AcDbEntity
  8
1
  6
CENTER
 62
     3
100
AcDbLine
 10
220.4410118833214
 20
335.4317315069733
 30
0.0
 11
190.6060120343973
 21
335.4317315069733
 31
0.0
  0
LINE
  5
27A7
330
26FC
100
AcDbEntity
  8
0
 62
     7
100
AcDbLine
 10
195.6060119592788
 20
338.4317315069735
 30
0.0
 11
195.6060119592788
 21
342.5317304991168
 31
0.0
  0
LINE
  5
27A8
330
26FC
100
AcDbEntity
  8
1
 62
     3
100
AcDbLine
 10
195.6060119592788
 20
338.4317315069735
 30
0.0
 11
204.4328068785219
 21
338.4317315069735
 31
0.0
  0
LINE
  5
27A9
330
26FC
100
AcDbEntity
  8
0
 62
     7
100
AcDbLine
 10
195.6060119592788
 20
332.4317315069735
 30
0.0
 11
195.5964783473813
 21
330.7317315025763
 31
0.0
  0
LINE
  5
27AA
330
26FC
100
AcDbEntity
  8
1
 62
     3
100
AcDbLine
 10
195.6060119592788
 20
332.4317315069735
 30
0.0
 11
204.4328068785219
 21
332.4317315069735
 31
0.0
  0
LINE
  5
27AB
330
26FC
100
AcDbEntity
  8
0
 62
     7
100
AcDbLine
 10
204.1960121281424
 20
310.9917309729414
 30
0.0
 11
199.5510121979294
 21
310.9917309729414
 31
0.0
  0
LINE
  5
27AC
330
26FC
100
AcDbEntity
  8
0
 62
     7
100
AcDbLine
 10
208.8060120265955
 20
310.9917309729414
 30
0.0
 11
204.1960121281424
 21
310.9917309729414
 31
0.0
  0
LINE
  5
27AD
330
26FC
100
AcDbEntity
  8
0
 62
     7
100
AcDbLine
 10
204.1960121281424
 20
239.8717320410312
 30
0.0
 11
199.5510121979294
 21
239.8717320410312
 31
0.0
  0
LINE
  5
27AE
330
26FC
100
AcDbEntity
  8
0
 62
     7
100
AcDbLine
 10
208.8060120265955
 20
239.8717320410312
 30
0.0
 11
204.1960121281424
 21
239.8717320410312
 31
0.0
  0
LINE
  5
27AF
330
26FC
100
AcDbEntity
  8
0
 62
     7
100
AcDbLine
 10
197.7060120192546
 20
291.6817312629112
 30
0.0
 11
197.7060120192546
 21
310.9917309729414
 31
0.0
  0
LINE
  5
27B0
330
26FC
100
AcDbEntity
  8
0
 62
     7
100
AcDbLine
 10
197.7060120192546
 20
310.9917309729414
 30
0.0
 11
209.3060120192546
 21
310.9917309729414
 31
0.0
  0
LINE
  5
27B1
330
26FC
100
AcDbEntity
  8
0
 62
     7
100
AcDbLine
 10
209.3060120192546
 20
310.9917309729414
 30
0.0
 11
209.3060120192546
 21
291.6817312629112
 31
0.0
  0
LINE
  5
27B2
330
26FC
100
AcDbEntity
  8
0
 62
     7
100
AcDbLine
 10
209.3060120192546
 20
291.6817312629112
 30
0.0
 11
197.7060120192546
 21
291.6817312629112
 31
0.0
  0
LINE
  5
27B3
330
26FC
100
AcDbEntity
  8
0
 62
     7
100
AcDbLine
 10
202.9410121471479
 20
291.6817312629112
 30
0.0
 11
202.9410121471479
 21
310.9917309729414
 31
0.0
  0
LINE
  5
27B4
330
26FC
100
AcDbEntity
  8
0
 62
     7
100
AcDbLine
 10
202.9410121471479
 20
296.1817311953355
 30
0.0
 11
197.7060120192546
 21
296.1817311953355
 31
0.0
  0
LINE
  5
27B5
330
26FC
100
AcDbEntity
  8
0
 62
     7
100
AcDbLine
 10
197.7060120192546
 20
259.1817317510382
 30
0.0
 11
197.7060120192546
 21
239.8717320410312
 31
0.0
  0
LINE
  5
27B6
330
26FC
100
AcDbEntity
  8
0
 62
     7
100
AcDbLine
 10
197.7060120192546
 20
239.8717320410312
 30
0.0
 11
209.3060120192546
 21
239.8717320410312
 31
0.0
  0
LINE
  5
27B7
330
26FC
100
AcDbEntity
  8
0
 62
     7
100
AcDbLine
 10
209.3060120192546
 20
239.8717320410312
 30
0.0
 11
209.3060120192546
 21
259.1817317510382
 31
0.0
  0
LINE
  5
27B8
330
26FC
100
AcDbEntity
  8
0
 62
     7
100
AcDbLine
 10
209.3060120192546
 20
259.1817317510382
 30
0.0
 11
197.7060120192546
 21
259.1817317510382
 31
0.0
  0
LINE
  5
27B9
330
26FC
100
AcDbEntity
  8
0
 62
     7
100
AcDbLine
 10
202.9410121471479
 20
259.1817317510382
 30
0.0
 11
202.9410121471479
 21
254.681731818614
 31
0.0
  0
LINE
  5
27BA
330
26FC
100
AcDbEntity
  8
0
 62
     7
100
AcDbLine
 10
202.9410121471479
 20
254.681731818614
 30
0.0
 11
197.706012019473
 21
254.681731818614
 31
0.0
  0
LINE
  5
27BB
330
26FC
100
AcDbEntity
  8
0
 62
     7
100
AcDbLine
 10
192.7060120192546
 20
294.4317312216223
 30
0.0
 11
192.7060120192546
 21
308.9317310037963
 31
0.0
  0
LINE
  5
27BC
330
26FC
100
AcDbEntity
  8
0
 62
     7
100
AcDbLine
 10
192.7060120192546
 20
308.9317310037963
 30
0.0
 11
194.3410122790894
 21
308.9317310037963
 31
0.0
  0
LINE
  5
27BD
330
26FC
100
AcDbEntity
  8
0
 62
     7
100
AcDbLine
 10
194.3410122790894
 20
308.9317310037963
 30
0.0
 11
194.3410122790894
 21
317.4317308761558
 31
0.0
  0
LINE
  5
27BE
330
26FC
100
AcDbEntity
  8
0
 62
     7
100
AcDbLine
 10
194.3410122790894
 20
317.4317308761558
 30
0.0
 11
196.1410122490571
 21
317.4317308761558
 31
0.0
  0
LINE
  5
27BF
330
26FC
100
AcDbEntity
  8
0
 62
     7
100
AcDbLine
 10
196.1410122490571
 20
317.4317308761558
 30
0.0
 11
196.1410122490571
 21
308.9317310037963
 31
0.0
  0
LINE
  5
27C0
330
26FC
100
AcDbEntity
  8
0
 62
     7
100
AcDbLine
 10
196.1410122490571
 20
308.9317310037963
 30
0.0
 11
202.7410121499619
 21
308.9317310037963
 31
0.0
  0
LINE
  5
27C1
330
26FC
100
AcDbEntity
  8
0
 62
     7
100
AcDbLine
 10
202.7410121499619
 20
308.9317310037963
 30
0.0
 11
202.7410121499619
 21
296.4317311915722
 31
0.0
  0
LINE
  5
27C2
330
26FC
100
AcDbEntity
  8
0
 62
     7
100
AcDbLine
 10
202.7410121499619
 20
296.4317311915722
 30
0.0
 11
197.2410122325501
 21
296.4317311915722
 31
0.0
  0
LINE
  5
27C3
330
26FC
100
AcDbEntity
  8
0
 62
     7
100
AcDbLine
 10
197.2410122325501
 20
292.4317312516242
 30
0.0
 11
193.2060120117451
 21
292.4317312516242
 31
0.0
  0
LINE
  5
27C4
330
26FC
100
AcDbEntity
  8
0
 62
     7
100
AcDbLine
 10
193.2060120117451
 20
292.4317312516242
 30
0.0
 11
193.2060120117451
 21
294.4317312216223
 31
0.0
  0
LINE
  5
27C5
330
26FC
100
AcDbEntity
  8
0
 62
     7
100
AcDbLine
 10
193.2060120117451
 20
294.4317312216223
 30
0.0
 11
192.7060120192546
 21
294.4317312216223
 31
0.0
  0
LINE
  5
27C6
330
26FC
100
AcDbEntity
  8
0
 62
     7
100
AcDbLine
 10
197.2410122325501
 20
292.4317312516242
 30
0.0
 11
197.2410122325501
 21
296.4317311915722
 31
0.0
  0
LINE
  5
27C7
330
26FC
100
AcDbEntity
  8
0
 62
     7
100
AcDbLine
 10
192.7060120192546
 20
256.4317317923756
 30
0.0
 11
187.7410123752283
 21
256.4317317923756
 31
0.0
  0
LINE
  5
27C8
330
26FC
100
AcDbEntity
  8
0
 62
     7
100
AcDbLine
 10
187.7410123752283
 20
256.4317317923756
 30
0.0
 11
187.7410123752283
 21
241.9317320102271
 31
0.0
  0
LINE
  5
27C9
330
26FC
100
AcDbEntity
  8
0
 62
     7
100
AcDbLine
 10
187.7410123752283
 20
241.9317320102271
 30
0.0
 11
194.3410122790894
 21
241.9317320102271
 31
0.0
  0
LINE
  5
27CA
330
26FC
100
AcDbEntity
  8
0
 62
     7
100
AcDbLine
 10
194.3410122790894
 20
241.9317320102271
 30
0.0
 11
194.3410122790894
 21
233.4317321379182
 31
0.0
  0
LINE
  5
27CB
330
26FC
100
AcDbEntity
  8
0
 62
     7
100
AcDbLine
 10
194.3410122790894
 20
233.4317321379182
 30
0.0
 11
196.1410122490571
 21
233.4317321379182
 31
0.0
  0
LINE
  5
27CC
330
26FC
100
AcDbEntity
  8
0
 62
     7
100
AcDbLine
 10
196.1410122490571
 20
233.4317321379182
 30
0.0
 11
196.1410122490571
 21
241.9317320102271
 31
0.0
  0
LINE
  5
27CD
330
26FC
100
AcDbEntity
  8
0
 62
     7
100
AcDbLine
 10
196.1410122490571
 20
241.9317320102271
 30
0.0
 11
197.706012019036
 21
241.9317320102271
 31
0.0
  0
LINE
  5
27CE
330
26FC
100
AcDbEntity
  8
0
 62
     7
100
AcDbLine
 10
197.2410122325501
 20
258.4317317623303
 30
0.0
 11
193.2060120117451
 21
258.4317317623303
 31
0.0
  0
LINE
  5
27CF
330
26FC
100
AcDbEntity
  8
0
 62
     7
100
AcDbLine
 10
193.2060120117451
 20
258.4317317623303
 30
0.0
 11
193.2060120117451
 21
256.4317317923756
 31
0.0
  0
LINE
  5
27D0
330
26FC
100
AcDbEntity
  8
0
 62
     7
100
AcDbLine
 10
193.2060120117451
 20
256.4317317923756
 30
0.0
 11
192.7060120192546
 21
256.4317317923756
 31
0.0
  0
LINE
  5
27D1
330
26FC
100
AcDbEntity
  8
0
 62
     7
100
AcDbLine
 10
197.2410122325501
 20
258.4317317623303
 30
0.0
 11
197.2410122325501
 21
254.431731822395
 31
0.0
  0
LINE
  5
27D2
330
26FC
100
AcDbEntity
  8
0
 62
     7
100
AcDbLine
 10
197.2410122325501
 20
254.431731822395
 30
0.0
 11
197.7060120192546
 21
254.431731822395
 31
0.0
  0
LINE
  5
27D3
330
26FC
100
AcDbEntity
  8
0
 62
     7
100
AcDbLine
 10
192.7060120192546
 20
256.4317317923756
 30
0.0
 11
192.7060120192546
 21
241.9317320102271
 31
0.0
  0
LINE
  5
27D4
330
26FC
100
AcDbEntity
  8
0
 62
     7
100
AcDbLine
 10
193.2060120117451
 20
291.431731266672
 30
0.0
 11
193.2060120117451
 21
292.4317312516242
 31
0.0
  0
LINE
  5
27D5
330
26FC
100
AcDbEntity
  8
0
 62
     7
100
AcDbLine
 10
197.2410122325501
 20
292.4317312516242
 30
0.0
 11
197.2410122325272
 21
291.431731266672
 31
0.0
  0
LINE
  5
27D6
330
26FC
100
AcDbEntity
  8
0
 62
     7
100
AcDbLine
 10
193.2060120117451
 20
258.4317317623303
 30
0.0
 11
193.2060120117451
 21
259.4317317472826
 31
0.0
  0
LINE
  5
27D7
330
26FC
100
AcDbEntity
  8
0
 62
     7
100
AcDbLine
 10
197.2410122325272
 20
259.4317317472826
 30
0.0
 11
197.2410122325501
 21
258.4317317623303
 31
0.0
  0
LINE
  5
27D8
330
26FC
100
AcDbEntity
  8
0
 62
     7
100
AcDbLine
 10
187.1060120192547
 20
275.4317315069735
 30
0.0
 11
187.1060120192547
 21
291.431731266672
 31
0.0
  0
LINE
  5
27D9
330
26FC
100
AcDbEntity
  8
0
 62
     7
100
AcDbLine
 10
187.1060120192547
 20
291.431731266672
 30
0.0
 11
187.1060120254159
 21
291.431731266672
 31
0.0
  0
LINE
  5
27DA
330
26FC
100
AcDbEntity
  8
0
 62
     7
100
AcDbLine
 10
187.5060120192546
 20
291.831731260653
 30
0.0
 11
187.5060120192546
 21
309.1817315069735
 31
0.0
  0
LINE
  5
27DB
330
26FC
100
AcDbEntity
  8
0
 62
     7
100
AcDbLine
 10
187.5060120192546
 20
309.1817315069735
 30
0.0
 11
192.7060120192546
 21
309.1817315069735
 31
0.0
  0
LINE
  5
27DC
330
26FC
100
AcDbEntity
  8
0
 62
     7
100
AcDbLine
 10
192.7060120192546
 20
309.1817315069735
 30
0.0
 11
192.7060120192546
 21
291.831731260653
 31
0.0
  0
LINE
  5
27DD
330
26FC
100
AcDbEntity
  8
0
 62
     7
100
AcDbLine
 10
193.1060120133473
 20
291.431731266672
 30
0.0
 11
210.4560120017729
 21
291.431731266672
 31
0.0
  0
LINE
  5
27DE
330
26FC
100
AcDbEntity
  8
0
 62
     7
100
AcDbLine
 10
210.4560120017729
 20
291.431731266672
 30
0.0
 11
210.4560120017729
 21
290.5817312794641
 31
0.0
  0
LINE
  5
27DF
330
26FC
100
AcDbEntity
  8
0
 62
     7
100
AcDbLine
 10
210.4560120017729
 20
290.5817312794641
 30
0.0
 11
212.1060120192546
 21
290.5817312794641
 31
0.0
  0
LINE
  5
27E0
330
26FC
100
AcDbEntity
  8
0
 62
     7
100
AcDbLine
 10
212.1060120192546
 20
290.5817312794641
 30
0.0
 11
212.1060120192546
 21
291.431731266672
 31
0.0
  0
LINE
  5
27E1
330
26FC
100
AcDbEntity
  8
0
 62
     7
100
AcDbLine
 10
212.1060120192546
 20
291.431731266672
 30
0.0
 11
214.1060120267659
 21
291.431731266672
 31
0.0
  0
LINE
  5
27E2
330
26FC
100
AcDbEntity
  8
0
 62
     7
100
AcDbLine
 10
214.1060120267659
 20
291.431731266672
 30
0.0
 11
214.6060120192547
 21
290.9317312741959
 31
0.0
  0
LINE
  5
27E3
330
26FC
100
AcDbEntity
  8
0
 62
     7
100
AcDbLine
 10
214.6060120192547
 20
290.9317312741959
 30
0.0
 11
214.6060120192547
 21
275.4317315069735
 31
0.0
  0
LINE
  5
27E4
330
26FC
100
AcDbEntity
  8
0
 62
     7
100
AcDbLine
 10
187.1060120192547
 20
275.4317315069735
 30
0.0
 11
187.1060120192547
 21
259.4317317472826
 31
0.0
  0
LINE
  5
27E5
330
26FC
100
AcDbEntity
  8
0
 62
     7
100
AcDbLine
 10
187.1060120192547
 20
259.4317317472826
 30
0.0
 11
187.1060120254159
 21
259.4317317472826
 31
0.0
  0
LINE
  5
27E6
330
26FC
100
AcDbEntity
  8
0
 62
     7
100
AcDbLine
 10
187.5060120192546
 20
259.031731753317
 30
0.0
 11
187.5060120192546
 21
241.6817315069731
 31
0.0
  0
LINE
  5
27E7
330
26FC
100
AcDbEntity
  8
0
 62
     7
100
AcDbLine
 10
187.5060120192546
 20
241.6817315069731
 30
0.0
 11
192.7060120192546
 21
241.6817315069731
 31
0.0
  0
LINE
  5
27E8
330
26FC
100
AcDbEntity
  8
0
 62
     7
100
AcDbLine
 10
192.7060120192546
 20
241.6817315069731
 30
0.0
 11
192.7060120192546
 21
259.031731753317
 31
0.0
  0
LINE
  5
27E9
330
26FC
100
AcDbEntity
  8
0
 62
     7
100
AcDbLine
 10
193.1060120133473
 20
259.4317317472826
 30
0.0
 11
210.4560120017729
 21
259.4317317472826
 31
0.0
  0
LINE
  5
27EA
330
26FC
100
AcDbEntity
  8
0
 62
     7
100
AcDbLine
 10
210.4560120017729
 20
259.4317317472826
 30
0.0
 11
210.4560120017729
 21
260.2817317344881
 31
0.0
  0
LINE
  5
27EB
330
26FC
100
AcDbEntity
  8
0
 62
     7
100
AcDbLine
 10
210.4560120017729
 20
260.2817317344881
 30
0.0
 11
212.1060120192546
 21
260.2817317344881
 31
0.0
  0
LINE
  5
27EC
330
26FC
100
AcDbEntity
  8
0
 62
     7
100
AcDbLine
 10
212.1060120192546
 20
260.2817317344881
 30
0.0
 11
212.1060120192546
 21
259.4317317472826
 31
0.0
  0
LINE
  5
27ED
330
26FC
100
AcDbEntity
  8
0
 62
     7
100
AcDbLine
 10
212.1060120192546
 20
259.4317317472826
 30
0.0
 11
214.1060120267659
 21
259.4317317472826
 31
0.0
  0
LINE
  5
27EE
330
26FC
100
AcDbEntity
  8
0
 62
     7
100
AcDbLine
 10
214.1060120267659
 20
259.4317317472826
 30
0.0
 11
214.6060120192547
 21
259.9317317397711
 31
0.0
  0
LINE
  5
27EF
330
26FC
100
AcDbEntity
  8
0
 62
     7
100
AcDbLine
 10
214.6060120192547
 20
259.9317317397711
 30
0.0
 11
214.6060120192547
 21
275.4317315069735
 31
0.0
  0
LINE
  5
27F0
330
26FC
100
AcDbEntity
  8
0
 62
     7
100
AcDbLine
 10
187.1060120192547
 20
284.7317313672848
 30
0.0
 11
214.6060120192547
 21
284.7317313672848
 31
0.0
  0
LINE
  5
27F1
330
26FC
100
AcDbEntity
  8
0
 62
     7
100
AcDbLine
 10
187.1060120192547
 20
282.4317314018466
 30
0.0
 11
214.6060120192547
 21
282.4317314018466
 31
0.0
  0
LINE
  5
27F2
330
26FC
100
AcDbEntity
  8
0
 62
     7
100
AcDbLine
 10
187.1060120192547
 20
268.4317316121056
 30
0.0
 11
214.6060120192547
 21
268.4317316121056
 31
0.0
  0
LINE
  5
27F3
330
26FC
100
AcDbEntity
  8
0
 62
     7
100
AcDbLine
 10
187.5060120192546
 20
258.4317317623303
 30
0.0
 11
192.7060120192546
 21
258.4317317623303
 31
0.0
  0
LINE
  5
27F4
330
26FC
100
AcDbEntity
  8
0
 62
     7
100
AcDbLine
 10
209.3060120190488
 20
296.9317311840967
 30
0.0
 11
210.4560120017729
 21
296.9317311840967
 31
0.0
  0
LINE
  5
27F5
330
26FC
100
AcDbEntity
  8
0
 62
     7
100
AcDbLine
 10
210.4560120017729
 20
296.9317311840967
 30
0.0
 11
210.4560120017729
 21
291.431731266672
 31
0.0
  0
LINE
  5
27F6
330
26FC
100
AcDbEntity
  8
0
 62
     7
100
AcDbLine
 10
210.4560120017729
 20
292.4317312516242
 30
0.0
 11
209.3060120190488
 21
292.4317312516242
 31
0.0
  0
LINE
  5
27F7
330
26FC
100
AcDbEntity
  8
0
 62
     7
100
AcDbLine
 10
209.3060120190488
 20
253.9317318299063
 30
0.0
 11
210.4560120017729
 21
253.9317318299063
 31
0.0
  0
LINE
  5
27F8
330
26FC
100
AcDbEntity
  8
0
 62
     7
100
AcDbLine
 10
210.4560120017729
 20
253.9317318299063
 30
0.0
 11
210.4560120017729
 21
259.4317317472826
 31
0.0
  0
LINE
  5
27F9
330
26FC
100
AcDbEntity
  8
0
 62
     7
100
AcDbLine
 10
210.4560120017729
 20
258.4317317623303
 30
0.0
 11
209.3060120190488
 21
258.4317317623303
 31
0.0
  0
LINE
  5
27FA
330
26FC
100
AcDbEntity
  8
0
 62
     7
100
AcDbLine
 10
210.4560120017729
 20
256.4317317923756
 30
0.0
 11
212.1060120192546
 21
256.4317317923756
 31
0.0
  0
LINE
  5
27FB
330
26FC
100
AcDbEntity
  8
0
 62
     7
100
AcDbLine
 10
212.1060120192546
 20
256.4317317923756
 30
0.0
 11
212.1060120192546
 21
259.4317317472826
 31
0.0
  0
LINE
  5
27FC
330
26FC
100
AcDbEntity
  8
0
 62
     7
100
AcDbLine
 10
210.4560120017729
 20
294.4317312216223
 30
0.0
 11
212.1060120192546
 21
294.4317312216223
 31
0.0
  0
LINE
  5
27FD
330
26FC
100
AcDbEntity
  8
0
 62
     7
100
AcDbLine
 10
212.1060120192546
 20
294.4317312216223
 30
0.0
 11
212.1060120192546
 21
291.431731266672
 31
0.0
  0
LINE
  5
27FE
330
26FC
100
AcDbEntity
  8
1
 62
     7
100
AcDbLine
 10
204.0863967170082
 20
337.8317315069733
 30
0.0
 11
204.0863967170082
 21
333.0317315069736
 31
0.0
  0
LINE
  5
27FF
330
26FC
100
AcDbEntity
  8
1
 62
     7
100
AcDbLine
 10
204.6060119592788
 20
338.7317315069736
 30
0.0
 11
204.0863967170082
 21
337.8317315069733
 31
0.0
  0
LINE
  5
2800
330
26FC
100
AcDbEntity
  8
0
 62
     7
100
AcDbLine
 10
195.6060119592788
 20
337.8317315069733
 30
0.0
 11
195.6060119592788
 21
338.4317315069735
 31
0.0
  0
LINE
  5
2801
330
26FC
100
AcDbEntity
  8
0
 62
     7
100
AcDbLine
 10
212.6060120192927
 20
332.1317315069732
 30
0.0
 11
212.6060120192927
 21
338.7317315069736
 31
0.0
  0
LINE
  5
2802
330
26FC
100
AcDbEntity
  8
1
 62
     7
100
AcDbLine
 10
212.6060120192927
 20
332.1317315069732
 30
0.0
 11
204.6060119592788
 21
332.1317315069732
 31
0.0
  0
LINE
  5
2803
330
26FC
100
AcDbEntity
  8
0
 62
     7
100
AcDbLine
 10
212.6060120192927
 20
338.7317315069736
 30
0.0
 11
212.6060120193907
 21
342.5317304989389
 31
0.0
  0
LINE
  5
2804
330
26FC
100
AcDbEntity
  8
1
 62
     7
100
AcDbLine
 10
212.6060120192927
 20
338.7317315069736
 30
0.0
 11
204.6060119592788
 21
338.7317315069736
 31
0.0
  0
LINE
  5
2805
330
26FC
100
AcDbEntity
  8
0
 62
     7
100
AcDbLine
 10
195.6060119589994
 20
212.1317315069735
 30
0.0
 11
195.6060119589994
 21
218.7317315069737
 31
0.0
  0
LINE
  5
2806
330
26FC
100
AcDbEntity
  8
0
 62
     7
100
AcDbLine
 10
212.6060120191177
 20
212.1317315069735
 30
0.0
 11
212.6060120191024
 21
208.3317325148304
 31
0.0
  0
LINE
  5
2807
330
26FC
100
AcDbEntity
  8
1
 62
     7
100
AcDbLine
 10
212.6060120191177
 20
212.1317315069735
 30
0.0
 11
195.6060119589994
 21
212.1317315069735
 31
0.0
  0
LINE
  5
2808
330
26FC
100
AcDbEntity
  8
0
 62
     7
100
AcDbLine
 10
195.6060119589994
 20
218.7317315069737
 30
0.0
 11
195.6060119589994
 21
220.1317315069733
 31
0.0
  0
LINE
  5
2809
330
26FC
100
AcDbEntity
  8
0
 62
     7
100
AcDbLine
 10
212.6060120191177
 20
218.7317315069737
 30
0.0
 11
212.6060120191177
 21
212.1317315069735
 31
0.0
  0
LINE
  5
280A
330
26FC
100
AcDbEntity
  8
1
 62
     7
100
AcDbLine
 10
212.6060120191177
 20
218.7317315069737
 30
0.0
 11
195.6060119589994
 21
218.7317315069737
 31
0.0
  0
LINE
  5
280B
330
26FC
100
AcDbEntity
  8
1
  6
CENTER
 62
     3
100
AcDbLine
 10
220.4410118831674
 20
215.4317315069735
 30
0.0
 11
190.6060120340972
 21
215.4317315069735
 31
0.0
  0
LINE
  5
280C
330
26FC
100
AcDbEntity
  8
0
 62
     7
100
AcDbLine
 10
212.6060120191366
 20
224.5860460905813
 30
0.0
 11
212.6060120191297
 21
222.4317315069734
 31
0.0
  0
LINE
  5
280D
330
26FC
100
AcDbEntity
  8
0
 62
     7
100
AcDbLine
 10
212.6060120191024
 20
208.3317325148304
 30
0.0
 11
212.2060120249432
 21
207.9317325204837
 31
0.0
  0
LINE
  5
280E
330
26FC
100
AcDbEntity
  8
0
 62
     7
100
AcDbLine
 10
212.2060120249432
 20
207.9317325204837
 30
0.0
 11
196.0060119529904
 21
207.9317325204837
 31
0.0
  0
LINE
  5
280F
330
26FC
100
AcDbEntity
  8
0
 62
     7
100
AcDbLine
 10
196.0060119529904
 20
207.9317325204837
 30
0.0
 11
195.6060119589994
 21
208.3317325148304
 31
0.0
  0
LINE
  5
2810
330
26FC
100
AcDbEntity
  8
0
 62
     7
100
AcDbLine
 10
195.6060119589994
 20
208.3317325148304
 30
0.0
 11
195.6060119589994
 21
212.1317315069735
 31
0.0
  0
LINE
  5
2811
330
26FC
100
AcDbEntity
  8
0
 62
     7
100
AcDbLine
 10
192.0060120131312
 20
220.4317315069734
 30
0.0
 11
195.3060119589994
 21
220.4317315069734
 31
0.0
  0
LINE
  5
2812
330
26FC
100
AcDbEntity
  8
0
 62
     7
100
AcDbLine
 10
192.0060120131312
 20
220.4317315069734
 30
0.0
 11
191.6060120192926
 21
220.8317315010662
 31
0.0
  0
LINE
  5
2813
330
26FC
100
AcDbEntity
  8
0
 62
     7
100
AcDbLine
 10
191.6060120192926
 20
220.8317315010662
 30
0.0
 11
191.6060120192926
 21
224.5860460905813
 31
0.0
  0
LINE
  5
2814
330
26FC
100
AcDbEntity
  8
0
 62
     7
100
AcDbLine
 10
212.6060120191721
 20
326.2774169232999
 30
0.0
 11
212.6060120192927
 21
332.1317315069732
 31
0.0
  0
LINE
  5
2815
330
26FC
100
AcDbEntity
  8
0
 62
     7
100
AcDbLine
 10
212.6060120193907
 20
342.5317304989389
 30
0.0
 11
212.2060120253673
 21
342.9317304932855
 31
0.0
  0
LINE
  5
2816
330
26FC
100
AcDbEntity
  8
0
 62
     7
100
AcDbLine
 10
212.2060120253673
 20
342.9317304932855
 30
0.0
 11
196.0060119533715
 21
342.9317304931077
 31
0.0
  0
LINE
  5
2817
330
26FC
100
AcDbEntity
  8
0
 62
     7
100
AcDbLine
 10
196.0060119533715
 20
342.9317304931077
 30
0.0
 11
195.6060119592788
 21
342.5317304989389
 31
0.0
  0
LINE
  5
2818
330
26FC
100
AcDbEntity
  8
0
 62
     7
100
AcDbLine
 10
195.2964783519135
 20
330.4317315070831
 30
0.0
 11
191.9964784014877
 21
330.4317315069051
 31
0.0
  0
LINE
  5
2819
330
26FC
100
AcDbEntity
  8
0
 62
     7
100
AcDbLine
 10
191.9964784014877
 20
330.4317315069051
 30
0.0
 11
191.5964784073951
 21
330.0317315131174
 31
0.0
  0
LINE
  5
281A
330
26FC
100
AcDbEntity
  8
0
 62
     7
100
AcDbLine
 10
191.5964784073951
 20
330.0317315131174
 30
0.0
 11
191.6060120192926
 21
326.277416923122
 31
0.0
  0
LINE
  5
281B
330
26FC
100
AcDbEntity
  8
0
 62
     7
100
AcDbLine
 10
191.6060120192926
 20
224.5860460905813
 30
0.0
 11
192.171697435431
 21
225.1517315069735
 31
0.0
  0
LINE
  5
281C
330
26FC
100
AcDbEntity
  8
0
 62
     7
100
AcDbLine
 10
192.171697435431
 20
225.1517315069735
 30
0.0
 11
212.0403266028341
 21
225.1517315069735
 31
0.0
  0
LINE
  5
281D
330
26FC
100
AcDbEntity
  8
0
 62
     7
100
AcDbLine
 10
212.0403266028341
 20
225.1517315069735
 30
0.0
 11
212.6060120191366
 21
224.5860460905813
 31
0.0
  0
LINE
  5
281E
330
26FC
100
AcDbEntity
  8
0
 62
     7
100
AcDbLine
 10
191.6060120190387
 20
224.151731521996
 30
0.0
 11
212.6060120191356
 21
224.151731521996
 31
0.0
  0
LINE
  5
281F
330
26FC
100
AcDbEntity
  8
0
 62
     7
100
AcDbLine
 10
191.6060120192926
 20
326.277416923122
 30
0.0
 11
192.1716974359389
 21
325.7117315069841
 31
0.0
  0
LINE
  5
2820
330
26FC
100
AcDbEntity
  8
0
 62
     7
100
AcDbLine
 10
192.1716974359389
 20
325.7117315069841
 30
0.0
 11
212.0403266027859
 21
325.7117315068061
 31
0.0
  0
LINE
  5
2821
330
26FC
100
AcDbEntity
  8
0
 62
     7
100
AcDbLine
 10
212.0403266027859
 20
325.7117315068061
 30
0.0
 11
212.6060120193569
 21
326.2774169232999
 31
0.0
  0
LINE
  5
2822
330
26FC
100
AcDbEntity
  8
0
 62
     7
100
AcDbLine
 10
191.6060120192926
 20
326.6457315069736
 30
0.0
 11
212.6060120193579
 21
326.6457315069736
 31
0.0
  0
LINE
  5
2823
330
26FC
100
AcDbEntity
  8
0
 62
     7
100
AcDbLine
 10
197.8060119265596
 20
326.6457315073543
 30
0.0
 11
211.7801994973198
 21
326.6457315073543
 31
0.0
  0
LINE
  5
2824
330
26FC
100
AcDbEntity
  8
0
 62
     7
100
AcDbLine
 10
197.8060119265596
 20
224.151731521996
 30
0.0
 11
211.7801994973198
 21
224.151731521996
 31
0.0
  0
LINE
  5
2825
330
26FC
100
AcDbEntity
  8
0
 62
     7
100
AcDbLine
 10
195.0030675050866
 20
325.7117315070856
 30
0.0
 11
211.6926769368282
 21
325.7117315071866
 31
0.0
  0
LINE
  5
2826
330
26FC
100
AcDbEntity
  8
0
 62
     7
100
AcDbLine
 10
195.0030675050866
 20
225.1517315069735
 30
0.0
 11
211.6926769368282
 21
225.1517315069735
 31
0.0
  0
LINE
  5
2827
330
26FC
100
AcDbEntity
  8
1
  6
CENTER
 62
     3
100
AcDbLine
 10
374.37764526647
 20
219.1833815311743
 30
0.0
 11
369.4276452664698
 21
227.7570330286402
 31
0.0
  0
LINE
  5
2828
330
26FC
100
AcDbEntity
  8
1
  6
CENTER
 62
     3
100
AcDbLine
 10
398.1509952422691
 20
242.9567315069736
 30
0.0
 11
389.5773437448032
 21
247.9067315069735
 31
0.0
  0
LINE
  5
2829
330
26FC
100
AcDbEntity
  8
1
  6
CENTER
 62
     3
100
AcDbLine
 10
398.1509952422691
 20
307.9067315069734
 30
0.0
 11
389.5773437448032
 21
302.9567315069734
 31
0.0
  0
LINE
  5
282A
330
26FC
100
AcDbEntity
  8
1
  6
CENTER
 62
     3
100
AcDbLine
 10
374.37764526647
 20
331.6800814827729
 30
0.0
 11
369.4276452664698
 21
323.1064299853068
 31
0.0
  0
LINE
  5
282B
330
26FC
100
AcDbEntity
  8
1
  6
CENTER
 62
     3
100
AcDbLine
 10
325.2088168579386
 20
337.7339473020473
 30
0.0
 11
327.5381882638614
 21
329.0406148654456
 31
0.0
  0
LINE
  5
282C
330
26FC
100
AcDbEntity
  8
1
  6
CENTER
 62
     3
100
AcDbLine
 10
358.5964736761658
 20
213.1295157107578
 30
0.0
 11
356.267102270243
 21
221.8228481473594
 31
0.0
  0
LINE
  5
282D
330
26FC
100
AcDbEntity
  8
1
  6
CENTER
 62
     3
100
AcDbLine
 10
44.04322357112014
 20
245.4056467003566
 30
0.0
 11
40.59907267983428
 21
253.7205624929582
 31
0.0
  0
LINE
  5
282E
330
26FC
100
AcDbEntity
  8
1
  6
CENTER
 62
     3
100
AcDbLine
 10
19.16880046738933
 20
305.4578163135901
 30
0.0
 11
22.61295135867524
 21
297.1429005209886
 31
0.0
  0
LINE
  5
282F
330
26FC
100
AcDbEntity
  8
1
  6
CENTER
 62
     3
100
AcDbLine
 10
55.11731249370743
 20
298.9430319814262
 30
0.0
 11
43.45005060412941
 21
287.2757700918483
 31
0.0
  0
LINE
  5
2830
330
26FC
100
AcDbEntity
  8
1
  6
CENTER
 62
     3
100
AcDbLine
 10
55.11731249370743
 20
251.9204310325207
 30
0.0
 11
43.45005060412941
 21
263.5876929220987
 31
0.0
  0
LINE
  5
2831
330
26FC
100
AcDbEntity
  8
1
  6
CENTER
 62
     3
100
AcDbLine
 10
8.094711544802208
 20
251.9204310325207
 30
0.0
 11
19.76197343438011
 21
263.5876929220987
 31
0.0
  0
LINE
  5
2832
330
26FC
100
AcDbEntity
  8
1
  6
CENTER
 62
     3
100
AcDbLine
 10
8.094711544802208
 20
298.9430319814262
 30
0.0
 11
19.76197343438011
 21
287.2757700918483
 31
0.0
  0
LINE
  5
2833
330
26FC
100
AcDbEntity
  8
2
  6
CENTER
 62
     3
100
AcDbLine
 10
30.94081733540056
 20
201.6578339292978
 30
0.0
 11
30.94081733540056
 21
346.6578317521539
 31
0.0
  0
LINE
  5
2834
330
26FC
100
AcDbEntity
  8
1
  6
CENTER
 62
     3
100
AcDbLine
 10
14.91218361014304
 20
213.1295157113281
 30
0.0
 11
17.2415550160658
 21
221.8228481479302
 31
0.0
  0
LINE
  5
2835
330
26FC
100
AcDbEntity
  8
1
  6
CENTER
 62
     3
100
AcDbLine
 10
48.29984042836653
 20
337.7339473026186
 30
0.0
 11
45.97046902244395
 21
329.0406148660169
 31
0.0
  0
LINE
  5
2836
330
26FC
100
AcDbEntity
  8
1
  6
CENTER
 62
     3
100
AcDbLine
 10
64.08101201925472
 20
331.6800814827729
 30
0.0
 11
59.13101201925472
 21
323.1064299853068
 31
0.0
  0
LINE
  5
2837
330
26FC
100
AcDbEntity
  8
1
  6
CENTER
 62
     3
100
AcDbLine
 10
87.85436199505404
 20
307.9067315069734
 30
0.0
 11
79.280710497588
 21
302.9567315069734
 31
0.0
  0
LINE
  5
2838
330
26FC
100
AcDbEntity
  8
1
  6
CENTER
 62
     3
100
AcDbLine
 10
87.85436199505392
 20
242.9567315069736
 30
0.0
 11
79.280710497588
 21
247.9067315069735
 31
0.0
  0
LINE
  5
2839
330
26FC
100
AcDbEntity
  8
1
  6
CENTER
 62
     3
100
AcDbLine
 10
64.08101201925472
 20
219.1833815311743
 30
0.0
 11
59.13101201925461
 21
227.7570330286402
 31
0.0
  0
LINE
  5
283A
330
26FC
100
AcDbEntity
  8
1
  6
CENTER
 62
     3
100
AcDbLine
 10
-0.8689879807450608
 20
219.1833815311743
 30
0.0
 11
4.081012019255041
 21
227.7570330286402
 31
0.0
  0
LINE
  5
283B
330
26FC
100
AcDbEntity
  8
1
  6
CENTER
 62
     3
100
AcDbLine
 10
-24.64233795654448
 20
242.9567315069736
 30
0.0
 11
-16.06868645907857
 21
247.9067315069737
 31
0.0
  0
LINE
  5
283C
330
26FC
100
AcDbEntity
  8
1
  6
CENTER
 62
     3
100
AcDbLine
 10
-24.64233795654448
 20
307.9067315069735
 30
0.0
 11
-16.06868645907857
 21
302.9567315069734
 31
0.0
  0
LINE
  5
283D
330
26FC
100
AcDbEntity
  8
1
  6
CENTER
 62
     3
100
AcDbLine
 10
-0.8689879807450608
 20
331.6800814827729
 30
0.0
 11
4.081012019255041
 21
323.1064299853069
 31
0.0
  0
LINE
  5
283E
330
26FC
100
AcDbEntity
  8
2
  6
CENTER
 62
     3
100
AcDbLine
 10
-35.15840032142202
 20
274.6541145372718
 30
0.0
 11
109.8415975012817
 21
274.6541145372718
 31
0.0
  0
LINE
  5
283F
330
26FC
100
AcDbEntity
  8
1
 62
     7
100
AcDbLine
 10
164.8040120192546
 20
307.8317315069734
 30
0.0
 11
164.8040120192546
 21
322.2137315069733
 31
0.0
  0
LINE
  5
2840
330
26FC
100
AcDbEntity
  8
1
 62
     7
100
AcDbLine
 10
183.9820120192545
 20
225.6497315069736
 30
0.0
 11
167.8040120192547
 21
225.6497315069736
 31
0.0
  0
LINE
  5
2841
330
26FC
100
AcDbEntity
  8
1
 62
     7
100
AcDbLine
 10
164.8040120192546
 20
228.6497315069737
 30
0.0
 11
164.8040120192546
 21
243.0317315069737
 31
0.0
  0
ARC
  5
2842
330
26FC
100
AcDbEntity
  8
1
 62
     7
100
AcDbCircle
 10
341.9026452697765
 20
275.4317315070532
 30
0.0
 40
38.98999999999999
100
AcDbArc
 50
49.56659713932184
 51
53.07247717425658
  0
ARC
  5
2843
330
26FC
100
AcDbEntity
  8
1
 62
     7
100
AcDbCircle
 10
341.9026452697765
 20
275.4317315070532
 30
0.0
 40
45.57999999999993
100
AcDbArc
 50
79.64460272463298
 51
84.70322336232388
  0
ARC
  5
2844
330
26FC
100
AcDbEntity
  8
1
 62
     7
100
AcDbCircle
 10
353.3231425928533
 20
316.1920202804855
 30
0.0
 40
5.199999999999898
100
AcDbArc
 50
128.3630073747868
 51
207.0657527636373
  0
ARC
  5
2845
330
26FC
100
AcDbEntity
  8
1
 62
     7
100
AcDbCircle
 10
341.9026452697765
 20
275.4317315070532
 30
0.0
 40
38.98999999999997
100
AcDbArc
 50
79.971001086613
 51
84.37682500034314
  0
ARC
  5
2846
330
26FC
100
AcDbEntity
  8
1
 62
     7
100
AcDbCircle
 10
341.9026452697765
 20
317.7617315070532
 30
0.0
 40
5.200000000000025
100
AcDbArc
 50
317.2820733233216
 51
35.98481871216959
  0
ARC
  5
2847
330
26FC
100
AcDbEntity
  8
1
 62
     7
100
AcDbCircle
 10
353.3231425928533
 20
316.1920202804855
 30
0.0
 40
5.200000000000049
100
AcDbArc
 50
301.6298994102778
 51
20.3326447991254
  0
ARC
  5
2848
330
26FC
100
AcDbEntity
  8
1
 62
     7
100
AcDbCircle
 10
341.9026452697765
 20
275.4317315070532
 30
0.0
 40
38.99000000000007
100
AcDbArc
 50
64.31882717356988
 51
68.72465108729975
  0
ARC
  5
2849
330
26FC
100
AcDbEntity
  8
1
 62
     7
100
AcDbCircle
 10
363.8966338747763
 20
311.5993049015063
 30
0.0
 40
5.199999999999951
100
AcDbArc
 50
112.7108334617432
 51
191.4135788505924
  0
ARC
  5
284A
330
26FC
100
AcDbEntity
  8
1
 62
     7
100
AcDbCircle
 10
341.9026452697765
 20
275.4317315070532
 30
0.0
 40
45.57999999999996
100
AcDbArc
 50
63.99242881158922
 51
69.05104944928061
  0
ARC
  5
284B
330
26FC
100
AcDbEntity
  8
1
 62
     7
100
AcDbCircle
 10
363.8966338747763
 20
311.5993049015063
 30
0.0
 40
5.200000000000025
100
AcDbArc
 50
285.9777254972343
 51
309.2990298042572
  0
ARC
  5
284C
330
26FC
100
AcDbEntity
  8
1
 62
     7
100
AcDbCircle
 10
341.9026452697765
 20
275.4317315070532
 30
0.0
 40
38.98999999999997
100
AcDbArc
 50
48.66665326052652
 51
49.56659713932184
  0
ARC
  5
284D
330
26FC
100
AcDbEntity
  8
1
 62
     7
100
AcDbCircle
 10
368.6165979530982
 20
242.5958725715354
 30
0.0
 40
5.200000000000049
100
AcDbArc
 50
176.4125081059283
 51
255.1152534947776
  0
ARC
  5
284E
330
26FC
100
AcDbEntity
  8
1
 62
     7
100
AcDbCircle
 10
341.9026452697765
 20
275.4317315070532
 30
0.0
 40
38.98999999999995
100
AcDbArc
 50
299.1014358692213
 51
303.5072597829524
  0
ARC
  5
284F
330
26FC
100
AcDbEntity
  8
1
 62
     7
100
AcDbCircle
 10
358.7669634029678
 20
236.6061771143277
 30
0.0
 40
5.199999999999795
100
AcDbArc
 50
347.493442157396
 51
66.19618754624749
  0
ARC
  5
2850
330
26FC
100
AcDbEntity
  8
1
 62
     7
100
AcDbCircle
 10
341.9026452697765
 20
275.4317315070532
 30
0.0
 40
45.57999999999993
100
AcDbArc
 50
298.775037507241
 51
303.8336581449326
  0
ARC
  5
2851
330
26FC
100
AcDbEntity
  8
1
 62
     7
100
AcDbCircle
 10
358.7669634029678
 20
236.6061771143277
 30
0.0
 40
5.200000000000191
100
AcDbArc
 50
160.760334192886
 51
239.4630795817341
  0
ARC
  5
2852
330
26FC
100
AcDbEntity
  8
1
 62
     7
100
AcDbCircle
 10
341.9026452697765
 20
275.4317315070532
 30
0.0
 40
38.98999999999999
100
AcDbArc
 50
283.4492619561787
 51
287.8550858699087
  0
ARC
  5
2853
330
26FC
100
AcDbEntity
  8
1
 62
     7
100
AcDbCircle
 10
347.6665795260204
 20
233.4959954113356
 30
0.0
 40
5.199999999999953
100
AcDbArc
 50
331.8412682443518
 51
50.54401363320039
  0
ARC
  5
2854
330
26FC
100
AcDbEntity
  8
1
 62
     7
100
AcDbCircle
 10
341.9026452697765
 20
275.4317315070532
 30
0.0
 40
45.57999999999998
100
AcDbArc
 50
283.1228635941976
 51
288.1814842318888
  0
ARC
  5
2855
330
26FC
100
AcDbEntity
  8
1
 62
     7
100
AcDbCircle
 10
347.6665795260204
 20
233.4959954113356
 30
0.0
 40
5.199999999999921
100
AcDbArc
 50
145.1081602798415
 51
223.8109056686913
  0
ARC
  5
2856
330
26FC
100
AcDbEntity
  8
1
 62
     7
100
AcDbCircle
 10
341.9026452697765
 20
275.4317315070532
 30
0.0
 40
38.99
100
AcDbArc
 50
267.7970880431348
 51
272.2029119568651
  0
ARC
  5
2857
330
26FC
100
AcDbEntity
  8
1
 62
     7
100
AcDbCircle
 10
336.1387110135324
 20
233.4959954113356
 30
0.0
 40
5.199999999999937
100
AcDbArc
 50
316.1890943313083
 51
34.89183972015837
  0
ARC
  5
2858
330
26FC
100
AcDbEntity
  8
1
 62
     7
100
AcDbCircle
 10
341.9026452697765
 20
275.4317315070532
 30
0.0
 40
45.57999999999998
100
AcDbArc
 50
267.4706896811544
 51
272.5293103188453
  0
ARC
  5
2859
330
26FC
100
AcDbEntity
  8
1
 62
     7
100
AcDbCircle
 10
336.1387110135324
 20
233.4959954113356
 30
0.0
 40
5.200000000000023
100
AcDbArc
 50
129.4559863667979
 51
208.158731755648
  0
ARC
  5
285A
330
26FC
100
AcDbEntity
  8
1
 62
     7
100
AcDbCircle
 10
341.9026452697765
 20
275.4317315070532
 30
0.0
 40
38.99
100
AcDbArc
 50
252.1449141300911
 51
256.5507380438211
  0
ARC
  5
285B
330
26FC
100
AcDbEntity
  8
1
 62
     7
100
AcDbCircle
 10
325.0383271365849
 20
236.6061771143277
 30
0.0
 40
5.199999999999945
100
AcDbArc
 50
300.5369204182652
 51
19.23966580711395
  0
ARC
  5
285C
330
26FC
100
AcDbEntity
  8
1
 62
     7
100
AcDbCircle
 10
341.9026452697765
 20
275.4317315070532
 30
0.0
 40
45.57999999999998
100
AcDbArc
 50
251.8185157681109
 51
256.8771364058022
  0
ARC
  5
285D
330
26FC
100
AcDbEntity
  8
1
 62
     7
100
AcDbCircle
 10
325.0383271365849
 20
236.6061771143277
 30
0.0
 40
5.199999999999945
100
AcDbArc
 50
113.8038124537552
 51
192.5065578426039
  0
ARC
  5
285E
330
26FC
100
AcDbEntity
  8
1
 62
     7
100
AcDbCircle
 10
341.9026452697765
 20
275.4317315070532
 30
0.0
 40
38.98999999999995
100
AcDbArc
 50
236.4927402170474
 51
240.8985641307784
  0
ARC
  5
285F
330
26FC
100
AcDbEntity
  8
1
 62
     7
100
AcDbCircle
 10
315.1886925864544
 20
242.5958725715354
 30
0.0
 40
5.199999999999898
100
AcDbArc
 50
284.8847465052209
 51
3.587491894071699
  0
ARC
  5
2860
330
26FC
100
AcDbEntity
  8
1
 62
     7
100
AcDbCircle
 10
341.9026452697765
 20
275.4317315070532
 30
0.0
 40
45.58000000000002
100
AcDbArc
 50
236.1663418550667
 51
241.224962492759
  0
ARC
  5
2861
330
26FC
100
AcDbEntity
  8
1
 62
     7
100
AcDbCircle
 10
315.1886925864544
 20
242.5958725715354
 30
0.0
 40
5.200000000000047
100
AcDbArc
 50
98.15163854071013
 51
176.854383929561
  0
ARC
  5
2862
330
26FC
100
AcDbEntity
  8
1
 62
     7
100
AcDbCircle
 10
341.9026452697765
 20
275.4317315070532
 30
0.0
 40
38.9899999999999
100
AcDbArc
 50
220.8405663040041
 51
225.246390217734
  0
ARC
  5
2863
330
26FC
100
AcDbEntity
  8
1
 62
     7
100
AcDbCircle
 10
307.3203096986445
 20
251.0208534719312
 30
0.0
 40
5.200000000000031
100
AcDbArc
 50
269.2325725921786
 51
347.9353179810285
  0
ARC
  5
2864
330
26FC
100
AcDbEntity
  8
1
 62
     7
100
AcDbCircle
 10
341.9026452697765
 20
275.4317315070532
 30
0.0
 40
45.58000000000002
100
AcDbArc
 50
220.5141679420234
 51
225.5727885797154
  0
ARC
  5
2865
330
26FC
100
AcDbEntity
  8
1
 62
     7
100
AcDbCircle
 10
307.3203096986445
 20
251.0208534719312
 30
0.0
 40
5.199999999999914
100
AcDbArc
 50
82.49946462766853
 51
161.202210016517
  0
ARC
  5
2866
330
26FC
100
AcDbEntity
  8
1
 62
     7
100
AcDbCircle
 10
341.9026452697765
 20
275.4317315070532
 30
0.0
 40
38.99000000000003
100
AcDbArc
 50
205.18839239096
 51
209.594216304691
  0
ARC
  5
2867
330
26FC
100
AcDbEntity
  8
1
 62
     7
100
AcDbCircle
 10
302.0167404364865
 20
261.2562775238556
 30
0.0
 40
5.199999999999922
100
AcDbArc
 50
253.5803986791348
 51
332.2831440679852
  0
ARC
  5
2868
330
26FC
100
AcDbEntity
  8
1
 62
     7
100
AcDbCircle
 10
341.9026452697765
 20
275.4317315070532
 30
0.0
 40
45.58000000000005
100
AcDbArc
 50
204.861994028981
 51
209.9206146666718
  0
ARC
  5
2869
330
26FC
100
AcDbEntity
  8
1
 62
     7
100
AcDbCircle
 10
302.0167404364865
 20
261.2562775238556
 30
0.0
 40
5.200000000000033
100
AcDbArc
 50
66.8472907146251
 51
145.5500361034708
  0
ARC
  5
286A
330
26FC
100
AcDbEntity
  8
1
 62
     7
100
AcDbCircle
 10
341.9026452697765
 20
275.4317315070532
 30
0.0
 40
38.98999999999995
100
AcDbArc
 50
189.536218477918
 51
193.9420423916472
  0
ARC
  5
286B
330
26FC
100
AcDbEntity
  8
1
 62
     7
100
AcDbCircle
 10
299.6713262699408
 20
272.5430301493268
 30
0.0
 40
5.199999999999825
100
AcDbArc
 50
237.9282247660928
 51
316.6309701549428
  0
ARC
  5
286C
330
26FC
100
AcDbEntity
  8
1
 62
     7
100
AcDbCircle
 10
341.9026452697765
 20
275.4317315070532
 30
0.0
 40
45.57999999999993
100
AcDbArc
 50
189.2098201159375
 51
194.2684407536278
  0
ARC
  5
286D
330
26FC
100
AcDbEntity
  8
1
 62
     7
100
AcDbCircle
 10
299.6713262699408
 20
272.5430301493268
 30
0.0
 40
5.20000000000012
100
AcDbArc
 50
51.19511680158105
 51
129.8978621904282
  0
ARC
  5
286E
330
26FC
100
AcDbEntity
  8
1
 62
     7
100
AcDbCircle
 10
341.9026452697765
 20
275.4317315070532
 30
0.0
 40
38.99000000000003
100
AcDbArc
 50
173.8840445648739
 51
178.2898684786044
  0
ARC
  5
286F
330
26FC
100
AcDbEntity
  8
1
 62
     7
100
AcDbCircle
 10
300.4580158381837
 20
284.0440245395713
 30
0.0
 40
5.199999999999879
100
AcDbArc
 50
222.2760508530476
 51
300.9787962418976
  0
ARC
  5
2870
330
26FC
100
AcDbEntity
  8
1
 62
     7
100
AcDbCircle
 10
341.9026452697765
 20
275.4317315070532
 30
0.0
 40
45.58000000000002
100
AcDbArc
 50
173.557646202894
 51
178.6162668405843
  0
ARC
  5
2871
330
26FC
100
AcDbEntity
  8
1
 62
     7
100
AcDbCircle
 10
300.4580158381837
 20
284.0440245395713
 30
0.0
 40
5.200000000000057
100
AcDbArc
 50
35.54294288853817
 51
114.2456882773847
  0
ARC
  5
2872
330
26FC
100
AcDbEntity
  8
1
 62
     7
100
AcDbCircle
 10
341.9026452697765
 20
275.4317315070532
 30
0.0
 40
38.9899999999999
100
AcDbArc
 50
158.2318706518298
 51
162.6376945655603
  0
ARC
  5
2873
330
26FC
100
AcDbEntity
  8
1
 62
     7
100
AcDbCircle
 10
304.3184639748038
 20
294.9062845542131
 30
0.0
 40
5.199999999999969
100
AcDbArc
 50
206.6238769400044
 51
285.3266223288548
  0
ARC
  5
2874
330
26FC
100
AcDbEntity
  8
1
 62
     7
100
AcDbCircle
 10
341.9026452697765
 20
275.4317315070532
 30
0.0
 40
45.57999999999996
100
AcDbArc
 50
157.9054722898498
 51
162.9640929275411
  0
ARC
  5
2875
330
26FC
100
AcDbEntity
  8
1
 62
     7
100
AcDbCircle
 10
304.3184639748038
 20
294.9062845542131
 30
0.0
 40
5.200000000000009
100
AcDbArc
 50
19.89076897549368
 51
98.59351436434149
  0
ARC
  5
2876
330
26FC
100
AcDbEntity
  8
1
 62
     7
100
AcDbCircle
 10
341.9026452697765
 20
275.4317315070532
 30
0.0
 40
38.99000000000004
100
AcDbArc
 50
142.5796967387871
 51
146.9855206525178
  0
ARC
  5
2877
330
26FC
100
AcDbEntity
  8
1
 62
     7
100
AcDbCircle
 10
310.9663589018834
 20
304.3242060594991
 30
0.0
 40
5.200000000000112
100
AcDbArc
 50
190.9717030269623
 51
269.6744484158088
  0
ARC
  5
2878
330
26FC
100
AcDbEntity
  8
1
 62
     7
100
AcDbCircle
 10
341.9026452697765
 20
275.4317315070532
 30
0.0
 40
45.57999999999998
100
AcDbArc
 50
142.253298376807
 51
147.311919014498
  0
ARC
  5
2879
330
26FC
100
AcDbEntity
  8
1
 62
     7
100
AcDbCircle
 10
310.9663589018834
 20
304.3242060594991
 30
0.0
 40
5.199999999999961
100
AcDbArc
 50
4.23859506245118
 51
82.94134045129998
  0
ARC
  5
287A
330
26FC
100
AcDbEntity
  8
1
 62
     7
100
AcDbCircle
 10
341.9026452697765
 20
275.4317315070532
 30
0.0
 40
38.9899999999999
100
AcDbArc
 50
126.9275228257434
 51
131.3333467394734
  0
ARC
  5
287B
330
26FC
100
AcDbEntity
  8
1
 62
     7
100
AcDbCircle
 10
319.9086566647765
 20
311.5993049015063
 30
0.0
 40
5.199999999999881
100
AcDbArc
 50
175.319529113917
 51
254.0222745027678
  0
ARC
  5
287C
330
26FC
100
AcDbEntity
  8
1
 62
     7
100
AcDbCircle
 10
341.9026452697765
 20
275.4317315070532
 30
0.0
 40
45.57999999999992
100
AcDbArc
 50
126.6011244637629
 51
131.6597451014535
  0
ARC
  5
287D
330
26FC
100
AcDbEntity
  8
1
 62
     7
100
AcDbCircle
 10
319.9086566647765
 20
311.5993049015063
 30
0.0
 40
5.200000000000144
100
AcDbArc
 50
348.5864211494072
 51
67.28916653825575
  0
ARC
  5
287E
330
26FC
100
AcDbEntity
  8
1
 62
     7
100
AcDbCircle
 10
341.9026452697765
 20
275.4317315070532
 30
0.0
 40
38.99
100
AcDbArc
 50
111.2753489127001
 51
115.6811728264301
  0
ARC
  5
287F
330
26FC
100
AcDbEntity
  8
1
 62
     7
100
AcDbCircle
 10
330.4821479466997
 20
316.1920202804855
 30
0.0
 40
5.199999999999914
100
AcDbArc
 50
159.6673552008748
 51
238.3701005897219
  0
ARC
  5
2880
330
26FC
100
AcDbEntity
  8
1
 62
     7
100
AcDbCircle
 10
341.9026452697765
 20
275.4317315070532
 30
0.0
 40
45.57999999999984
100
AcDbArc
 50
110.9489505507193
 51
116.0075711884106
  0
ARC
  5
2881
330
26FC
100
AcDbEntity
  8
1
 62
     7
100
AcDbCircle
 10
330.4821479466997
 20
316.1920202804855
 30
0.0
 40
5.200000000000065
100
AcDbArc
 50
332.934247236364
 51
51.63699262521307
  0
ARC
  5
2882
330
26FC
100
AcDbEntity
  8
1
 62
     7
100
AcDbCircle
 10
341.9026452697765
 20
275.4317315070532
 30
0.0
 40
38.99
100
AcDbArc
 50
95.62317499965606
 51
100.0289989133867
  0
ARC
  5
2883
330
26FC
100
AcDbEntity
  8
1
 62
     7
100
AcDbCircle
 10
341.9026452697765
 20
317.7617315070532
 30
0.0
 40
5.199999999999914
100
AcDbArc
 50
144.0151812878303
 51
222.7179266766794
  0
ARC
  5
2884
330
26FC
100
AcDbEntity
  8
1
 62
     7
100
AcDbCircle
 10
341.9026452697765
 20
275.4317315070532
 30
0.0
 40
45.57999999999984
100
AcDbArc
 50
95.29677663767612
 51
100.3553972753669
  0
ARC
  5
2885
330
26FC
100
AcDbEntity
  8
1
 62
     7
100
AcDbCircle
 10
341.9026452697853
 20
275.4317315070532
 30
0.0
 40
45.57999999999993
100
AcDbArc
 50
79.64460272463298
 51
84.70322336232388
  0
ARC
  5
2886
330
26FC
100
AcDbEntity
  8
1
 62
     7
100
AcDbCircle
 10
341.9026452697853
 20
317.7617315070532
 30
0.0
 40
5.199999999999898
100
AcDbArc
 50
317.282073323321
 51
35.98481871216959
  0
ARC
  5
2887
330
26FC
100
AcDbEntity
  8
1
 62
     7
100
AcDbCircle
 10
341.9026452697853
 20
275.4317315070532
 30
0.0
 40
38.98999999999995
100
AcDbArc
 50
79.971001086613
 51
84.37682500034396
  0
ARC
  5
2888
330
26FC
100
AcDbEntity
  8
1
 62
     7
100
AcDbCircle
 10
353.3231425928622
 20
316.1920202804855
 30
0.0
 40
5.199999999999953
100
AcDbArc
 50
128.3630073747874
 51
207.0657527636359
  0
ARC
  5
2889
330
26FC
100
AcDbEntity
  8
1
 62
     7
100
AcDbCircle
 10
341.9026452697853
 20
275.4317315070532
 30
0.0
 40
45.57999999999997
100
AcDbArc
 50
63.99242881158922
 51
69.05104944928061
  0
ARC
  5
288A
330
26FC
100
AcDbEntity
  8
1
 62
     7
100
AcDbCircle
 10
353.3231425928622
 20
316.1920202804855
 30
0.0
 40
5.200000000000006
100
AcDbArc
 50
301.6298994102772
 51
20.33264479912511
  0
ARC
  5
288B
330
26FC
100
AcDbEntity
  8
1
 62
     7
100
AcDbCircle
 10
341.9026452697853
 20
275.4317315070532
 30
0.0
 40
38.9899999999999
100
AcDbArc
 50
64.31882717356988
 51
68.72465108729975
  0
ARC
  5
288C
330
26FC
100
AcDbEntity
  8
1
 62
     7
100
AcDbCircle
 10
363.8966338747852
 20
311.5993049015063
 30
0.0
 40
5.199999999999938
100
AcDbArc
 50
112.7108334617423
 51
191.4135788505936
  0
ARC
  5
288D
330
26FC
100
AcDbEntity
  8
1
 62
     7
100
AcDbCircle
 10
341.9026452697853
 20
275.4317315070532
 30
0.0
 40
45.57999999999989
100
AcDbArc
 50
48.34025489854642
 51
53.39887553623706
  0
ARC
  5
288E
330
26FC
100
AcDbEntity
  8
1
 62
     7
100
AcDbCircle
 10
363.8966338747852
 20
311.5993049015063
 30
0.0
 40
5.200000000000025
100
AcDbArc
 50
285.977725497232
 51
4.680470886082805
  0
ARC
  5
288F
330
26FC
100
AcDbEntity
  8
1
 62
     7
100
AcDbCircle
 10
341.9026452697853
 20
275.4317315070532
 30
0.0
 40
38.98999999999997
100
AcDbArc
 50
48.66665326052652
 51
53.07247717425658
  0
ARC
  5
2890
330
26FC
100
AcDbEntity
  8
1
 62
     7
100
AcDbCircle
 10
372.8389316376782
 20
304.3242060594991
 30
0.0
 40
5.199999999999977
100
AcDbArc
 50
97.05865954870093
 51
175.7614049375488
  0
ARC
  5
2891
330
26FC
100
AcDbEntity
  8
1
 62
     7
100
AcDbCircle
 10
341.9026452697853
 20
275.4317315070532
 30
0.0
 40
45.57999999999984
100
AcDbArc
 50
32.68808098550164
 51
37.74670162319297
  0
ARC
  5
2892
330
26FC
100
AcDbEntity
  8
1
 62
     7
100
AcDbCircle
 10
372.8389316376782
 20
304.3242060594991
 30
0.0
 40
5.199999999999969
100
AcDbArc
 50
270.3255515841901
 51
349.0282969730376
  0
ARC
  5
2893
330
26FC
100
AcDbEntity
  8
1
 62
     7
100
AcDbCircle
 10
341.9026452697853
 20
275.4317315070532
 30
0.0
 40
38.98999999999993
100
AcDbArc
 50
33.01447934748207
 51
37.42030326121253
  0
ARC
  5
2894
330
26FC
100
AcDbEntity
  8
1
 62
     7
100
AcDbCircle
 10
379.4868265647575
 20
294.9062845542131
 30
0.0
 40
5.199999999999993
100
AcDbArc
 50
81.40648563565694
 51
160.1092310245059
  0
ARC
  5
2895
330
26FC
100
AcDbEntity
  8
1
 62
     7
100
AcDbCircle
 10
341.9026452697853
 20
275.4317315070532
 30
0.0
 40
45.57999999999989
100
AcDbArc
 50
17.03590707245873
 51
22.09452771015016
  0
ARC
  5
2896
330
26FC
100
AcDbEntity
  8
1
 62
     7
100
AcDbCircle
 10
379.4868265647575
 20
294.9062845542131
 30
0.0
 40
5.199999999999977
100
AcDbArc
 50
254.6733776711451
 51
333.3761230599959
  0
ARC
  5
2897
330
26FC
100
AcDbEntity
  8
1
 62
     7
100
AcDbCircle
 10
341.9026452697853
 20
275.4317315070532
 30
0.0
 40
38.98999999999997
100
AcDbArc
 50
17.36230543443964
 51
21.76812934817003
  0
ARC
  5
2898
330
26FC
100
AcDbEntity
  8
1
 62
     7
100
AcDbCircle
 10
383.347274701378
 20
284.0440245395713
 30
0.0
 40
5.200000000000033
100
AcDbArc
 50
65.75431172261523
 51
144.4570571114618
  0
ARC
  5
2899
330
26FC
100
AcDbEntity
  8
1
 62
     7
100
AcDbCircle
 10
341.9026452697853
 20
275.4317315070532
 30
0.0
 40
45.57999999999989
100
AcDbArc
 50
1.38373315941567
 51
6.442353797105869
  0
ARC
  5
289A
330
26FC
100
AcDbEntity
  8
1
 62
     7
100
AcDbCircle
 10
383.347274701378
 20
284.0440245395713
 30
0.0
 40
5.199999999999928
100
AcDbArc
 50
239.021203758103
 51
317.723949146952
  0
ARC
  5
289B
330
26FC
100
AcDbEntity
  8
1
 62
     7
100
AcDbCircle
 10
341.9026452697853
 20
275.4317315070532
 30
0.0
 40
38.9899999999999
100
AcDbArc
 50
1.710131521395421
 51
6.115955435126005
  0
ARC
  5
289C
330
26FC
100
AcDbEntity
  8
1
 62
     7
100
AcDbCircle
 10
384.133964269621
 20
272.5430301493268
 30
0.0
 40
5.199999999999977
100
AcDbArc
 50
50.10213780957105
 51
128.8048831984189
  0
ARC
  5
289D
330
26FC
100
AcDbEntity
  8
1
 62
     7
100
AcDbCircle
 10
341.9026452697853
 20
275.4317315070532
 30
0.0
 40
45.57999999999982
100
AcDbArc
 50
345.7315592463717
 51
350.7901798840622
  0
ARC
  5
289E
330
26FC
100
AcDbEntity
  8
1
 62
     7
100
AcDbCircle
 10
384.133964269621
 20
272.5430301493268
 30
0.0
 40
5.200000000000057
100
AcDbArc
 50
223.3690298450583
 51
302.0717752339077
  0
ARC
  5
289F
330
26FC
100
AcDbEntity
  8
1
 62
     7
100
AcDbCircle
 10
341.9026452697853
 20
275.4317315070532
 30
0.0
 40
38.98999999999995
100
AcDbArc
 50
346.0579576083525
 51
350.4637815220816
  0
ARC
  5
28A0
330
26FC
100
AcDbEntity
  8
1
 62
     7
100
AcDbCircle
 10
381.788550103075
 20
261.2562775238556
 30
0.0
 40
5.199999999999922
100
AcDbArc
 50
34.44996389652725
 51
113.1527092853747
  0
ARC
  5
28A1
330
26FC
100
AcDbEntity
  8
1
 62
     7
100
AcDbCircle
 10
341.9026452697853
 20
275.4317315070532
 30
0.0
 40
45.57999999999988
100
AcDbArc
 50
330.0793853333278
 51
335.1380059710188
  0
ARC
  5
28A2
330
26FC
100
AcDbEntity
  8
1
 62
     7
100
AcDbCircle
 10
381.788550103075
 20
261.2562775238556
 30
0.0
 40
5.199999999999977
100
AcDbArc
 50
207.7168559320146
 51
286.4196013208665
  0
ARC
  5
28A3
330
26FC
100
AcDbEntity
  8
1
 62
     7
100
AcDbCircle
 10
341.9026452697853
 20
275.4317315070532
 30
0.0
 40
38.99000000000007
100
AcDbArc
 50
330.4057836953087
 51
334.8116076090393
  0
ARC
  5
28A4
330
26FC
100
AcDbEntity
  8
1
 62
     7
100
AcDbCircle
 10
376.4849808409172
 20
251.0208534719312
 30
0.0
 40
5.19999999999993
100
AcDbArc
 50
18.79778998348276
 51
97.50053537233066
  0
ARC
  5
28A5
330
26FC
100
AcDbEntity
  8
1
 62
     7
100
AcDbCircle
 10
341.9026452697853
 20
275.4317315070532
 30
0.0
 40
45.58000000000001
100
AcDbArc
 50
314.4272114202844
 51
319.4858320579766
  0
ARC
  5
28A6
330
26FC
100
AcDbEntity
  8
1
 62
     7
100
AcDbCircle
 10
376.4849808409172
 20
251.0208534719312
 30
0.0
 40
5.200000000000041
100
AcDbArc
 50
192.0646820189714
 51
270.767427407822
  0
ARC
  5
28A7
330
26FC
100
AcDbEntity
  8
1
 62
     7
100
AcDbCircle
 10
341.9026452697853
 20
275.4317315070532
 30
0.0
 40
38.98999999999993
100
AcDbArc
 50
314.7536097822653
 51
319.1594336959956
  0
ARC
  5
28A8
330
26FC
100
AcDbEntity
  8
1
 62
     7
100
AcDbCircle
 10
368.6165979531072
 20
242.5958725715354
 30
0.0
 40
5.199999999999961
100
AcDbArc
 50
3.145616070438868
 51
81.84836145928988
  0
ARC
  5
28A9
330
26FC
100
AcDbEntity
  8
1
 62
     7
100
AcDbCircle
 10
341.9026452697853
 20
275.4317315070532
 30
0.0
 40
45.57999999999998
100
AcDbArc
 50
298.775037507241
 51
303.8336581449332
  0
ARC
  5
28AA
330
26FC
100
AcDbEntity
  8
1
 62
     7
100
AcDbCircle
 10
368.6165979531072
 20
242.5958725715354
 30
0.0
 40
5.20000000000016
100
AcDbArc
 50
176.4125081059283
 51
255.1152534947785
  0
ARC
  5
28AB
330
26FC
100
AcDbEntity
  8
1
 62
     7
100
AcDbCircle
 10
341.9026452697853
 20
275.4317315070532
 30
0.0
 40
38.99
100
AcDbArc
 50
299.1014358692213
 51
303.5072597829524
  0
ARC
  5
28AC
330
26FC
100
AcDbEntity
  8
1
 62
     7
100
AcDbCircle
 10
358.7669634029768
 20
236.6061771143277
 30
0.0
 40
5.199999999999991
100
AcDbArc
 50
347.493442157396
 51
66.19618754624461
  0
ARC
  5
28AD
330
26FC
100
AcDbEntity
  8
1
 62
     7
100
AcDbCircle
 10
341.9026452697853
 20
275.4317315070532
 30
0.0
 40
45.58000000000004
100
AcDbArc
 50
283.1228635941976
 51
288.1814842318888
  0
ARC
  5
28AE
330
26FC
100
AcDbEntity
  8
1
 62
     7
100
AcDbCircle
 10
358.7669634029768
 20
236.6061771143277
 30
0.0
 40
5.200000000000006
100
AcDbArc
 50
160.760334192886
 51
239.4630795817341
  0
ARC
  5
28AF
330
26FC
100
AcDbEntity
  8
1
 62
     7
100
AcDbCircle
 10
341.9026452697853
 20
275.4317315070532
 30
0.0
 40
38.98999999999997
100
AcDbArc
 50
283.4492619561777
 51
287.8550858699087
  0
ARC
  5
28B0
330
26FC
100
AcDbEntity
  8
1
 62
     7
100
AcDbCircle
 10
347.6665795260295
 20
233.4959954113356
 30
0.0
 40
5.200000000000049
100
AcDbArc
 50
331.8412682443518
 51
50.54401363320208
  0
ARC
  5
28B1
330
26FC
100
AcDbEntity
  8
1
 62
     7
100
AcDbCircle
 10
341.9026452697853
 20
275.4317315070532
 30
0.0
 40
45.57999999999998
100
AcDbArc
 50
267.4706896811544
 51
272.5293103188453
  0
ARC
  5
28B2
330
26FC
100
AcDbEntity
  8
1
 62
     7
100
AcDbCircle
 10
347.6665795260295
 20
233.4959954113356
 30
0.0
 40
5.199999999999991
100
AcDbArc
 50
145.1081602798419
 51
223.8109056686897
  0
ARC
  5
28B3
330
26FC
100
AcDbEntity
  8
1
 62
     7
100
AcDbCircle
 10
341.9026452697853
 20
275.4317315070532
 30
0.0
 40
38.99
100
AcDbArc
 50
267.7970880431348
 51
272.2029119568651
  0
ARC
  5
28B4
330
26FC
100
AcDbEntity
  8
1
 62
     7
100
AcDbCircle
 10
336.1387110135412
 20
233.4959954113356
 30
0.0
 40
5.199999999999937
100
AcDbArc
 50
316.1890943313083
 51
34.89183972015791
  0
ARC
  5
28B5
330
26FC
100
AcDbEntity
  8
1
 62
     7
100
AcDbCircle
 10
341.9026452697853
 20
275.4317315070532
 30
0.0
 40
45.58000000000009
100
AcDbArc
 50
251.8185157681109
 51
256.8771364058022
  0
ARC
  5
28B6
330
26FC
100
AcDbEntity
  8
1
 62
     7
100
AcDbCircle
 10
336.1387110135412
 20
233.4959954113356
 30
0.0
 40
5.200000000000096
100
AcDbArc
 50
129.4559863667996
 51
208.158731755648
  0
ARC
  5
28B7
330
26FC
100
AcDbEntity
  8
1
 62
     7
100
AcDbCircle
 10
341.9026452697853
 20
275.4317315070532
 30
0.0
 40
38.98999999999999
100
AcDbArc
 50
252.1449141300911
 51
256.5507380438211
  0
ARC
  5
28B8
330
26FC
100
AcDbEntity
  8
1
 62
     7
100
AcDbCircle
 10
325.0383271365936
 20
236.6061771143277
 30
0.0
 40
5.200000000000087
100
AcDbArc
 50
300.5369204182652
 51
19.23966580711395
  0
ARC
  5
28B9
330
26FC
100
AcDbEntity
  8
1
 62
     7
100
AcDbCircle
 10
341.9026452697853
 20
275.4317315070532
 30
0.0
 40
45.58000000000001
100
AcDbArc
 50
236.1663418550674
 51
241.224962492759
  0
ARC
  5
28BA
330
26FC
100
AcDbEntity
  8
1
 62
     7
100
AcDbCircle
 10
325.0383271365936
 20
236.6061771143277
 30
0.0
 40
5.199999999999898
100
AcDbArc
 50
113.8038124537532
 51
192.5065578426039
  0
ARC
  5
28BB
330
26FC
100
AcDbEntity
  8
1
 62
     7
100
AcDbCircle
 10
341.9026452697853
 20
275.4317315070532
 30
0.0
 40
38.98999999999995
100
AcDbArc
 50
236.4927402170474
 51
240.8985641307784
  0
ARC
  5
28BC
330
26FC
100
AcDbEntity
  8
1
 62
     7
100
AcDbCircle
 10
315.1886925864637
 20
242.5958725715354
 30
0.0
 40
5.200000000000006
100
AcDbArc
 50
284.8847465052226
 51
3.587491894071699
  0
ARC
  5
28BD
330
26FC
100
AcDbEntity
  8
1
 62
     7
100
AcDbCircle
 10
341.9026452697853
 20
275.4317315070532
 30
0.0
 40
38.99000000000004
100
AcDbArc
 50
130.4334028606776
 51
131.3333467394734
  0
ARC
  5
28BE
330
26FC
100
AcDbEntity
  8
1
 62
     7
100
AcDbCircle
 10
319.9086566647856
 20
311.5993049015063
 30
0.0
 40
5.200000000000047
100
AcDbArc
 50
230.7009701957424
 51
254.0222745027659
  0
ARC
  5
28BF
330
26FC
100
AcDbEntity
  8
1
 62
     7
100
AcDbCircle
 10
341.9026452697853
 20
275.4317315070532
 30
0.0
 40
45.58000000000001
100
AcDbArc
 50
110.94895055072
 51
116.0075711884106
  0
ARC
  5
28C0
330
26FC
100
AcDbEntity
  8
1
 62
     7
100
AcDbCircle
 10
319.9086566647856
 20
311.5993049015063
 30
0.0
 40
5.199999999999898
100
AcDbArc
 50
348.5864211494072
 51
67.28916653825575
  0
ARC
  5
28C1
330
26FC
100
AcDbEntity
  8
1
 62
     7
100
AcDbCircle
 10
341.9026452697853
 20
275.4317315070532
 30
0.0
 40
38.99
100
AcDbArc
 50
111.2753489127001
 51
115.6811728264301
  0
ARC
  5
28C2
330
26FC
100
AcDbEntity
  8
1
 62
     7
100
AcDbCircle
 10
330.4821479467086
 20
316.1920202804855
 30
0.0
 40
5.200000000000033
100
AcDbArc
 50
159.6673552008746
 51
238.3701005897219
  0
ARC
  5
28C3
330
26FC
100
AcDbEntity
  8
1
 62
     7
100
AcDbCircle
 10
341.9026452697853
 20
317.7617315070532
 30
0.0
 40
5.200000000000049
100
AcDbArc
 50
144.0151812878303
 51
222.717926676678
  0
ARC
  5
28C4
330
26FC
100
AcDbEntity
  8
1
 62
     7
100
AcDbCircle
 10
341.9026452697853
 20
275.4317315070532
 30
0.0
 40
38.99
100
AcDbArc
 50
95.62317499965685
 51
100.0289989133867
  0
ARC
  5
28C5
330
26FC
100
AcDbEntity
  8
1
 62
     7
100
AcDbCircle
 10
330.4821479467086
 20
316.1920202804855
 30
0.0
 40
5.19999999999999
100
AcDbArc
 50
332.9342472363626
 51
51.63699262521307
  0
ARC
  5
28C6
330
26FC
100
AcDbEntity
  8
1
 62
     7
100
AcDbCircle
 10
341.9026452697853
 20
275.4317315070532
 30
0.0
 40
45.57999999999996
100
AcDbArc
 50
95.29677663767612
 51
100.3553972753669
  0
ARC
  5
28C7
330
26FC
100
AcDbEntity
  8
1
 62
     7
100
AcDbCircle
 10
341.9026452697853
 20
275.4317315070532
 30
0.0
 40
38.98999999999999
100
AcDbArc
 50
126.9275228257434
 51
130.4334028606776
  0
ARC
  5
28C8
330
26FC
100
AcDbEntity
  8
1
 62
     7
100
AcDbCircle
 10
341.9026452697853
 20
317.7617315070532
 30
0.0
 40
4.762499999999922
100
AcDbArc
 50
296.4479807144521
 51
62.60636892224279
  0
ARC
  5
28C9
330
26FC
100
AcDbEntity
  8
1
 62
     7
100
AcDbCircle
 10
341.9026452697853
 20
317.7617315070532
 30
0.0
 40
4.762500000000144
100
AcDbArc
 50
117.3936310777572
 51
243.5520192855475
  0
ARC
  5
28CA
330
26FC
100
AcDbEntity
  8
1
 62
     7
100
AcDbCircle
 10
330.4821479467086
 20
316.1920202804855
 30
0.0
 40
4.762500000000033
100
AcDbArc
 50
133.0458049908032
 51
259.2041931985895
  0
ARC
  5
28CB
330
26FC
100
AcDbEntity
  8
1
 62
     7
100
AcDbCircle
 10
319.9086566647856
 20
311.5993049015063
 30
0.0
 40
4.762500000000031
100
AcDbArc
 50
226.2469776198248
 51
274.8563671116337
  0
ARC
  5
28CC
330
26FC
100
AcDbEntity
  8
1
 62
     7
100
AcDbCircle
 10
315.1886925864637
 20
242.5958725715354
 30
0.0
 40
4.762499999999969
100
AcDbArc
 50
287.4286201445375
 51
24.42158450293857
  0
ARC
  5
28CD
330
26FC
100
AcDbEntity
  8
1
 62
     7
100
AcDbCircle
 10
325.0383271365936
 20
236.6061771143277
 30
0.0
 40
4.762500000000065
100
AcDbArc
 50
273.9153702081919
 51
40.07375841598135
  0
ARC
  5
28CE
330
26FC
100
AcDbEntity
  8
1
 62
     7
100
AcDbCircle
 10
336.1387110135412
 20
233.4959954113356
 30
0.0
 40
4.762500000000009
100
AcDbArc
 50
289.5675441212338
 51
55.7259323290255
  0
ARC
  5
28CF
330
26FC
100
AcDbEntity
  8
1
 62
     7
100
AcDbCircle
 10
347.6665795260295
 20
233.4959954113356
 30
0.0
 40
4.762500000000049
100
AcDbArc
 50
305.2197180342798
 51
71.3781062420692
  0
ARC
  5
28D0
330
26FC
100
AcDbEntity
  8
1
 62
     7
100
AcDbCircle
 10
358.7669634029768
 20
236.6061771143277
 30
0.0
 40
4.762500000000025
100
AcDbArc
 50
320.8718919473231
 51
87.03028015511184
  0
ARC
  5
28D1
330
26FC
100
AcDbEntity
  8
1
 62
     7
100
AcDbCircle
 10
368.6165979531072
 20
242.5958725715354
 30
0.0
 40
4.762499999999856
100
AcDbArc
 50
336.5240658603663
 51
102.6824540681567
  0
ARC
  5
28D2
330
26FC
100
AcDbEntity
  8
1
 62
     7
100
AcDbCircle
 10
376.4849808409172
 20
251.0208534719312
 30
0.0
 40
4.762500000000009
100
AcDbArc
 50
352.1762397734086
 51
118.3346279811989
  0
ARC
  5
28D3
330
26FC
100
AcDbEntity
  8
1
 62
     7
100
AcDbCircle
 10
381.788550103075
 20
261.2562775238556
 30
0.0
 40
4.762500000000025
100
AcDbArc
 50
7.82841368645415
 51
133.9868018942427
  0
ARC
  5
28D4
330
26FC
100
AcDbEntity
  8
1
 62
     7
100
AcDbCircle
 10
384.133964269621
 20
272.5430301493268
 30
0.0
 40
4.762499999999873
100
AcDbArc
 50
23.48058759949791
 51
149.6389758072859
  0
ARC
  5
28D5
330
26FC
100
AcDbEntity
  8
1
 62
     7
100
AcDbCircle
 10
383.347274701378
 20
284.0440245395713
 30
0.0
 40
4.762500000000047
100
AcDbArc
 50
39.13276151254175
 51
165.2911497203287
  0
ARC
  5
28D6
330
26FC
100
AcDbEntity
  8
1
 62
     7
100
AcDbCircle
 10
379.4868265647575
 20
294.9062845542131
 30
0.0
 40
4.762500000000047
100
AcDbArc
 50
54.78493542558531
 51
180.9433236333736
  0
ARC
  5
28D7
330
26FC
100
AcDbEntity
  8
1
 62
     7
100
AcDbCircle
 10
372.8389316376782
 20
304.3242060594991
 30
0.0
 40
4.762499999999985
100
AcDbArc
 50
70.4371093386263
 51
196.5954975464179
  0
ARC
  5
28D8
330
26FC
100
AcDbEntity
  8
1
 62
     7
100
AcDbCircle
 10
363.8966338747852
 20
311.5993049015063
 30
0.0
 40
4.762499999999912
100
AcDbArc
 50
86.08928325167092
 51
212.2476714594621
  0
ARC
  5
28D9
330
26FC
100
AcDbEntity
  8
1
 62
     7
100
AcDbCircle
 10
353.3231425928622
 20
316.1920202804855
 30
0.0
 40
4.762499999999888
100
AcDbArc
 50
101.7414571647135
 51
227.8998453725051
  0
ARC
  5
28DA
330
26FC
100
AcDbEntity
  8
1
 62
     7
100
AcDbCircle
 10
330.4821479467086
 20
316.1920202804855
 30
0.0
 40
4.762500000000032
100
AcDbArc
 50
312.1001546274947
 51
78.25854283528565
  0
ARC
  5
28DB
330
26FC
100
AcDbEntity
  8
1
 62
     7
100
AcDbCircle
 10
319.9086566647856
 20
311.5993049015063
 30
0.0
 40
4.762500000000031
100
AcDbArc
 50
327.7523285405397
 51
93.91071674832991
  0
ARC
  5
28DC
330
26FC
100
AcDbEntity
  8
1
 62
     7
100
AcDbCircle
 10
325.0383271365936
 20
236.6061771143277
 30
0.0
 40
4.762499999999945
100
AcDbArc
 50
92.96971984488653
 51
219.1281080526781
  0
ARC
  5
28DD
330
26FC
100
AcDbEntity
  8
1
 62
     7
100
AcDbCircle
 10
336.1387110135412
 20
233.4959954113356
 30
0.0
 40
4.762500000000023
100
AcDbArc
 50
108.6218937579306
 51
234.7802819657208
  0
ARC
  5
28DE
330
26FC
100
AcDbEntity
  8
1
 62
     7
100
AcDbCircle
 10
347.6665795260295
 20
233.4959954113356
 30
0.0
 40
4.76249999999993
100
AcDbArc
 50
124.2740676709734
 51
250.4324558787644
  0
ARC
  5
28DF
330
26FC
100
AcDbEntity
  8
1
 62
     7
100
AcDbCircle
 10
358.7669634029768
 20
236.6061771143277
 30
0.0
 40
4.762500000000032
100
AcDbArc
 50
139.926241584018
 51
266.0846297918079
  0
ARC
  5
28E0
330
26FC
100
AcDbEntity
  8
1
 62
     7
100
AcDbCircle
 10
368.6165979531072
 20
242.5958725715354
 30
0.0
 40
4.762500000000049
100
AcDbArc
 50
155.5784154970609
 51
281.7368037048492
  0
ARC
  5
28E1
330
26FC
100
AcDbEntity
  8
1
 62
     7
100
AcDbCircle
 10
376.4849808409172
 20
251.0208534719312
 30
0.0
 40
4.762500000000017
100
AcDbArc
 50
171.2305894101035
 51
297.3889776178958
  0
ARC
  5
28E2
330
26FC
100
AcDbEntity
  8
1
 62
     7
100
AcDbCircle
 10
381.788550103075
 20
261.2562775238556
 30
0.0
 40
4.762499999999961
100
AcDbArc
 50
186.882763323147
 51
313.0411515309379
  0
ARC
  5
28E3
330
26FC
100
AcDbEntity
  8
1
 62
     7
100
AcDbCircle
 10
384.133964269621
 20
272.5430301493268
 30
0.0
 40
4.762500000000041
100
AcDbArc
 50
202.5349372361914
 51
328.6933254439816
  0
ARC
  5
28E4
330
26FC
100
AcDbEntity
  8
1
 62
     7
100
AcDbCircle
 10
383.347274701378
 20
284.0440245395713
 30
0.0
 40
4.762499999999977
100
AcDbArc
 50
218.1871111492348
 51
344.3454993570259
  0
ARC
  5
28E5
330
26FC
100
AcDbEntity
  8
1
 62
     7
100
AcDbCircle
 10
379.4868265647575
 20
294.9062845542131
 30
0.0
 40
4.762499999999961
100
AcDbArc
 50
233.8392850622775
 51
359.9976732700678
  0
ARC
  5
28E6
330
26FC
100
AcDbEntity
  8
1
 62
     7
100
AcDbCircle
 10
372.8389316376782
 20
304.3242060594991
 30
0.0
 40
4.762500000000081
100
AcDbArc
 50
249.4914589753228
 51
15.64984718311116
  0
ARC
  5
28E7
330
26FC
100
AcDbEntity
  8
1
 62
     7
100
AcDbCircle
 10
363.8966338747852
 20
311.5993049015063
 30
0.0
 40
4.762499999999993
100
AcDbArc
 50
265.1436328883653
 51
31.302021096154
  0
ARC
  5
28E8
330
26FC
100
AcDbEntity
  8
1
 62
     7
100
AcDbCircle
 10
353.3231425928622
 20
316.1920202804855
 30
0.0
 40
4.762500000000025
100
AcDbArc
 50
280.7958068014078
 51
46.95419500919906
  0
ARC
  5
28E9
330
26FC
100
AcDbEntity
  8
1
 62
     7
100
AcDbCircle
 10
341.9026452697853
 20
275.4317315070532
 30
0.0
 40
49.08550000000001
100
AcDbArc
 50
0.0
 51
121.0089875319078
  0
ARC
  5
28EA
330
26FC
100
AcDbEntity
  8
1
 62
     7
100
AcDbCircle
 10
341.9026452697853
 20
275.4317315070532
 30
0.0
 40
49.08550000000007
100
AcDbArc
 50
238.991012468092
 51
0.0
  0
ARC
  5
28EB
330
26FC
100
AcDbEntity
  8
1
 62
     7
100
AcDbCircle
 10
341.9026452697853
 20
275.4317315070532
 30
0.0
 40
46.61
100
AcDbArc
 50
0.0
 51
122.8562935937184
  0
ARC
  5
28EC
330
26FC
100
AcDbEntity
  8
1
 62
     7
100
AcDbCircle
 10
341.9026452697853
 20
275.4317315070532
 30
0.0
 40
46.61000000000002
100
AcDbArc
 50
237.1437064062815
 51
0.0
  0
ARC
  5
28ED
330
26FC
100
AcDbEntity
  8
1
 62
     7
100
AcDbCircle
 10
341.9026452697853
 20
275.4317315070532
 30
0.0
 40
38.12499999999991
100
AcDbArc
 50
0.0
 51
131.5504082091123
  0
ARC
  5
28EE
330
26FC
100
AcDbEntity
  8
1
 62
     7
100
AcDbCircle
 10
341.9026452697853
 20
275.4317315070532
 30
0.0
 40
38.12499999999996
100
AcDbArc
 50
227.6801741494489
 51
0.0
  0
ARC
  5
28EF
330
26FC
100
AcDbEntity
  8
1
 62
     7
100
AcDbCircle
 10
341.9026452697853
 20
275.4317315070532
 30
0.0
 40
35.55999999999992
100
AcDbArc
 50
0.0
 51
135.32628395702
  0
ARC
  5
28F0
330
26FC
100
AcDbEntity
  8
1
 62
     7
100
AcDbCircle
 10
341.9026452697853
 20
275.4317315070532
 30
0.0
 40
35.56
100
AcDbArc
 50
224.6737160429797
 51
0.0
  0
ARC
  5
28F1
330
26FC
100
AcDbEntity
  8
1
 62
     7
100
AcDbCircle
 10
204.2085120192546
 20
233.0962315069734
 30
0.0
 40
4.762499999999958
100
AcDbArc
 50
243.9860991335044
 51
270.0
  0
ARC
  5
28F2
330
26FC
100
AcDbEntity
  8
1
 62
     7
100
AcDbCircle
 10
204.2085120192546
 20
233.0962315069734
 30
0.0
 40
4.762500000000023
100
AcDbArc
 50
90.0
 51
243.9860991335044
  0
ARC
  5
28F3
330
26FC
100
AcDbEntity
  8
1
 62
     7
100
AcDbCircle
 10
204.2085120192546
 20
233.0962315069734
 30
0.0
 40
4.762500000000039
100
AcDbArc
 50
61.99902851396724
 51
90.0
  0
ARC
  5
28F4
330
26FC
100
AcDbEntity
  8
1
 62
     7
100
AcDbCircle
 10
204.2085120192546
 20
233.0962315069734
 30
0.0
 40
4.762500000000009
100
AcDbArc
 50
296.0139008664969
 51
61.99902851396724
  0
ARC
  5
28F5
330
26FC
100
AcDbEntity
  8
1
 62
     7
100
AcDbCircle
 10
204.2085120192546
 20
233.0962315069734
 30
0.0
 40
4.762499999999985
100
AcDbArc
 50
270.0
 51
296.0139008664969
  0
ARC
  5
28F6
330
26FC
100
AcDbEntity
  8
1
 62
     7
100
AcDbCircle
 10
204.2085120192546
 20
317.7562315069733
 30
0.0
 40
4.762500000000041
100
AcDbArc
 50
63.9860991335031
 51
90.0
  0
ARC
  5
28F7
330
26FC
100
AcDbEntity
  8
1
 62
     7
100
AcDbCircle
 10
204.2085120192546
 20
317.7562315069733
 30
0.0
 40
4.762499999999993
100
AcDbArc
 50
298.0009714860331
 51
63.9860991335031
  0
ARC
  5
28F8
330
26FC
100
AcDbEntity
  8
1
 62
     7
100
AcDbCircle
 10
204.2085120192546
 20
317.7562315069733
 30
0.0
 40
4.762499999999985
100
AcDbArc
 50
270.0
 51
298.0009714860331
  0
ARC
  5
28F9
330
26FC
100
AcDbEntity
  8
1
 62
     7
100
AcDbCircle
 10
204.2085120192546
 20
317.7562315069733
 30
0.0
 40
4.76249999999999
100
AcDbArc
 50
116.0139008664954
 51
270.0
  0
ARC
  5
28FA
330
26FC
100
AcDbEntity
  8
1
 62
     7
100
AcDbCircle
 10
204.2085120192546
 20
317.7562315069733
 30
0.0
 40
4.762499999999985
100
AcDbArc
 50
90.0
 51
116.0139008664954
  0
ARC
  5
28FB
330
26FC
100
AcDbEntity
  8
1
 62
     7
100
AcDbCircle
 10
341.9026452697765
 20
275.4317315070532
 30
0.0
 40
35.5599999999999
100
AcDbArc
 50
180.0
 51
315.32628395702
  0
ARC
  5
28FC
330
26FC
100
AcDbEntity
  8
1
 62
     7
100
AcDbCircle
 10
341.9026452697765
 20
275.4317315070532
 30
0.0
 40
35.55999999999988
100
AcDbArc
 50
44.67371604297976
 51
180.0
  0
ARC
  5
28FD
330
26FC
100
AcDbEntity
  8
1
 62
     7
100
AcDbCircle
 10
341.9026452697765
 20
275.4317315070532
 30
0.0
 40
38.125
100
AcDbArc
 50
180.0
 51
312.3198258505508
  0
ARC
  5
28FE
330
26FC
100
AcDbEntity
  8
1
 62
     7
100
AcDbCircle
 10
341.9026452697765
 20
275.4317315070532
 30
0.0
 40
38.12499999999992
100
AcDbArc
 50
48.44959179088765
 51
180.0
  0
ARC
  5
28FF
330
26FC
100
AcDbEntity
  8
1
 62
     7
100
AcDbCircle
 10
341.9026452697765
 20
275.4317315070532
 30
0.0
 40
46.61000000000011
100
AcDbArc
 50
180.0
 51
302.8562935937183
  0
ARC
  5
2900
330
26FC
100
AcDbEntity
  8
1
 62
     7
100
AcDbCircle
 10
341.9026452697765
 20
275.4317315070532
 30
0.0
 40
46.60999999999999
100
AcDbArc
 50
57.14370640628152
 51
180.0
  0
ARC
  5
2901
330
26FC
100
AcDbEntity
  8
1
 62
     7
100
AcDbCircle
 10
341.9026452697765
 20
275.4317315070532
 30
0.0
 40
49.0855000000001
100
AcDbArc
 50
180.0
 51
301.0089875319077
  0
ARC
  5
2902
330
26FC
100
AcDbEntity
  8
1
 62
     7
100
AcDbCircle
 10
341.9026452697765
 20
275.4317315070532
 30
0.0
 40
49.08549999999995
100
AcDbArc
 50
58.99101246809217
 51
180.0
  0
ARC
  5
2903
330
26FC
100
AcDbEntity
  8
1
 62
     7
100
AcDbCircle
 10
330.4821479466997
 20
316.1920202804855
 30
0.0
 40
4.762499999999898
100
AcDbArc
 50
133.0458049908008
 51
259.2041931985921
  0
ARC
  5
2904
330
26FC
100
AcDbEntity
  8
1
 62
     7
100
AcDbCircle
 10
319.9086566647765
 20
311.5993049015063
 30
0.0
 40
4.762499999999922
100
AcDbArc
 50
148.6979789038445
 51
274.8563671116353
  0
ARC
  5
2905
330
26FC
100
AcDbEntity
  8
1
 62
     7
100
AcDbCircle
 10
310.9663589018834
 20
304.3242060594991
 30
0.0
 40
4.762500000000192
100
AcDbArc
 50
164.350152816889
 51
290.5085410246768
  0
ARC
  5
2906
330
26FC
100
AcDbEntity
  8
1
 62
     7
100
AcDbCircle
 10
304.3184639748038
 20
294.9062845542131
 30
0.0
 40
4.76249999999992
100
AcDbArc
 50
180.0023267299319
 51
306.1607149377231
  0
ARC
  5
2907
330
26FC
100
AcDbEntity
  8
1
 62
     7
100
AcDbCircle
 10
300.4580158381837
 20
284.0440245395713
 30
0.0
 40
4.762499999999787
100
AcDbArc
 50
195.654500642974
 51
321.8128888507644
  0
ARC
  5
2908
330
26FC
100
AcDbEntity
  8
1
 62
     7
100
AcDbCircle
 10
299.6713262699408
 20
272.5430301493268
 30
0.0
 40
4.762499999999816
100
AcDbArc
 50
211.3066745560181
 51
337.46506276381
  0
ARC
  5
2909
330
26FC
100
AcDbEntity
  8
1
 62
     7
100
AcDbCircle
 10
302.0167404364865
 20
261.2562775238556
 30
0.0
 40
4.762500000000008
100
AcDbArc
 50
226.9588484690617
 51
353.1172366768529
  0
ARC
  5
290A
330
26FC
100
AcDbEntity
  8
1
 62
     7
100
AcDbCircle
 10
307.3203096986445
 20
251.0208534719312
 30
0.0
 40
4.762500000000049
100
AcDbArc
 50
242.6110223821054
 51
8.769410589894816
  0
ARC
  5
290B
330
26FC
100
AcDbEntity
  8
1
 62
     7
100
AcDbCircle
 10
315.1886925864544
 20
242.5958725715354
 30
0.0
 40
4.762499999999953
100
AcDbArc
 50
258.2631962951503
 51
24.42158450293857
  0
ARC
  5
290C
330
26FC
100
AcDbEntity
  8
1
 62
     7
100
AcDbCircle
 10
325.0383271365849
 20
236.6061771143277
 30
0.0
 40
4.762500000000057
100
AcDbArc
 50
273.9153702081911
 51
40.07375841598189
  0
ARC
  5
290D
330
26FC
100
AcDbEntity
  8
1
 62
     7
100
AcDbCircle
 10
336.1387110135324
 20
233.4959954113356
 30
0.0
 40
4.762500000000009
100
AcDbArc
 50
289.5675441212338
 51
55.72593232902778
  0
ARC
  5
290E
330
26FC
100
AcDbEntity
  8
1
 62
     7
100
AcDbCircle
 10
347.6665795260204
 20
233.4959954113356
 30
0.0
 40
4.762500000000049
100
AcDbArc
 50
305.2197180342798
 51
71.3781062420692
  0
ARC
  5
290F
330
26FC
100
AcDbEntity
  8
1
 62
     7
100
AcDbCircle
 10
358.7669634029678
 20
236.6061771143277
 30
0.0
 40
4.762499999999873
100
AcDbArc
 50
320.8718919473212
 51
87.03028015511426
  0
ARC
  5
2910
330
26FC
100
AcDbEntity
  8
1
 62
     7
100
AcDbCircle
 10
363.8966338747763
 20
311.5993049015063
 30
0.0
 40
4.76250000000003
100
AcDbArc
 50
86.0892832516701
 51
212.2476714594605
  0
ARC
  5
2911
330
26FC
100
AcDbEntity
  8
1
 62
     7
100
AcDbCircle
 10
353.3231425928533
 20
316.1920202804855
 30
0.0
 40
4.762500000000031
100
AcDbArc
 50
101.7414571647154
 51
227.8998453725051
  0
ARC
  5
2912
330
26FC
100
AcDbEntity
  8
1
 62
     7
100
AcDbCircle
 10
330.4821479466997
 20
316.1920202804855
 30
0.0
 40
4.762499999999953
100
AcDbArc
 50
312.100154627494
 51
78.25854283528643
  0
ARC
  5
2913
330
26FC
100
AcDbEntity
  8
1
 62
     7
100
AcDbCircle
 10
319.9086566647765
 20
311.5993049015063
 30
0.0
 40
4.762500000000081
100
AcDbArc
 50
327.7523285405397
 51
93.91071674832906
  0
ARC
  5
2914
330
26FC
100
AcDbEntity
  8
1
 62
     7
100
AcDbCircle
 10
310.9663589018834
 20
304.3242060594991
 30
0.0
 40
4.762499999999969
100
AcDbArc
 50
343.4045024535831
 51
109.5628906613737
  0
ARC
  5
2915
330
26FC
100
AcDbEntity
  8
1
 62
     7
100
AcDbCircle
 10
304.3184639748038
 20
294.9062845542131
 30
0.0
 40
4.762499999999985
100
AcDbArc
 50
359.0566763666263
 51
125.2150645744146
  0
ARC
  5
2916
330
26FC
100
AcDbEntity
  8
1
 62
     7
100
AcDbCircle
 10
300.4580158381837
 20
284.0440245395713
 30
0.0
 40
4.76250000000016
100
AcDbArc
 50
14.70885027966948
 51
140.867238487458
  0
ARC
  5
2917
330
26FC
100
AcDbEntity
  8
1
 62
     7
100
AcDbCircle
 10
299.6713262699408
 20
272.5430301493268
 30
0.0
 40
4.762500000000214
100
AcDbArc
 50
30.36102419271264
 51
156.519412400502
  0
ARC
  5
2918
330
26FC
100
AcDbEntity
  8
1
 62
     7
100
AcDbCircle
 10
302.0167404364865
 20
261.2562775238556
 30
0.0
 40
4.762500000000128
100
AcDbArc
 50
46.01319810575721
 51
172.1715863135456
  0
ARC
  5
2919
330
26FC
100
AcDbEntity
  8
1
 62
     7
100
AcDbCircle
 10
307.3203096986445
 20
251.0208534719312
 30
0.0
 40
4.762500000000033
100
AcDbArc
 50
61.66537201879958
 51
187.8237602265913
  0
ARC
  5
291A
330
26FC
100
AcDbEntity
  8
1
 62
     7
100
AcDbCircle
 10
315.1886925864544
 20
242.5958725715354
 30
0.0
 40
4.762500000000041
100
AcDbArc
 50
77.31754593184317
 51
203.4759341396336
  0
ARC
  5
291B
330
26FC
100
AcDbEntity
  8
1
 62
     7
100
AcDbCircle
 10
325.0383271365849
 20
236.6061771143277
 30
0.0
 40
4.762499999999953
100
AcDbArc
 50
92.96971984488811
 51
219.1281080526768
  0
ARC
  5
291C
330
26FC
100
AcDbEntity
  8
1
 62
     7
100
AcDbCircle
 10
336.1387110135324
 20
233.4959954113356
 30
0.0
 40
4.762500000000023
100
AcDbArc
 50
108.6218937579306
 51
234.78028196572
  0
ARC
  5
291D
330
26FC
100
AcDbEntity
  8
1
 62
     7
100
AcDbCircle
 10
347.6665795260204
 20
233.4959954113356
 30
0.0
 40
4.76249999999993
100
AcDbArc
 50
124.2740676709734
 51
250.4324558787657
  0
ARC
  5
291E
330
26FC
100
AcDbEntity
  8
1
 62
     7
100
AcDbCircle
 10
358.7669634029678
 20
236.6061771143277
 30
0.0
 40
4.762500000000096
100
AcDbArc
 50
139.926241584018
 51
266.0846297918079
  0
ARC
  5
291F
330
26FC
100
AcDbEntity
  8
1
 62
     7
100
AcDbCircle
 10
368.6165979530982
 20
242.5958725715354
 30
0.0
 40
4.762500000000049
100
AcDbArc
 50
155.5784154970609
 51
252.5713798554614
  0
ARC
  5
2920
330
26FC
100
AcDbEntity
  8
1
 62
     7
100
AcDbCircle
 10
363.8966338747763
 20
311.5993049015063
 30
0.0
 40
4.762499999999977
100
AcDbArc
 50
265.1436328883668
 51
313.753022380175
  0
ARC
  5
2921
330
26FC
100
AcDbEntity
  8
1
 62
     7
100
AcDbCircle
 10
353.3231425928533
 20
316.1920202804855
 30
0.0
 40
4.762500000000057
100
AcDbArc
 50
280.7958068014103
 51
46.95419500919678
  0
ARC
  5
2922
330
26FC
100
AcDbEntity
  8
1
 62
     7
100
AcDbCircle
 10
341.9026452697765
 20
317.7617315070532
 30
0.0
 40
4.762499999999873
100
AcDbArc
 50
296.4479807144516
 51
62.60636892224422
  0
ARC
  5
2923
330
26FC
100
AcDbEntity
  8
1
 62
     7
100
AcDbCircle
 10
341.9026452697765
 20
317.7617315070532
 30
0.0
 40
4.762500000000152
100
AcDbArc
 50
117.3936310777572
 51
243.5520192855475
  0
ARC
  5
2924
330
26FC
100
AcDbEntity
  8
1
  6
CENTER
 62
     3
100
AcDbCircle
 10
31.60601201925473
 20
275.4317315069735
 30
0.0
 40
27.99999999999997
100
AcDbArc
 50
279.9954866967356
 51
302.8218161429553
  0
ARC
  5
2925
330
26FC
100
AcDbEntity
  8
1
  6
CENTER
 62
     3
100
AcDbCircle
 10
31.60601201925473
 20
275.4317315069735
 30
0.0
 40
27.99999999999994
100
AcDbArc
 50
101.9609625531407
 51
123.1462985591825
  0
ARC
  5
2926
330
26FC
100
AcDbEntity
  8
1
 62
     7
100
AcDbCircle
 10
341.9026452699549
 20
275.4317315069735
 30
0.0
 40
6.999999894711502
100
AcDbArc
 50
110.9248324360956
 51
269.9999999986108
  0
ARC
  5
2927
330
26FC
100
AcDbEntity
  8
1
 62
     7
100
AcDbCircle
 10
341.9026452699549
 20
275.4317315069735
 30
0.0
 40
6.999999894711523
100
AcDbArc
 50
269.9999999986108
 51
69.07516757554656
  0
ARC
  5
2928
330
26FC
100
AcDbEntity
  8
0
 62
     7
100
AcDbCircle
 10
341.9026452713243
 20
276.365064826321
 30
0.0
 40
17.67999973441129
100
AcDbArc
 50
90.0000000000057
 51
250.7303611220286
  0
ARC
  5
2929
330
26FC
100
AcDbEntity
  8
0
 62
     7
100
AcDbCircle
 10
335.7159786975848
 20
258.668662444467
 30
0.0
 40
1.066666650661006
100
AcDbArc
 50
0.0000000005471572
 51
70.73036112248461
  0
ARC
  5
292A
330
26FC
100
AcDbEntity
  8
0
 62
     7
100
AcDbCircle
 10
337.8493119988867
 20
256.4983984580956
 30
0.0
 40
1.066666650668111
100
AcDbArc
 50
180.0
 51
269.9999999985498
  0
ARC
  5
292B
330
26FC
100
AcDbEntity
  8
0
 62
     7
100
AcDbCircle
 10
341.9026452713207
 20
276.365064826321
 30
0.0
 40
17.67999973441138
100
AcDbArc
 50
289.2696388779717
 51
89.99999999999426
  0
ARC
  5
292C
330
26FC
100
AcDbEntity
  8
0
 62
     7
100
AcDbCircle
 10
348.0893118450675
 20
258.6686624444772
 30
0.0
 40
1.066666650650017
100
AcDbArc
 50
109.2696388775027
 51
180.0
  0
ARC
  5
292D
330
26FC
100
AcDbEntity
  8
0
 62
     7
100
AcDbCircle
 10
345.9559785437761
 20
256.4983984580941
 30
0.0
 40
1.066666650666797
100
AcDbArc
 50
270.0000000007954
 51
0.0000000000700231
  0
ARC
  5
292E
330
26FC
100
AcDbEntity
  8
1
 62
     7
100
AcDbCircle
 10
341.9026452685286
 20
275.4317315069735
 30
0.0
 40
67.49999898623572
100
AcDbArc
 50
247.9985751931756
 51
0.0
  0
ARC
  5
292F
330
26FC
100
AcDbEntity
  8
1
 62
     7
100
AcDbCircle
 10
341.9026452685286
 20
275.4317315069735
 30
0.0
 40
67.4999989862357
100
AcDbArc
 50
0.0
 51
112.0014248068243
  0
ARC
  5
2930
330
26FC
100
AcDbEntity
  8
1
 62
     7
100
AcDbCircle
 10
184.3520875992139
 20
365.1637315069732
 30
0.0
 40
39.95171405502999
100
AcDbArc
 50
269.4692575130869
 51
284.8582551148296
  0
ARC
  5
2931
330
26FC
100
AcDbEntity
  8
1
 62
     7
100
AcDbCircle
 10
184.3520875992139
 20
185.6997315069735
 30
0.0
 40
39.95171405502999
100
AcDbArc
 50
75.14174488517001
 51
90.530742486913
  0
ARC
  5
2932
330
26FC
100
AcDbEntity
  8
0
 62
     7
100
AcDbCircle
 10
187.1060120253449
 20
291.8317312605816
 30
0.0
 40
0.3999999939096792
100
AcDbArc
 50
270.0000000101776
 51
0.0000000101859172
  0
ARC
  5
2933
330
26FC
100
AcDbEntity
  8
0
 62
     7
100
AcDbCircle
 10
193.1060120132914
 20
291.8317312607087
 30
0.0
 40
0.3999999940367616
100
AcDbArc
 50
180.0000000080087
 51
270.0000000080119
  0
ARC
  5
2934
330
26FC
100
AcDbEntity
  8
0
 62
     7
100
AcDbCircle
 10
187.1060120253525
 20
259.0317317533802
 30
0.0
 40
0.3999999939020994
100
AcDbArc
 50
359.9999999909034
 51
89.99999999090515
  0
ARC
  5
2935
330
26FC
100
AcDbEntity
  8
0
 62
     7
100
AcDbCircle
 10
193.1060120132838
 20
259.0317317532536
 30
0.0
 40
0.3999999940290913
100
AcDbArc
 50
89.99999999090515
 51
179.9999999909049
  0
ARC
  5
2936
330
26FC
100
AcDbEntity
  8
0
 62
     7
100
AcDbCircle
 10
195.2964783519008
 20
330.7317315025637
 30
0.0
 40
0.2999999954805048
100
AcDbArc
 50
270.0000000024321
 51
0.0000000024214962
  0
CIRCLE
  5
2937
330
26FC
100
AcDbEntity
  8
1
  6
CENTER
 62
     3
100
AcDbCircle
 10
341.9026452697984
 20
275.4317315047638
 30
0.0
 40
60.0000000033919
  0
CIRCLE
  5
2938
330
26FC
100
AcDbEntity
  8
1
 62
     7
100
AcDbCircle
 10
311.9026452730918
 20
223.4702072799072
 30
0.0
 40
3.299999999999955
  0
CIRCLE
  5
2939
330
26FC
100
AcDbEntity
  8
1
 62
     7
100
AcDbCircle
 10
289.9411210460255
 20
305.4317315069735
 30
0.0
 40
3.300000000000071
  0
CIRCLE
  5
293A
330
26FC
100
AcDbEntity
  8
1
 62
     7
100
AcDbCircle
 10
281.9026452730919
 20
275.4317315069735
 30
0.0
 40
3.300000000000006
  0
CIRCLE
  5
293B
330
26FC
100
AcDbEntity
  8
1
 62
     7
100
AcDbCircle
 10
289.9411210460255
 20
245.4317315069736
 30
0.0
 40
3.3000000000001
  0
CIRCLE
  5
293C
330
26FC
100
AcDbEntity
  8
1
 62
     7
100
AcDbCircle
 10
311.9026452730918
 20
327.3932557340395
 30
0.0
 40
3.300000000000116
  0
CIRCLE
  5
293D
330
26FC
100
AcDbEntity
  8
1
 62
     7
100
AcDbCircle
 10
341.9026452697984
 20
275.4317315047638
 30
0.0
 40
15.99999975989418
  0
CIRCLE
  5
293E
330
26FC
100
AcDbEntity
  8
1
 62
     7
100
AcDbCircle
 10
341.9026452697984
 20
275.4317315047638
 30
0.0
 40
21.49999967727036
  0
CIRCLE
  5
293F
330
26FC
100
AcDbEntity
  8
0
 62
     7
100
AcDbCircle
 10
339.0759786471237
 20
257.9917317689386
 30
0.0
 40
1.066666650638294
  0
CIRCLE
  5
2940
330
26FC
100
AcDbEntity
  8
0
 62
     7
100
AcDbCircle
 10
344.7293118955292
 20
257.9917317689386
 30
0.0
 40
1.06666665064381
  0
CIRCLE
  5
2941
330
26FC
100
AcDbEntity
  8
1
 62
     7
100
AcDbCircle
 10
341.9026452697853
 20
275.4317315070532
 30
0.0
 40
50.27999999975471
  0
CIRCLE
  5
2942
330
26FC
100
AcDbEntity
  8
1
 62
     7
100
AcDbCircle
 10
341.9026452697853
 20
275.4317315070532
 30
0.0
 40
51.21400000030103
  0
CIRCLE
  5
2943
330
26FC
100
AcDbEntity
  8
1
 62
     7
100
AcDbCircle
 10
341.9026452697984
 20
275.4317315047638
 30
0.0
 40
67.4999989887508
  0
CIRCLE
  5
2944
330
26FC
100
AcDbEntity
  8
1
 62
     7
100
AcDbCircle
 10
31.60601201925473
 20
275.4317315069735
 30
0.0
 40
51.21399999999997
  0
CIRCLE
  5
2945
330
26FC
100
AcDbEntity
  8
1
 62
     7
100
AcDbCircle
 10
357.4317879705842
 20
217.476181926415
 30
0.0
 40
3.299999999999958
  0
CIRCLE
  5
2946
330
26FC
100
AcDbEntity
  8
1
 62
     7
100
AcDbCircle
 10
326.3735025582799
 20
333.3872810811026
 30
0.0
 40
3.300000000000091
  0
CIRCLE
  5
2947
330
26FC
100
AcDbEntity
  8
1
 62
     7
100
AcDbCircle
 10
341.9026452664698
 20
335.4317315069733
 30
0.0
 40
3.300000000000091
  0
CIRCLE
  5
2948
330
26FC
100
AcDbEntity
  8
1
 62
     7
100
AcDbCircle
 10
341.9026452664698
 20
215.4317315069736
 30
0.0
 40
3.299999999999898
  0
CIRCLE
  5
2949
330
26FC
100
AcDbEntity
  8
1
 62
     7
100
AcDbCircle
 10
371.9026452664698
 20
223.4702072799072
 30
0.0
 40
3.299999999999978
  0
CIRCLE
  5
294A
330
26FC
100
AcDbEntity
  8
1
 62
     7
100
AcDbCircle
 10
393.8641694935358
 20
245.4317315069736
 30
0.0
 40
3.300000000000091
  0
CIRCLE
  5
294B
330
26FC
100
AcDbEntity
  8
1
 62
     7
100
AcDbCircle
 10
401.9026452664695
 20
275.4317315069735
 30
0.0
 40
3.300000000000006
  0
CIRCLE
  5
294C
330
26FC
100
AcDbEntity
  8
1
 62
     7
100
AcDbCircle
 10
393.8641694935358
 20
305.4317315069735
 30
0.0
 40
3.300000000000087
  0
CIRCLE
  5
294D
330
26FC
100
AcDbEntity
  8
1
 62
     7
100
AcDbCircle
 10
371.9026452664698
 20
327.3932557340395
 30
0.0
 40
3.300000000000189
  0
CIRCLE
  5
294E
330
26FC
100
AcDbEntity
  8
1
 62
     3
100
AcDbCircle
 10
326.3735025609002
 20
333.3872810837462
 30
0.0
 40
3.0
  0
CIRCLE
  5
294F
330
26FC
100
AcDbEntity
  8
1
 62
     7
100
AcDbCircle
 10
326.3735025609002
 20
333.3872810837462
 30
0.0
 40
2.400000000000085
  0
CIRCLE
  5
2950
330
26FC
100
AcDbEntity
  8
1
 62
     7
100
AcDbCircle
 10
357.4317879732042
 20
217.4761819290586
 30
0.0
 40
2.399999999999776
  0
CIRCLE
  5
2951
330
26FC
100
AcDbEntity
  8
1
 62
     3
100
AcDbCircle
 10
357.4317879732042
 20
217.4761819290586
 30
0.0
 40
2.999999999999883
  0
CIRCLE
  5
2952
330
26FC
100
AcDbEntity
  8
1
 62
     3
100
AcDbCircle
 10
42.3211481254772
 20
249.5631045966575
 30
0.0
 40
3.000000000000006
  0
CIRCLE
  5
2953
330
26FC
100
AcDbEntity
  8
1
 62
     7
100
AcDbCircle
 10
42.3211481254772
 20
249.5631045966575
 30
0.0
 40
2.399999999999915
  0
CIRCLE
  5
2954
330
26FC
100
AcDbEntity
  8
1
 62
     7
100
AcDbCircle
 10
20.8908759130322
 20
301.3003584172897
 30
0.0
 40
2.400000000000046
  0
CIRCLE
  5
2955
330
26FC
100
AcDbEntity
  8
1
 62
     3
100
AcDbCircle
 10
20.8908759130322
 20
301.3003584172897
 30
0.0
 40
3.000000000000015
  0
CIRCLE
  5
2956
330
26FC
100
AcDbEntity
  8
1
 62
     7
100
AcDbCircle
 10
49.28368154891839
 20
293.1094010366372
 30
0.0
 40
5.500000000000007
  0
CIRCLE
  5
2957
330
26FC
100
AcDbEntity
  8
1
 62
     7
100
AcDbCircle
 10
56.60601201925473
 20
275.4317315069735
 30
0.0
 40
5.5
  0
CIRCLE
  5
2958
330
26FC
100
AcDbEntity
  8
1
 62
     7
100
AcDbCircle
 10
49.28368154891839
 20
257.7540619773098
 30
0.0
 40
5.499999999999976
  0
CIRCLE
  5
2959
330
26FC
100
AcDbEntity
  8
1
 62
     7
100
AcDbCircle
 10
31.60601201925473
 20
250.4317315069736
 30
0.0
 40
5.5
  0
CIRCLE
  5
295A
330
26FC
100
AcDbEntity
  8
1
 62
     7
100
AcDbCircle
 10
13.92834248959118
 20
257.7540619773098
 30
0.0
 40
5.499999999999983
  0
CIRCLE
  5
295B
330
26FC
100
AcDbEntity
  8
1
 62
     7
100
AcDbCircle
 10
6.606012019254848
 20
275.4317315069736
 30
0.0
 40
5.5
  0
CIRCLE
  5
295C
330
26FC
100
AcDbEntity
  8
1
 62
     7
100
AcDbCircle
 10
13.92834248959118
 20
293.1094010366372
 30
0.0
 40
5.500000000000039
  0
CIRCLE
  5
295D
330
26FC
100
AcDbEntity
  8
1
 62
     7
100
AcDbCircle
 10
31.60601201925473
 20
300.4317315069735
 30
0.0
 40
5.5
  0
CIRCLE
  5
295E
330
26FC
100
AcDbEntity
  8
1
  6
CENTER
 62
     3
100
AcDbCircle
 10
31.60601201925473
 20
275.4317315069735
 30
0.0
 40
25.0
  0
CIRCLE
  5
295F
330
26FC
100
AcDbEntity
  8
1
 62
     3
100
AcDbCircle
 10
16.07686931310442
 20
217.4761819296292
 30
0.0
 40
2.999999999999976
  0
CIRCLE
  5
2960
330
26FC
100
AcDbEntity
  8
1
 62
     7
100
AcDbCircle
 10
16.07686931310442
 20
217.4761819296292
 30
0.0
 40
2.399999999999935
  0
CIRCLE
  5
2961
330
26FC
100
AcDbEntity
  8
1
 62
     7
100
AcDbCircle
 10
47.13515472540521
 20
333.3872810843176
 30
0.0
 40
2.399999999999875
  0
CIRCLE
  5
2962
330
26FC
100
AcDbEntity
  8
1
 62
     3
100
AcDbCircle
 10
47.13515472540521
 20
333.3872810843176
 30
0.0
 40
2.999999999999976
  0
CIRCLE
  5
2963
330
26FC
100
AcDbEntity
  8
1
 62
     7
100
AcDbCircle
 10
61.60601201925472
 20
327.3932557340395
 30
0.0
 40
3.30000000000003
  0
CIRCLE
  5
2964
330
26FC
100
AcDbEntity
  8
1
 62
     7
100
AcDbCircle
 10
83.56753624632101
 20
305.4317315069735
 30
0.0
 40
3.300000000000026
  0
CIRCLE
  5
2965
330
26FC
100
AcDbEntity
  8
1
 62
     7
100
AcDbCircle
 10
91.60601201925476
 20
275.4317315069735
 30
0.0
 40
3.300000000000006
  0
CIRCLE
  5
2966
330
26FC
100
AcDbEntity
  8
1
 62
     7
100
AcDbCircle
 10
83.56753624632094
 20
245.4317315069736
 30
0.0
 40
3.30000000000005
  0
CIRCLE
  5
2967
330
26FC
100
AcDbEntity
  8
1
 62
     7
100
AcDbCircle
 10
61.60601201925472
 20
223.4702072799072
 30
0.0
 40
3.30000000000005
  0
CIRCLE
  5
2968
330
26FC
100
AcDbEntity
  8
1
 62
     7
100
AcDbCircle
 10
31.60601201925473
 20
215.4317315069736
 30
0.0
 40
3.300000000000006
  0
CIRCLE
  5
2969
330
26FC
100
AcDbEntity
  8
1
 62
     7
100
AcDbCircle
 10
1.606012019254734
 20
223.4702072799072
 30
0.0
 40
3.299999999999958
  0
CIRCLE
  5
296A
330
26FC
100
AcDbEntity
  8
1
 62
     7
100
AcDbCircle
 10
-20.35551220781147
 20
245.4317315069736
 30
0.0
 40
3.299999999999962
  0
CIRCLE
  5
296B
330
26FC
100
AcDbEntity
  8
1
 62
     7
100
AcDbCircle
 10
-28.39398798074498
 20
275.4317315069735
 30
0.0
 40
3.300000000000091
  0
CIRCLE
  5
296C
330
26FC
100
AcDbEntity
  8
1
 62
     7
100
AcDbCircle
 10
-20.35551220781147
 20
305.4317315069735
 30
0.0
 40
3.300000000000056
  0
CIRCLE
  5
296D
330
26FC
100
AcDbEntity
  8
1
 62
     7
100
AcDbCircle
 10
1.606012019254734
 20
327.3932557340399
 30
0.0
 40
3.299999999999891
  0
CIRCLE
  5
296E
330
26FC
100
AcDbEntity
  8
1
 62
     7
100
AcDbCircle
 10
31.60601201925473
 20
335.4317315069733
 30
0.0
 40
3.300000000000006
  0
CIRCLE
  5
296F
330
26FC
100
AcDbEntity
  8
1
  6
CENTER
 62
     3
100
AcDbCircle
 10
31.60601201925473
 20
275.4317315069735
 30
0.0
 40
60.00000000000002
  0
CIRCLE
  5
2970
330
26FC
100
AcDbEntity
  8
1
 62
     7
100
AcDbCircle
 10
31.60601201925473
 20
275.4317315069735
 30
0.0
 40
15.9999997597163
  0
CIRCLE
  5
2971
330
26FC
100
AcDbEntity
  8
1
 62
     7
100
AcDbCircle
 10
31.60601201925473
 20
275.4317315069735
 30
0.0
 40
31.9999995194073
  0
CIRCLE
  5
2972
330
26FC
100
AcDbEntity
  8
1
 62
     7
100
AcDbCircle
 10
31.60601201925473
 20
275.4317315069735
 30
0.0
 40
49.6819992539147
  0
CIRCLE
  5
2973
330
26FC
100
AcDbEntity
  8
1
 62
     7
100
AcDbCircle
 10
31.60601201925473
 20
275.4317315069735
 30
0.0
 40
54.99999917386457
  0
CIRCLE
  5
2974
330
26FC
100
AcDbEntity
  8
1
 62
     7
100
AcDbCircle
 10
31.60601201925473
 20
275.4317315069735
 30
0.0
 40
67.49999898633743
  0
ARC
  5
2975
330
26FC
100
AcDbEntity
  8
1
 62
     7
100
AcDbCircle
 10
198.1360120192546
 20
230.2462315069735
 30
0.0
 40
0.39999999999986
100
AcDbArc
 50
180.0
 51
270.0
  0
ARC
  5
2976
330
26FC
100
AcDbEntity
  8
1
 62
     7
100
AcDbCircle
 10
197.7881297737994
 20
236.0362315069735
 30
0.0
 40
0.3999999999999773
100
AcDbArc
 50
90.0
 51
187.0000000000076
  0
ARC
  5
2977
330
26FC
100
AcDbEntity
  8
1
 62
     7
100
AcDbCircle
 10
197.7881297737994
 20
314.8162315069734
 30
0.0
 40
0.40000000000005
100
AcDbArc
 50
172.9999999999907
 51
270.0
  0
ARC
  5
2978
330
26FC
100
AcDbEntity
  8
1
 62
     7
100
AcDbCircle
 10
198.1360120192546
 20
320.6062315069735
 30
0.0
 40
0.3999999999999773
100
AcDbArc
 50
90.0
 51
180.0
  0
ARC
  5
297D
330
26FC
100
AcDbEntity
  8
1
 62
     7
100
AcDbCircle
 10
167.8040120192547
 20
228.6497315069737
 30
0.0
 40
3.000000000000028
100
AcDbArc
 50
180.0
 51
270.0
  0
ARC
  5
297E
330
26FC
100
AcDbEntity
  8
1
 62
     7
100
AcDbCircle
 10
167.8040120192547
 20
322.2137315069733
 30
0.0
 40
2.999999999999963
100
AcDbArc
 50
90.0
 51
180.0
  0
ARC
  5
297F
330
26FC
100
AcDbEntity
  8
1
 62
     7
100
AcDbCircle
 10
168.0560120192547
 20
322.0617315069735
 30
0.0
 40
2.450510150968558
100
AcDbArc
 50
91.16913932790764
 51
181.1691393279076
  0
ARC
  5
2980
330
26FC
100
AcDbEntity
  8
1
 62
     7
100
AcDbCircle
 10
168.0560120192547
 20
228.8017315069735
 30
0.0
 40
2.450510150968566
100
AcDbArc
 50
178.8308606720923
 51
268.8308606720921
  0
ARC
  5
2981
330
26FC
100
AcDbEntity
  8
1
 62
     7
100
AcDbCircle
 10
212.4060120192546
 20
325.1488887944988
 30
0.0
 40
0.2000000000000988
100
AcDbArc
 50
0.0
 51
45.00000000002589
  0
ARC
  5
2982
330
26FC
100
AcDbEntity
  8
1
 62
     7
100
AcDbCircle
 10
212.4060120192546
 20
324.7644137554561
 30
0.0
 40
0.1999999999999961
100
AcDbArc
 50
273.0000000000056
 51
0.0
  0
ARC
  5
2983
330
26FC
100
AcDbEntity
  8
1
 62
     7
100
AcDbCircle
 10
212.4060120192546
 20
226.0990492584909
 30
0.0
 40
0.2000000000000988
100
AcDbArc
 50
0.0
 51
86.99999999999443
  0
ARC
  5
2984
330
26FC
100
AcDbEntity
  8
1
 62
     7
100
AcDbCircle
 10
212.4060120192546
 20
225.7145742194479
 30
0.0
 40
0.1999999999999896
100
AcDbArc
 50
314.9999999999948
 51
0.0
  0
ARC
  5
2985
330
26FC
100
AcDbEntity
  8
1
 62
     7
100
AcDbCircle
 10
195.3060119589994
 20
220.1317315069733
 30
0.0
 40
0.3000000000000114
100
AcDbArc
 50
0.0
 51
90.0
  0
ARC
  5
2986
330
26FC
100
AcDbEntity
  8
1
 62
     7
100
AcDbCircle
 10
164.4040120192547
 20
307.8317315069734
 30
0.0
 40
0.4000000000000271
100
AcDbArc
 50
270.0
 51
0.0
  0
ARC
  5
2987
330
26FC
100
AcDbEntity
  8
1
 62
     7
100
AcDbCircle
 10
164.4040120192547
 20
243.0317315069737
 30
0.0
 40
0.3999999999998707
100
AcDbArc
 50
0.0
 51
90.0
  0
TEXT
  5
2988
330
26FC
100
AcDbEntity
  8
1
 62
     0
100
AcDbText
 10
352.0819819022711
 20
131.7745534223863
 30
0.0
 40
6.0
  1
2002/3
 41
0.9
 72
     1
 11
363.4652565719858
 21
134.7745534223863
 31
0.0
100
AcDbText
 73
     2
  0
TEXT
  5
298D
330
26FC
100
AcDbEntity
  8
1
 62
     3
100
AcDbText
 10
-138.6272449758868
 20
-35.92580413346277
 30
0.0
 40
3.399999999999999
  1
 
 41
0.9
100
AcDbText
  0
TEXT
  5
2993
330
26FC
100
AcDbEntity
  8
1
 62
     0
100
AcDbText
 10
130.0573251356512
 20
149.4672707050126
 30
0.0
 40
4.599999999999996
  1
REMARKS:  M.H.C = MINIMUM HOUSING CLEARANCE
 41
0.9
 72
     1
 11
190.0976751356512
 21
151.7672707050126
 31
0.0
100
AcDbText
 73
     2
  0
TEXT
  5
2994
330
26FC
100
AcDbEntity
  8
1
 62
     0
100
AcDbText
 10
320.407732320827
 20
146.5275874322276
 30
0.0
 40
6.0
  1
CSF-40-XXX-2A-GR.dxf
 41
0.9
100
AcDbText
  0
LINE
  5
2995
330
26FC
100
AcDbEntity
  8
AM_0
100
AcDbLine
 10
193.2612008917562
 20
334.6566282552379
 30
0.0
 11
193.2612008917562
 21
219.2087224127277
 31
0.0
  0
INSERT
  5
2A28
330
26FC
100
AcDbEntity
  8
AM_0
100
AcDbBlockReference
  2
HD LLC
 10
387.2018966518718
 20
68.688703994977
 30
0.0
 41
1.264813133113648
 42
1.264813133113648
 43
1.264813133113648
  0
INSERT
  5
2A2E
330
26FC
100
AcDbEntity
  8
AM_0
100
AcDbBlockReference
  2
HD logo-new
 10
282.8301014332637
 20
76.70975007792249
 30
0.0
 41
1.179999999999999
 42
1.179999999999999
 43
1.179999999999999
  0
INSERT
  5
2A3B
330
26FC
100
AcDbEntity
  8
AM_0
100
AcDbBlockReference
  2
NTC
 10
1.324877971108705
 20
114.6735966303837
 30
0.0
 41
0.7395
 42
0.7395
 43
0.7395
  0
ENDSEC
  0
SECTION
  2
OBJECTS
  0
DICTIONARY
  5
26EA
330
0
100
AcDbDictionary
281
     1
  3
ACAD_GROUP
350
26EB
  3
ACAD_LAYOUT
350
26F7
  3
ACAD_MLINESTYLE
350
26F4
  3
ACAD_PLOTSETTINGS
350
26F6
  3
ACAD_PLOTSTYLENAME
350
26EC
  3
AcDbVariableDictionary
350
2A16
  0
DICTIONARY
  5
26EB
102
{ACAD_REACTORS
330
26EA
102
}
330
26EA
100
AcDbDictionary
281
     1
  0
DICTIONARY
  5
26F7
102
{ACAD_REACTORS
330
26EA
102
}
330
26EA
100
AcDbDictionary
281
     1
  3
Layout1
350
26FB
  3
Model
350
26FF
  0
DICTIONARY
  5
26F4
102
{ACAD_REACTORS
330
26EA
102
}
330
26EA
100
AcDbDictionary
281
     1
  3
Standard
350
26F5
  0
DICTIONARY
  5
26F6
102
{ACAD_REACTORS
330
26EA
102
}
330
26EA
100
AcDbDictionary
281
     1
  0
ACDBDICTIONARYWDFLT
  5
26EC
102
{ACAD_REACTORS
330
26EA
102
}
330
26EA
100
AcDbDictionary
281
     1
  3
Normal
350
26ED
100
AcDbDictionaryWithDefault
340
26ED
  0
DICTIONARY
  5
2A16
102
{ACAD_REACTORS
330
26EA
102
}
330
26EA
100
AcDbDictionary
281
     1
  3
DIMASSOC
350
2A17
  0
LAYOUT
  5
26FB
102
{ACAD_REACTORS
330
26F7
102
}
330
26F7
100
AcDbPlotSettings
  1

  2
\\SERVER9\HP LaserJet 5100 PCL 5e
  4

  6

 40
0.0
 41
0.0
 42
0.0
 43
0.0
 44
0.0
 45
0.0
 46
0.0
 47
0.0
 48
0.0
 49
0.0
140
0.0
141
0.0
142
1.0
143
1.0
 70
   688
 72
     0
 73
     0
 74
     5
  7

 75
    16
147
1.0
148
0.0
149
0.0
100
AcDbLayout
  1
Layout1
 70
     1
 71
     1
 10
0.0
 20
0.0
 11
420.0
 21
297.0
 12
0.0
 22
0.0
 32
0.0
 14
1.000000000000000E+20
 24
1.000000000000000E+20
 34
1.000000000000000E+20
 15
-1.000000000000000E+20
 25
-1.000000000000000E+20
 35
-1.000000000000000E+20
146
0.0
 13
0.0
 23
0.0
 33
0.0
 16
1.0
 26
0.0
 36
0.0
 17
0.0
 27
1.0
 37
0.0
 76
     0
330
26F8
  0
LAYOUT
  5
26FF
102
{ACAD_REACTORS
330
26F7
102
}
330
26F7
100
AcDbPlotSettings
  1

  2
\\SERVER9\HP LaserJet 5100 PCL 5e
  4

  6

 40
0.0
 41
0.0
 42
0.0
 43
0.0
 44
0.0
 45
0.0
 46
0.0
 47
0.0
 48
0.0
 49
0.0
140
0.0
141
0.0
142
1.0
143
1.0
 70
  1712
 72
     0
 73
     0
 74
     0
  7

 75
     0
147
1.0
148
0.0
149
0.0
100
AcDbLayout
  1
Model
 70
     1
 71
     0
 10
0.0
 20
0.0
 11
12.0
 21
9.0
 12
0.0
 22
0.0
 32
0.0
 14
0.0
 24
0.0
 34
0.0
 15
0.0
 25
0.0
 35
0.0
146
0.0
 13
0.0
 23
0.0
 33
0.0
 16
1.0
 26
0.0
 36
0.0
 17
0.0
 27
1.0
 37
0.0
 76
     0
330
26FC
  0
MLINESTYLE
  5
26F5
102
{ACAD_REACTORS
330
26F4
102
}
330
26F4
100
AcDbMlineStyle
  2
STANDARD
 70
     0
  3

 62
   256
 51
90.0
 52
90.0
 71
     2
 49
0.5
 62
   256
  6
BYLAYER
 49
-0.5
 62
   256
  6
BYLAYER
  0
ACDBPLACEHOLDER
  5
26ED
102
{ACAD_REACTORS
330
26EC
102
}
330
26EC
  0
DICTIONARYVAR
  5
2A17
102
{ACAD_REACTORS
330
2A16
102
}
330
2A16
100
DictionaryVariables
280
     0
  1
1
  0
ENDSEC
  0
EOF
