  0
SECTION
  2
HEADER
  9
$ACADVER
  1
AC1015
  9
$ACADMAINTVER
 70
    13
  9
$DWGCODEPAGE
  3
ANSI_1252
  9
$INSBASE
 10
0.0
 20
0.0
 30
0.0
  9
$EXTMIN
 10
-184.875831297442
 20
-122.9547277567371
 30
0.0
  9
$EXTMAX
 10
819.1066224621719
 20
490.7418423073752
 30
0.0
  9
$LIMMIN
 10
0.0
 20
0.0
  9
$LIMMAX
 10
420.0
 20
297.0
  9
$ORTHOMODE
 70
     1
  9
$REGENMODE
 70
     1
  9
$FILLMODE
 70
     1
  9
$QTEXTMODE
 70
     0
  9
$MIRRTEXT
 70
     1
  9
$LTSCALE
 40
1.0
  9
$ATTMODE
 70
     1
  9
$TEXTSIZE
 40
2.5
  9
$TRACEWID
 40
1.0
  9
$TEXTSTYLE
  7
STANDARD
  9
$CLAYER
  8
AM_0
  9
$CELTYPE
  6
ByLayer
  9
$CECOLOR
 62
   256
  9
$CELTSCALE
 40
1.0
  9
$DISPSILH
 70
     0
  9
$DIMSCALE
 40
1.0
  9
$DIMASZ
 40
2.5
  9
$DIMEXO
 40
0.625
  9
$DIMDLI
 40
3.75
  9
$DIMRND
 40
0.0
  9
$DIMDLE
 40
0.0
  9
$DIMEXE
 40
1.25
  9
$DIMTP
 40
0.0
  9
$DIMTM
 40
0.0
  9
$DIMTXT
 40
2.5
  9
$DIMCEN
 40
2.5
  9
$DIMTSZ
 40
0.0
  9
$DIMTOL
 70
     0
  9
$DIMLIM
 70
     0
  9
$DIMTIH
 70
     0
  9
$DIMTOH
 70
     0
  9
$DIMSE1
 70
     0
  9
$DIMSE2
 70
     0
  9
$DIMTAD
 70
     1
  9
$DIMZIN
 70
     8
  9
$DIMBLK
  1

  9
$DIMASO
 70
     1
  9
$DIMSHO
 70
     1
  9
$DIMPOST
  1

  9
$DIMAPOST
  1

  9
$DIMALT
 70
     0
  9
$DIMALTD
 70
     3
  9
$DIMALTF
 40
0.03937007874016
  9
$DIMLFAC
 40
1.0
  9
$DIMTOFL
 70
     1
  9
$DIMTVP
 40
0.0
  9
$DIMTIX
 70
     0
  9
$DIMSOXD
 70
     0
  9
$DIMSAH
 70
     0
  9
$DIMBLK1
  1

  9
$DIMBLK2
  1

  9
$DIMSTYLE
  2
ISO-25
  9
$DIMCLRD
 70
     0
  9
$DIMCLRE
 70
     0
  9
$DIMCLRT
 70
     0
  9
$DIMTFAC
 40
1.0
  9
$DIMGAP
 40
0.625
  9
$DIMJUST
 70
     0
  9
$DIMSD1
 70
     0
  9
$DIMSD2
 70
     0
  9
$DIMTOLJ
 70
     1
  9
$DIMTZIN
 70
     0
  9
$DIMALTZ
 70
     0
  9
$DIMALTTZ
 70
     0
  9
$DIMUPT
 70
     0
  9
$DIMDEC
 70
     4
  9
$DIMTDEC
 70
     4
  9
$DIMALTU
 70
     2
  9
$DIMALTTD
 70
     2
  9
$DIMTXSTY
  7
STANDARD
  9
$DIMAUNIT
 70
     0
  9
$DIMADEC
 70
     0
  9
$DIMALTRND
 40
0.0
  9
$DIMAZIN
 70
     0
  9
$DIMDSEP
 70
    46
  9
$DIMATFIT
 70
     3
  9
$DIMFRAC
 70
     0
  9
$DIMLDRBLK
  1

  9
$DIMLUNIT
 70
     2
  9
$DIMLWD
 70
    -2
  9
$DIMLWE
 70
    -2
  9
$DIMTMOVE
 70
     0
  9
$LUNITS
 70
     2
  9
$LUPREC
 70
     2
  9
$SKETCHINC
 40
1.0
  9
$FILLETRAD
 40
2.5
  9
$AUNITS
 70
     0
  9
$AUPREC
 70
     0
  9
$MENU
  1
.
  9
$ELEVATION
 40
0.0
  9
$PELEVATION
 40
0.0
  9
$THICKNESS
 40
0.0
  9
$LIMCHECK
 70
     0
  9
$CHAMFERA
 40
2.5
  9
$CHAMFERB
 40
2.5
  9
$CHAMFERC
 40
0.0
  9
$CHAMFERD
 40
0.0
  9
$SKPOLY
 70
     0
  9
$TDCREATE
 40
2452802.720559710
  9
$TDUCREATE
 40
2452802.887226377
  9
$TDUPDATE
 40
2453865.512314444
  9
$TDUUPDATE
 40
2453865.678981111
  9
$TDINDWG
 40
0.1404137731
  9
$TDUSRTIMER
 40
0.1404134028
  9
$USRTIMER
 70
     1
  9
$ANGBASE
 50
0.0
  9
$ANGDIR
 70
     0
  9
$PDMODE
 70
     0
  9
$PDSIZE
 40
0.0
  9
$PLINEWID
 40
0.0
  9
$SPLFRAME
 70
     0
  9
$SPLINETYPE
 70
     6
  9
$SPLINESEGS
 70
     8
  9
$HANDSEED
  5
29A5
  9
$SURFTAB1
 70
     6
  9
$SURFTAB2
 70
     6
  9
$SURFTYPE
 70
     6
  9
$SURFU
 70
     6
  9
$SURFV
 70
     6
  9
$UCSBASE
  2

  9
$UCSNAME
  2

  9
$UCSORG
 10
0.0
 20
0.0
 30
0.0
  9
$UCSXDIR
 10
1.0
 20
0.0
 30
0.0
  9
$UCSYDIR
 10
0.0
 20
1.0
 30
0.0
  9
$UCSORTHOREF
  2

  9
$UCSORTHOVIEW
 70
     0
  9
$UCSORGTOP
 10
0.0
 20
0.0
 30
0.0
  9
$UCSORGBOTTOM
 10
0.0
 20
0.0
 30
0.0
  9
$UCSORGLEFT
 10
0.0
 20
0.0
 30
0.0
  9
$UCSORGRIGHT
 10
0.0
 20
0.0
 30
0.0
  9
$UCSORGFRONT
 10
0.0
 20
0.0
 30
0.0
  9
$UCSORGBACK
 10
0.0
 20
0.0
 30
0.0
  9
$PUCSBASE
  2

  9
$PUCSNAME
  2

  9
$PUCSORG
 10
0.0
 20
0.0
 30
0.0
  9
$PUCSXDIR
 10
1.0
 20
0.0
 30
0.0
  9
$PUCSYDIR
 10
0.0
 20
1.0
 30
0.0
  9
$PUCSORTHOREF
  2

  9
$PUCSORTHOVIEW
 70
     0
  9
$PUCSORGTOP
 10
0.0
 20
0.0
 30
0.0
  9
$PUCSORGBOTTOM
 10
0.0
 20
0.0
 30
0.0
  9
$PUCSORGLEFT
 10
0.0
 20
0.0
 30
0.0
  9
$PUCSORGRIGHT
 10
0.0
 20
0.0
 30
0.0
  9
$PUCSORGFRONT
 10
0.0
 20
0.0
 30
0.0
  9
$PUCSORGBACK
 10
0.0
 20
0.0
 30
0.0
  9
$USERI1
 70
     0
  9
$USERI2
 70
     0
  9
$USERI3
 70
     0
  9
$USERI4
 70
     0
  9
$USERI5
 70
     0
  9
$USERR1
 40
0.0
  9
$USERR2
 40
0.0
  9
$USERR3
 40
0.0
  9
$USERR4
 40
0.0
  9
$USERR5
 40
0.0
  9
$WORLDVIEW
 70
     1
  9
$SHADEDGE
 70
     3
  9
$SHADEDIF
 70
    70
  9
$TILEMODE
 70
     1
  9
$MAXACTVP
 70
    64
  9
$PINSBASE
 10
0.0
 20
0.0
 30
0.0
  9
$PLIMCHECK
 70
     0
  9
$PEXTMIN
 10
1.000000000000000E+20
 20
1.000000000000000E+20
 30
1.000000000000000E+20
  9
$PEXTMAX
 10
-1.000000000000000E+20
 20
-1.000000000000000E+20
 30
-1.000000000000000E+20
  9
$PLIMMIN
 10
0.0
 20
0.0
  9
$PLIMMAX
 10
420.0
 20
297.0
  9
$UNITMODE
 70
     0
  9
$VISRETAIN
 70
     1
  9
$PLINEGEN
 70
     0
  9
$PSLTSCALE
 70
     1
  9
$TREEDEPTH
 70
  3020
  9
$CMLSTYLE
  2
Standard
  9
$CMLJUST
 70
     0
  9
$CMLSCALE
 40
1.0
  9
$PROXYGRAPHICS
 70
     1
  9
$MEASUREMENT
 70
     0
  9
$CELWEIGHT
370
    -1
  9
$ENDCAPS
280
     0
  9
$JOINSTYLE
280
     0
  9
$LWDISPLAY
290
     0
  9
$INSUNITS
 70
     0
  9
$HYPERLINKBASE
  1

  9
$STYLESHEET
  1

  9
$XEDIT
290
     1
  9
$CEPSNTYPE
380
     0
  9
$PSTYLEMODE
290
     1
  9
$FINGERPRINTGUID
  2
{B15B2C8B-FD03-4A4D-A33C-392B430577C7}
  9
$VERSIONGUID
  2
{95DADA2E-E7DB-49A9-B900-8FA6CB74F851}
  9
$EXTNAMES
290
     1
  9
$PSVPSCALE
 40
0.0
  9
$OLESTARTUP
290
     0
  0
ENDSEC
  0
SECTION
  2
CLASSES
  0
CLASS
  1
ACDBDICTIONARYWDFLT
  2
AcDbDictionaryWithDefault
  3
AutoCAD 2000
 90
        0
280
     0
281
     0
  0
CLASS
  1
ACDBPLACEHOLDER
  2
AcDbPlaceHolder
  3
AutoCAD 2000
 90
        0
280
     0
281
     0
  0
CLASS
  1
LAYOUT
  2
AcDbLayout
  3
AutoCAD 2000
 90
        0
280
     0
281
     0
  0
CLASS
  1
DICTIONARYVAR
  2
AcDbDictionaryVar
  3
AutoCAD 2000
 90
        0
280
     0
281
     0
  0
ENDSEC
  0
SECTION
  2
TABLES
  0
TABLE
  2
VPORT
  5
2368
330
0
100
AcDbSymbolTable
 70
     6
  0
VPORT
  5
29A4
330
2368
100
AcDbSymbolTableRecord
100
AcDbViewportTableRecord
  2
*Active
 70
     0
 10
0.0
 20
0.0
 11
1.0
 21
1.0
 12
515.6114186206951
 22
270.5753674997831
 13
0.0
 23
0.0
 14
2.5
 24
2.5
 15
10.0
 25
10.0
 16
0.0
 26
0.0
 36
1.0
 17
0.0
 27
0.0
 37
0.0
 40
669.2672660215966
 41
1.182835820895522
 42
50.0
 43
0.0
 44
0.0
 50
0.0
 51
0.0
 71
     0
 72
   100
 73
     1
 74
     3
 75
     0
 76
     0
 77
     0
 78
     0
281
     0
 65
     1
110
0.0
120
0.0
130
0.0
111
1.0
121
0.0
131
0.0
112
0.0
122
1.0
132
0.0
 79
     0
146
0.0
  0
ENDTAB
  0
TABLE
  2
LTYPE
  5
2365
330
0
100
AcDbSymbolTable
 70
     5
  0
LTYPE
  5
2373
330
2365
100
AcDbSymbolTableRecord
100
AcDbLinetypeTableRecord
  2
ByBlock
 70
     0
  3

 72
    65
 73
     0
 40
0.0
  0
LTYPE
  5
2374
330
2365
100
AcDbSymbolTableRecord
100
AcDbLinetypeTableRecord
  2
ByLayer
 70
     0
  3

 72
    65
 73
     0
 40
0.0
  0
LTYPE
  5
2375
330
2365
100
AcDbSymbolTableRecord
100
AcDbLinetypeTableRecord
  2
CONTINUOUS
 70
     0
  3
Solid line
 72
    65
 73
     0
 40
0.0
  0
LTYPE
  5
2384
330
2365
100
AcDbSymbolTableRecord
100
AcDbLinetypeTableRecord
  2
CENTER
 70
     0
  3
Center ____ _ ____ _ ____ _ ____ _ ____ _ ____
 72
    65
 73
     4
 40
50.8
 49
31.75
 74
     0
 49
-6.349999999999997
 74
     0
 49
6.349999999999997
 74
     0
 49
-6.349999999999997
 74
     0
  0
LTYPE
  5
2385
330
2365
100
AcDbSymbolTableRecord
100
AcDbLinetypeTableRecord
  2
DASHDOT
 70
     0
  3
__ . __ . __ .
 72
    65
 73
     4
 40
13.4496083444629
 49
6.724804172231452
 74
     0
 49
-3.362402086115726
 74
     0
 49
0.0
 74
     0
 49
-3.362402086115726
 74
     0
  0
LTYPE
  5
2386
330
2365
100
AcDbSymbolTableRecord
100
AcDbLinetypeTableRecord
  2
DIVIDE
 70
     0
  3
__ . . __ . . 
 72
    65
 73
     6
 40
16.81201043057863
 49
6.724804172231452
 74
     0
 49
-3.362402086115726
 74
     0
 49
0.0
 74
     0
 49
-3.362402086115726
 74
     0
 49
0.0
 74
     0
 49
-3.362402086115726
 74
     0
  0
LTYPE
  5
2387
330
2365
100
AcDbSymbolTableRecord
100
AcDbLinetypeTableRecord
  2
PHANTOM
 70
     0
  3
_____ _ _ _____ _ _ 
 72
    65
 73
     6
 40
33.62402086115726
 49
16.81201043057863
 74
     0
 49
-3.362402086115726
 74
     0
 49
3.362402086115726
 74
     0
 49
-3.362402086115726
 74
     0
 49
3.362402086115726
 74
     0
 49
-3.362402086115726
 74
     0
  0
ENDTAB
  0
TABLE
  2
LAYER
  5
2362
330
0
100
AcDbSymbolTable
 70
     4
  0
LAYER
  5
2370
330
2362
100
AcDbSymbolTableRecord
100
AcDbLayerTableRecord
  2
0
 70
     0
 62
     7
  6
CONTINUOUS
370
    -3
390
236F
  0
LAYER
  5
2382
330
2362
100
AcDbSymbolTableRecord
100
AcDbLayerTableRecord
  2
AM_0
 70
     0
 62
     7
  6
CONTINUOUS
370
    -3
390
236F
  0
LAYER
  5
2388
330
2362
100
AcDbSymbolTableRecord
100
AcDbLayerTableRecord
  2
1
 70
     0
 62
     7
  6
CONTINUOUS
370
    -3
390
236F
  0
LAYER
  5
26B3
330
2362
100
AcDbSymbolTableRecord
100
AcDbLayerTableRecord
  2
LAYER_1
 70
     0
 62
     5
  6
CONTINUOUS
370
    -3
390
236F
  0
ENDTAB
  0
TABLE
  2
STYLE
  5
2363
330
0
100
AcDbSymbolTable
 70
     1
  0
STYLE
  5
2371
330
2363
100
AcDbSymbolTableRecord
100
AcDbTextStyleTableRecord
  2
STANDARD
 70
     0
 40
0.0
 41
1.0
 50
0.0
 71
     0
 42
2.5
  3
ISOCP.SHX
  4

  0
ENDTAB
  0
TABLE
  2
VIEW
  5
2366
330
0
100
AcDbSymbolTable
 70
     0
  0
ENDTAB
  0
TABLE
  2
UCS
  5
2367
330
0
100
AcDbSymbolTable
 70
     0
  0
ENDTAB
  0
TABLE
  2
APPID
  5
2369
330
0
100
AcDbSymbolTable
 70
    13
  0
APPID
  5
2372
330
2369
100
AcDbSymbolTableRecord
100
AcDbRegAppTableRecord
  2
ACAD
 70
     0
  0
APPID
  5
2389
330
2369
100
AcDbSymbolTableRecord
100
AcDbRegAppTableRecord
  2
GENIUS_GENDIM_13
 70
     0
  0
APPID
  5
238A
330
2369
100
AcDbSymbolTableRecord
100
AcDbRegAppTableRecord
  2
GENIUS_GENDTOL_13
 70
     0
  0
APPID
  5
238B
330
2369
100
AcDbSymbolTableRecord
100
AcDbRegAppTableRecord
  2
GENIUS_GE3DTOL_13
 70
     0
  0
APPID
  5
238C
330
2369
100
AcDbSymbolTableRecord
100
AcDbRegAppTableRecord
  2
MCAD_NO_VIS
 70
     0
  0
APPID
  5
238D
330
2369
100
AcDbSymbolTableRecord
100
AcDbRegAppTableRecord
  2
ACAD_TEMP_GRAPHIC
 70
     0
  0
APPID
  5
238E
330
2369
100
AcDbSymbolTableRecord
100
AcDbRegAppTableRecord
  2
AD_DRAW
 70
     0
  0
APPID
  5
238F
330
2369
100
AcDbSymbolTableRecord
100
AcDbRegAppTableRecord
  2
ACATTRIBSERVICES
 70
     0
  0
APPID
  5
2390
330
2369
100
AcDbSymbolTableRecord
100
AcDbRegAppTableRecord
  2
ASURF_PCURVE_APPNAME
 70
     0
  0
APPID
  5
2391
330
2369
100
AcDbSymbolTableRecord
100
AcDbRegAppTableRecord
  2
DESIGNERASSEMBLIES
 70
     0
  0
APPID
  5
2392
330
2369
100
AcDbSymbolTableRecord
100
AcDbRegAppTableRecord
  2
ACADM_DIM_EDIT
 70
     0
  0
APPID
  5
2393
330
2369
100
AcDbSymbolTableRecord
100
AcDbRegAppTableRecord
  2
G3V_ENTHND
 70
     0
  0
APPID
  5
2394
330
2369
100
AcDbSymbolTableRecord
100
AcDbRegAppTableRecord
  2
GENIUS_GENDIMSH_14
 70
     0
  0
ENDTAB
  0
TABLE
  2
DIMSTYLE
  5
236A
330
0
100
AcDbSymbolTable
 70
     2
100
AcDbDimStyleTable
 71
     0
  0
DIMSTYLE
105
2395
330
236A
100
AcDbSymbolTableRecord
100
AcDbDimStyleTableRecord
  2
ISO-25
 70
     0
 41
2.5
 42
0.625
 43
3.75
 44
1.25
 73
     0
 74
     0
 77
     1
 78
     8
140
2.5
141
2.5
143
0.03937007874016
147
0.625
171
     3
172
     1
271
     2
272
     2
274
     3
279
     2
284
     8
285
     8
286
     8
340
2371
  0
DIMSTYLE
105
26B4
330
236A
100
AcDbSymbolTableRecord
100
AcDbDimStyleTableRecord
  2
Standard
 70
     0
340
2371
  0
ENDTAB
  0
TABLE
  2
BLOCK_RECORD
  5
2361
330
0
100
AcDbSymbolTable
 70
    28
  0
BLOCK_RECORD
  5
237E
330
2361
100
AcDbSymbolTableRecord
100
AcDbBlockTableRecord
  2
*Model_Space
340
2381
  0
BLOCK_RECORD
  5
237A
330
2361
100
AcDbSymbolTableRecord
100
AcDbBlockTableRecord
  2
*Paper_Space
340
237D
  0
BLOCK_RECORD
  5
2397
330
2361
100
AcDbSymbolTableRecord
100
AcDbBlockTableRecord
  2
$MODEL_SPACE
340
0
  0
BLOCK_RECORD
  5
239A
330
2361
100
AcDbSymbolTableRecord
100
AcDbBlockTableRecord
  2
$PAPER_SPACE
340
0
  0
BLOCK_RECORD
  5
2647
330
2361
100
AcDbSymbolTableRecord
100
AcDbBlockTableRecord
  2
AI9-BLK14
340
0
310
2800000020000000200000000100080000000000000400000000000000000000000000000000000000000000000080000080000000808000800000008000800080800000C0C0C000C0DCC000F0CAA6000020400000206000002080000020A0000020C0000020E00000400000004020000040400000406000004080000040A0
310
000040C0000040E00000600000006020000060400000606000006080000060A0000060C0000060E00000800000008020000080400000806000008080000080A0000080C0000080E00000A0000000A0200000A0400000A0600000A0800000A0A00000A0C00000A0E00000C0000000C0200000C0400000C0600000C0800000C0
310
A00000C0C00000C0E00000E0000000E0200000E0400000E0600000E0800000E0A00000E0C00000E0E00040000000400020004000400040006000400080004000A0004000C0004000E00040200000402020004020400040206000402080004020A0004020C0004020E000404000004040200040404000404060004040800040
310
40A0004040C0004040E00040600000406020004060400040606000406080004060A0004060C0004060E00040800000408020004080400040806000408080004080A0004080C0004080E00040A0000040A0200040A0400040A0600040A0800040A0A00040A0C00040A0E00040C0000040C0200040C0400040C0600040C08000
310
40C0A00040C0C00040C0E00040E0000040E0200040E0400040E0600040E0800040E0A00040E0C00040E0E00080000000800020008000400080006000800080008000A0008000C0008000E00080200000802020008020400080206000802080008020A0008020C0008020E00080400000804020008040400080406000804080
310
008040A0008040C0008040E00080600000806020008060400080606000806080008060A0008060C0008060E00080800000808020008080400080806000808080008080A0008080C0008080E00080A0000080A0200080A0400080A0600080A0800080A0A00080A0C00080A0E00080C0000080C0200080C0400080C0600080C0
310
800080C0A00080C0C00080C0E00080E0000080E0200080E0400080E0600080E0800080E0A00080E0C00080E0E000C0000000C0002000C0004000C0006000C0008000C000A000C000C000C000E000C0200000C0202000C0204000C0206000C0208000C020A000C020C000C020E000C0400000C0402000C0404000C0406000C0
310
408000C040A000C040C000C040E000C0600000C0602000C0604000C0606000C0608000C060A000C060C000C060E000C0800000C0802000C0804000C0806000C0808000C080A000C080C000C080E000C0A00000C0A02000C0A04000C0A06000C0A08000C0A0A000C0A0C000C0A0E000C0C00000C0C02000C0C04000C0C06000
310
C0C08000C0C0A000F0FBFF00A4A0A000808080000000FF0000FF000000FFFF00FF000000FF00FF00FFFF0000FFFFFF00FF00FFFFFFFF00FFFFFFFFFFFFFFFFFFFFFFFFFFFFFFFFFFFFFFFFFFFFFFFFFFFF00FFFFFFFF00FFFFFFFFFFFFFFFFFFFFFFFFFFFFFFFFFFFFFFFFFFFFFFFFFFFF00FFFFFFFF00FFFFFFFFFFFFFFFF
310
FFFFFFFFFFFFFFFFFFFFFFFFFFFFFFFFFFFF00FFFFFFFF00FFFFFFFFFFFFFFFFFFFFFFFFFFFFFFFFFFFFFFFFFFFFFFFFFFFF00FFFFFFFF00FFFFFFFFFFFFFFFFFFFFFFFFFFFFFFFFFFFFFFFFFFFFFFFFFFFF00FFFFFFFF00FFFFFFFFFFFFFFFFFFFFFFFFFFFFFFFFFFFFFFFFFFFFFFFFFFFF00FFFFFFFF00FFFFFFFFFFFFFF
310
FFFFFFFFFFFFFFFFFFFFFFFFFFFFFFFFFFFFFF00FFFFFFFF00FFFFFFFFFFFFFFFFFFFFFFFFFFFFFFFFFFFFFFFFFFFFFFFFFFFF00FFFFFFFF00FFFFFFFFFFFFFFFFFFFFFFFFFFFFFFFFFFFFFFFFFFFFFFFFFFFF00FFFFFFFF00FFFFFFFFFFFFFFFFFFFFFFFFFFFFFFFFFFFFFFFFFFFFFFFFFFFF00FFFFFFFF00FFFFFFFFFFFF
310
FFFFFFFFFFFFFFFFFFFFFFFFFFFFFFFFFFFFFFFF00FFFFFFFF00FFFFFFFFFFFFFFFFFFFFFFFFFFFFFFFFFFFFFFFFFFFFFFFFFFFF00FFFFFFFF00FFFFFFFFFFFFFFFFFFFFFFFFFFFFFFFFFFFFFFFFFFFFFFFFFFFF00FFFFFFFF0000000000000000000000000000000000000000000000000000FF00FFFFFFFFFFFFFFFFFFFF
310
FFFFFFFFFFFFFFFFFFFFFFFFFFFFFFFFFFFFFFFFFF00FFFFFFFFFFFFFFFFFFFFFFFFFFFFFFFFFFFFFFFFFFFFFFFFFFFFFFFFFFFFFF00FFFFFFFFFFFFFFFFFFFFFFFFFFFFFFFFFFFFFFFFFFFFFFFFFFFFFFFFFFFFFF00FFFFFFFFFFFFFFFFFFFFFFFFFFFFFFFFFFFFFFFFFFFFFFFFFFFFFFFFFF00FF00000000000000000000
310
0000000000000000000000000000000000000000FFFFFFFFFFFFFFFFFFFFFFFFFFFFFFFFFFFFFFFFFFFFFFFFFFFFFFFFFFFFFFFFFFFFFFFFFFFFFFFFFFFFFFFFFFFFFFFFFFFFFFFFFFFFFFFFFFFFFFFFFFFFFFFFFFFFFFFFFFFFFFFFFFFFFFFFFFFFFFFFFFFFFFFFFFFFFFFFFFFFFFFFFFFFFFFFFFFFFFFFFFFFFFFFFFFFFF
310
FFFFFFFFFFFFFFFFFFFFFFFFFFFFFFFFFFFFFFFFFFFFFFFFFFFFFFFFFFFFFFFFFFFFFFFFFFFFFFFFFFFFFFFFFFFFFFFFFFFFFFFFFFFFFFFFFFFFFFFFFFFFFFFFFFFFFFFFFFFFFFFFFFFFFFFFFFFFFFFFFFFFFFFFFFFFFFFFFFFFFFFFFFFFFFFFFFFFFFFFFFFFFFFFFFFFFFFFFFFFFFFFFFFFFFFFFFFFFFFFFFFFFFFFFFFFFF
310
FFFFFFFFFFFFFFFFFFFFFFFFFFFFFFFFFFFFFFFFFFFFFFFFFFFFFFFFFFFFFFFFFFFFFFFFFFFFFFFFFFFFFFFFFFFFFFFFFFFFFFFFFFFFFFFFFFFFFFFFFFFFFFFFFFFFFFFFFFFFFFFFFFFFFFFFFFFFFFFFFFFFFFFFFFFFFFFFFFFFFFFFFFFFFFFFFFFFFFFFFFFFFFFFFFFFFFFFFFFFFFFFFFFFFFFFFFFFFFFFFFFFFFFFFFFFFF
310
FFFFFFFFFFFFFFFFFFFFFFFFFFFFFFFFFFFFFFFFFFFFFFFFFFFFFFFFFFFFFFFFFFFFFFFFFFFFFFFFFFFFFFFFFFFFFFFFFFFFFFFFFFFFFFFF
102
{BLKREFS
331
2688
102
}
  0
BLOCK_RECORD
  5
264C
330
2361
100
AcDbSymbolTableRecord
100
AcDbBlockTableRecord
  2
AI9-BLK13
340
0
310
2800000020000000200000000100080000000000000400000000000000000000000000000000000000000000000080000080000000808000800000008000800080800000C0C0C000C0DCC000F0CAA6000020400000206000002080000020A0000020C0000020E00000400000004020000040400000406000004080000040A0
310
000040C0000040E00000600000006020000060400000606000006080000060A0000060C0000060E00000800000008020000080400000806000008080000080A0000080C0000080E00000A0000000A0200000A0400000A0600000A0800000A0A00000A0C00000A0E00000C0000000C0200000C0400000C0600000C0800000C0
310
A00000C0C00000C0E00000E0000000E0200000E0400000E0600000E0800000E0A00000E0C00000E0E00040000000400020004000400040006000400080004000A0004000C0004000E00040200000402020004020400040206000402080004020A0004020C0004020E000404000004040200040404000404060004040800040
310
40A0004040C0004040E00040600000406020004060400040606000406080004060A0004060C0004060E00040800000408020004080400040806000408080004080A0004080C0004080E00040A0000040A0200040A0400040A0600040A0800040A0A00040A0C00040A0E00040C0000040C0200040C0400040C0600040C08000
310
40C0A00040C0C00040C0E00040E0000040E0200040E0400040E0600040E0800040E0A00040E0C00040E0E00080000000800020008000400080006000800080008000A0008000C0008000E00080200000802020008020400080206000802080008020A0008020C0008020E00080400000804020008040400080406000804080
310
008040A0008040C0008040E00080600000806020008060400080606000806080008060A0008060C0008060E00080800000808020008080400080806000808080008080A0008080C0008080E00080A0000080A0200080A0400080A0600080A0800080A0A00080A0C00080A0E00080C0000080C0200080C0400080C0600080C0
310
800080C0A00080C0C00080C0E00080E0000080E0200080E0400080E0600080E0800080E0A00080E0C00080E0E000C0000000C0002000C0004000C0006000C0008000C000A000C000C000C000E000C0200000C0202000C0204000C0206000C0208000C020A000C020C000C020E000C0400000C0402000C0404000C0406000C0
310
408000C040A000C040C000C040E000C0600000C0602000C0604000C0606000C0608000C060A000C060C000C060E000C0800000C0802000C0804000C0806000C0808000C080A000C080C000C080E000C0A00000C0A02000C0A04000C0A06000C0A08000C0A0A000C0A0C000C0A0E000C0C00000C0C02000C0C04000C0C06000
310
C0C08000C0C0A000F0FBFF00A4A0A000808080000000FF0000FF000000FFFF00FF000000FF00FF00FFFF0000FFFFFF00FFFFFFFFFFFFFFFFFFFFFFFFFFFFFFFFFFFFFFFFFFFFFFFFFFFFFFFFFFFFFFFFFFFFFFFFFFFFFFFFFFFFFF0000FFFFFFFFFFFF0000FFFFFFFFFFFFFFFFFFFFFFFFFFFFFFFFFFFFFFFFFFFF0000FFFF
310
FFFFFFFF0000FFFFFFFFFFFFFFFFFFFFFFFFFFFFFFFFFFFFFFFFFFFF0000FFFFFFFFFFFF0000FFFFFFFFFFFFFFFFFFFFFFFFFFFFFFFFFFFFFFFFFFFF0000FFFFFFFFFFFF0000FFFFFFFFFFFFFFFFFFFFFFFFFFFFFFFFFFFFFFFFFFFF0000FFFFFFFFFFFF0000FFFFFFFFFFFFFFFFFFFFFFFFFFFFFFFFFFFFFFFFFFFF0000FF
310
FFFFFFFFFF0000FFFFFFFFFFFFFFFFFFFFFFFFFFFFFFFFFFFFFFFFFFFF0000FFFFFFFFFFFF0000FFFFFFFFFFFFFFFFFFFFFFFFFFFFFFFFFFFFFFFFFFFF0000FFFFFFFFFFFF0000FFFFFFFFFFFFFFFFFFFFFFFFFFFFFFFFFFFFFFFFFFFF0000FFFFFFFFFFFF0000FFFFFFFFFFFFFFFFFFFFFFFFFFFFFFFFFFFFFFFFFFFF0000
310
FFFFFFFFFFFF0000FFFFFFFFFFFFFFFFFFFFFFFFFFFFFFFFFFFFFFFFFFFF0000FFFFFFFFFFFF0000FFFFFFFFFFFFFFFFFFFFFFFFFFFFFFFFFFFFFFFFFFFF0000FFFFFFFFFFFF0000FFFFFFFFFFFFFFFFFFFFFFFFFFFFFFFFFFFFFFFFFFFF0000FFFFFFFFFFFF0000FFFFFFFFFFFFFFFFFFFFFFFFFFFFFFFFFFFFFFFFFFFF00
310
00FFFFFFFFFFFF0000FFFFFFFFFFFFFFFFFFFFFFFFFFFFFFFFFFFFFFFFFFFF00000000000000000000FFFFFFFFFFFFFFFFFFFFFFFFFFFFFFFFFFFFFFFFFFFF00FFFFFFFFFFFFFFFF00FFFFFFFFFFFFFFFFFFFFFFFFFFFFFFFFFFFFFFFFFFFF00FFFFFFFFFFFFFFFF00FFFFFFFFFFFFFFFFFFFFFFFFFFFFFFFFFFFFFFFFFFFF
310
00000000000000000000FFFFFFFFFFFFFFFFFFFFFFFFFFFFFFFFFFFFFFFFFFFF0000FFFFFFFFFFFF0000FFFFFFFFFFFFFFFFFFFFFFFFFFFFFFFFFFFFFFFFFFFF0000FFFFFFFFFFFF0000FFFFFFFFFFFFFFFFFFFFFFFFFFFFFFFFFFFFFFFFFFFF0000FFFFFFFFFFFF0000FFFFFFFFFFFFFFFFFFFFFFFFFFFFFFFFFFFFFFFFFF
310
FF0000FFFFFFFFFFFF0000FFFFFFFFFFFFFFFFFFFFFFFFFFFFFFFFFFFFFFFFFFFF0000FFFFFFFFFFFF0000FFFFFFFFFFFFFFFFFFFFFFFFFFFFFFFFFFFFFFFFFFFF0000FFFFFFFFFFFF0000FFFFFFFFFFFFFFFFFFFFFFFFFFFFFFFFFFFFFFFFFFFF0000FFFFFFFFFFFF0000FFFFFFFFFFFFFFFFFFFFFFFFFFFFFFFFFFFFFFFF
310
FFFF0000FFFFFFFFFFFF0000FFFFFFFFFFFFFFFFFFFFFFFFFFFFFFFFFFFFFFFFFFFF0000FFFFFFFFFFFF0000FFFFFFFFFFFFFFFFFFFFFFFFFFFFFFFFFFFFFFFFFFFF0000FFFFFFFFFFFF0000FFFFFFFFFFFFFFFFFFFFFFFFFFFFFFFFFFFFFFFFFFFF0000FFFFFFFFFFFF0000FFFFFFFFFFFFFFFFFFFFFFFFFFFFFFFFFFFFFF
310
FFFFFF0000FFFFFFFFFFFF0000FFFFFFFFFFFFFFFFFFFFFFFFFFFFFFFFFFFFFFFFFFFFFFFFFFFFFFFFFFFFFFFFFFFFFFFFFFFFFFFFFFFFFF
102
{BLKREFS
331
2689
102
}
  0
BLOCK_RECORD
  5
2651
330
2361
100
AcDbSymbolTableRecord
100
AcDbBlockTableRecord
  2
AI9-BLK11
340
0
310
2800000020000000200000000100080000000000000400000000000000000000000000000000000000000000000080000080000000808000800000008000800080800000C0C0C000C0DCC000F0CAA6000020400000206000002080000020A0000020C0000020E00000400000004020000040400000406000004080000040A0
310
000040C0000040E00000600000006020000060400000606000006080000060A0000060C0000060E00000800000008020000080400000806000008080000080A0000080C0000080E00000A0000000A0200000A0400000A0600000A0800000A0A00000A0C00000A0E00000C0000000C0200000C0400000C0600000C0800000C0
310
A00000C0C00000C0E00000E0000000E0200000E0400000E0600000E0800000E0A00000E0C00000E0E00040000000400020004000400040006000400080004000A0004000C0004000E00040200000402020004020400040206000402080004020A0004020C0004020E000404000004040200040404000404060004040800040
310
40A0004040C0004040E00040600000406020004060400040606000406080004060A0004060C0004060E00040800000408020004080400040806000408080004080A0004080C0004080E00040A0000040A0200040A0400040A0600040A0800040A0A00040A0C00040A0E00040C0000040C0200040C0400040C0600040C08000
310
40C0A00040C0C00040C0E00040E0000040E0200040E0400040E0600040E0800040E0A00040E0C00040E0E00080000000800020008000400080006000800080008000A0008000C0008000E00080200000802020008020400080206000802080008020A0008020C0008020E00080400000804020008040400080406000804080
310
008040A0008040C0008040E00080600000806020008060400080606000806080008060A0008060C0008060E00080800000808020008080400080806000808080008080A0008080C0008080E00080A0000080A0200080A0400080A0600080A0800080A0A00080A0C00080A0E00080C0000080C0200080C0400080C0600080C0
310
800080C0A00080C0C00080C0E00080E0000080E0200080E0400080E0600080E0800080E0A00080E0C00080E0E000C0000000C0002000C0004000C0006000C0008000C000A000C000C000C000E000C0200000C0202000C0204000C0206000C0208000C020A000C020C000C020E000C0400000C0402000C0404000C0406000C0
310
408000C040A000C040C000C040E000C0600000C0602000C0604000C0606000C0608000C060A000C060C000C060E000C0800000C0802000C0804000C0806000C0808000C080A000C080C000C080E000C0A00000C0A02000C0A04000C0A06000C0A08000C0A0A000C0A0C000C0A0E000C0C00000C0C02000C0C04000C0C06000
310
C0C08000C0C0A000F0FBFF00A4A0A000808080000000FF0000FF000000FFFF00FF000000FF00FF00FFFF0000FFFFFF00FFFFFFFFFFFFFFFFFFFFFFFFFFFFFFFFFFFFFFFFFFFFFFFFFFFFFFFFFFFFFFFFFFFFFFFFFFFFFFFFFFFFFFFFFFFF00000000FFFFFFFFFFFFFFFFFFFFFF000000FFFFFFFFFFFFFFFFFFFFFFFFFFFF00
310
FFFF00FFFFFFFFFFFFFFFFFFFFFF00FFFFFFFFFFFFFFFFFFFFFFFFFFFFFFFF00FFFF00FFFFFFFFFFFFFFFFFFFFFF00FFFFFFFFFFFFFFFFFFFFFFFFFFFFFFFF00FFFF00FFFFFFFFFFFFFFFFFFFFFF00FFFFFFFFFFFFFFFFFFFFFFFFFFFFFFFF00FFFF00FFFFFFFFFFFFFFFFFFFFFF00FFFFFFFFFFFFFFFFFFFFFFFFFFFFFFFF
310
00FFFF00FFFFFFFFFFFFFFFFFFFFFF00FFFFFFFFFFFFFFFFFFFFFFFFFFFFFFFF00FFFF00FFFFFFFFFFFFFFFFFFFFFF00FFFFFFFFFFFFFFFFFFFFFFFFFFFFFFFF00FFFF00FFFFFFFFFFFFFFFFFFFFFF00FFFFFFFFFFFFFFFFFFFFFFFFFFFFFFFF00FFFF00FFFFFFFFFFFFFFFFFFFFFF00FFFFFFFFFFFFFFFFFFFFFFFFFFFFFF
310
FF00FFFF00FFFFFFFFFFFFFFFFFFFFFF00FFFFFFFFFFFFFFFFFFFFFFFFFFFFFFFF00FFFF00FFFFFFFFFFFFFFFFFFFFFF00FFFFFFFFFFFFFFFFFFFFFFFFFFFFFFFF00FFFF00FFFFFFFFFFFFFFFFFFFFFF00FFFFFFFFFFFFFFFFFFFFFFFFFFFFFFFF00FFFF00FFFFFFFFFFFFFFFFFFFFFF00FFFFFFFFFFFFFFFFFFFFFFFFFFFF
310
FFFF00FFFF00FFFFFFFFFFFFFFFFFFFFFF00FFFFFFFFFFFFFFFFFFFFFFFFFFFFFFFF00FFFF00FFFFFFFFFFFFFFFFFFFFFF00FFFFFFFFFFFFFFFFFFFFFFFFFFFFFFFF00FFFF00FFFFFFFFFFFFFFFFFFFFFF00FFFFFFFFFFFFFFFFFFFFFFFFFFFFFFFF00FFFF00FFFFFFFFFFFFFFFFFFFF00FFFFFFFFFFFFFFFFFFFFFFFFFFFF
310
FFFFFF00FFFF00FFFFFFFFFFFFFFFFFFFF00FFFFFFFFFFFFFFFFFFFFFFFFFFFFFFFFFF00FFFF00FFFFFFFFFFFFFFFFFFFF00FFFFFFFFFFFFFFFFFFFFFFFFFFFFFFFFFF00FFFF00FFFFFFFFFFFFFFFFFFFF00FFFFFFFFFFFFFFFFFFFFFFFFFFFFFFFFFF00FFFF00FFFFFFFFFFFFFFFFFFFF00FFFFFFFFFFFFFFFFFFFFFFFFFF
310
FFFFFFFF00FFFF00FFFFFFFFFFFFFFFFFF0000FFFF00FFFFFFFFFFFFFFFFFFFFFFFFFFFF00FFFF00FFFFFFFFFFFFFFFF0000FFFFFF00FFFFFFFFFFFFFFFFFFFFFFFFFFFF00FFFF00000000000000000000FFFFFFFF00FFFFFFFFFFFFFFFFFFFFFFFFFFFF00FFFFFFFFFFFFFFFFFFFFFFFFFFFFFF00FFFFFFFFFFFFFFFFFFFF
310
FFFFFFFFFF00FFFFFFFFFFFFFFFFFFFFFFFFFFFF00FFFFFFFFFFFFFFFFFFFFFFFFFFFFFFFF00FFFFFFFFFFFFFFFFFFFFFFFFFFFF00FFFFFFFFFFFFFFFFFFFFFFFFFFFFFFFF00FFFFFFFFFFFFFFFFFFFFFFFFFFFFFF00FFFFFFFFFFFFFFFFFFFFFFFFFFFFFF00FFFFFFFFFFFFFFFFFFFFFFFFFFFFFF00FFFFFFFFFFFFFFFFFF
310
FFFFFFFFFFFF00FFFF00000000000000000000FFFFFFFF00FFFFFFFFFFFFFFFFFFFFFFFFFFFF00FFFF00FFFFFFFFFFFFFFFFFF0000FFFF00
102
{BLKREFS
331
268A
102
}
  0
BLOCK_RECORD
  5
2656
330
2361
100
AcDbSymbolTableRecord
100
AcDbBlockTableRecord
  2
AI9-BLK10
340
0
310
2800000020000000200000000100080000000000000400000000000000000000000000000000000000000000000080000080000000808000800000008000800080800000C0C0C000C0DCC000F0CAA6000020400000206000002080000020A0000020C0000020E00000400000004020000040400000406000004080000040A0
310
000040C0000040E00000600000006020000060400000606000006080000060A0000060C0000060E00000800000008020000080400000806000008080000080A0000080C0000080E00000A0000000A0200000A0400000A0600000A0800000A0A00000A0C00000A0E00000C0000000C0200000C0400000C0600000C0800000C0
310
A00000C0C00000C0E00000E0000000E0200000E0400000E0600000E0800000E0A00000E0C00000E0E00040000000400020004000400040006000400080004000A0004000C0004000E00040200000402020004020400040206000402080004020A0004020C0004020E000404000004040200040404000404060004040800040
310
40A0004040C0004040E00040600000406020004060400040606000406080004060A0004060C0004060E00040800000408020004080400040806000408080004080A0004080C0004080E00040A0000040A0200040A0400040A0600040A0800040A0A00040A0C00040A0E00040C0000040C0200040C0400040C0600040C08000
310
40C0A00040C0C00040C0E00040E0000040E0200040E0400040E0600040E0800040E0A00040E0C00040E0E00080000000800020008000400080006000800080008000A0008000C0008000E00080200000802020008020400080206000802080008020A0008020C0008020E00080400000804020008040400080406000804080
310
008040A0008040C0008040E00080600000806020008060400080606000806080008060A0008060C0008060E00080800000808020008080400080806000808080008080A0008080C0008080E00080A0000080A0200080A0400080A0600080A0800080A0A00080A0C00080A0E00080C0000080C0200080C0400080C0600080C0
310
800080C0A00080C0C00080C0E00080E0000080E0200080E0400080E0600080E0800080E0A00080E0C00080E0E000C0000000C0002000C0004000C0006000C0008000C000A000C000C000C000E000C0200000C0202000C0204000C0206000C0208000C020A000C020C000C020E000C0400000C0402000C0404000C0406000C0
310
408000C040A000C040C000C040E000C0600000C0602000C0604000C0606000C0608000C060A000C060C000C060E000C0800000C0802000C0804000C0806000C0808000C080A000C080C000C080E000C0A00000C0A02000C0A04000C0A06000C0A08000C0A0A000C0A0C000C0A0E000C0C00000C0C02000C0C04000C0C06000
310
C0C08000C0C0A000F0FBFF00A4A0A000808080000000FF0000FF000000FFFF00FF000000FF00FF00FFFF0000FFFFFF00FFFFFFFFFFFFFFFFFFFFFFFFFFFFFFFF00FFFFFFFFFFFFFFFFFFFFFFFF00FFFFFFFFFFFFFFFFFFFFFFFFFFFFFFFFFFFF00FFFFFFFFFFFFFFFFFFFFFF00FFFFFFFFFFFFFFFFFFFFFFFFFFFFFFFFFFFF
310
FF00FFFFFFFFFFFFFFFFFFFFFF00FFFFFFFFFFFFFFFFFFFFFFFFFFFFFFFFFFFFFF00FFFFFFFFFFFFFFFFFFFFFF00FFFFFFFFFFFFFFFFFFFFFFFFFFFFFFFFFFFFFF00FFFFFFFFFFFFFFFFFFFFFF00FFFFFFFFFFFFFFFFFFFFFFFFFFFFFFFFFFFFFF00FFFFFFFFFFFFFFFFFFFFFF00FFFFFFFFFFFFFFFFFFFFFFFFFFFFFFFFFF
310
FFFF00FFFFFFFFFFFFFFFFFFFFFF00FFFFFFFFFFFFFFFFFFFFFFFFFFFFFFFFFFFFFF00FFFFFFFFFFFFFFFFFFFF00FFFFFFFFFFFFFFFFFFFFFFFFFFFFFFFFFFFFFFFF00FFFFFFFFFFFFFFFFFFFF00FFFFFFFFFFFFFFFFFFFFFFFFFFFFFFFFFFFFFFFF00FFFFFFFFFFFFFFFFFFFF00FFFFFFFFFFFFFFFFFFFFFFFFFFFFFFFFFF
310
FFFFFF00FFFFFFFFFFFFFFFFFFFF00FFFFFFFFFFFFFFFFFFFFFFFFFFFFFFFFFFFFFFFF00FFFFFFFFFFFFFFFFFFFF00FFFFFFFFFFFFFFFFFFFFFFFFFFFFFFFFFFFFFFFF00FFFFFFFFFFFFFFFFFFFF00FFFFFFFFFFFFFFFFFFFFFFFFFFFFFFFFFFFFFFFF00FFFFFFFFFFFFFFFFFF00FFFFFFFFFFFFFFFFFFFFFFFFFFFFFFFFFF
310
FFFFFFFF00FFFFFFFFFFFFFFFFFF00FFFFFFFFFFFFFFFFFFFFFFFFFFFFFFFFFFFFFFFFFF00FFFFFFFFFFFFFFFFFF00FFFFFFFFFFFFFFFFFFFFFFFFFFFFFFFFFFFFFFFFFF0000000000000000000000FFFFFFFFFFFFFFFFFFFFFFFFFFFFFFFFFFFFFFFFFFFFFFFFFFFFFFFFFFFFFFFFFFFFFFFFFFFFFFFFFFFFFFFFFFFFFFFF
310
FFFFFFFFFFFFFFFFFFFFFFFFFFFFFFFFFFFFFFFFFFFFFFFFFFFFFFFFFFFFFFFFFFFFFFFFFFFFFFFFFFFFFFFFFFFFFFFFFFFFFFFFFFFFFFFFFFFFFFFFFFFFFFFFFFFFFFFFFFFFFFFFFFFFFFFFFFFFFFFFFFFFFFFFFFFFFFFFFFFFFFFFFFFFFFFFFFFFFFFFFFFFFFFFFFFFFFFFFFFFFFFFFFFFFFFFFFFFFFFFFFFFFFFFFFFFFF
310
FFFFFFFFFFFFFFFFFFFFFFFFFFFFFFFFFFFFFFFFFFFFFFFFFFFFFFFFFFFFFFFFFFFFFFFFFFFFFFFFFFFFFFFFFFFFFFFFFFFFFFFFFFFFFFFFFFFFFFFFFFFFFFFFFFFFFFFFFFFFFFFFFFFFFFFFFFFFFFFFFFFFFFFFFFFFFFFFFFFFFFFFFFFFFFFFFFFFFFFFFFFFFFFFFFFFFFFFFFFFFFFFFFFFFFFFFFFFFFFFFFFFFFFFFFFFFF
310
FFFFFFFFFFFFFFFFFFFFFFFFFFFFFFFFFFFFFFFFFFFFFFFFFFFFFFFFFFFFFFFFFFFFFFFFFFFFFFFFFFFFFFFFFFFFFFFFFFFFFFFFFFFFFFFFFFFFFFFFFFFFFFFFFFFFFFFFFFFFFFFFFFFFFFFFFFFFFFFFFFFFFFFFFFFFFFFFFFFFFFFFFFFFFFFFFFFFFFFFFFFFFFFFFFFFFFFFFFFFFFFFFFFFFFFFFFFFFFFFFFFFFFFFFFFFFF
310
FFFFFFFFFFFFFFFFFFFFFFFFFFFFFFFFFFFFFFFFFFFFFFFFFFFFFFFFFFFFFFFFFFFFFFFFFFFFFFFFFFFFFFFFFFFFFFFFFFFFFFFFFFFFFFFF
102
{BLKREFS
331
268B
102
}
  0
BLOCK_RECORD
  5
265A
330
2361
100
AcDbSymbolTableRecord
100
AcDbBlockTableRecord
  2
AI9-BLK9
340
0
310
2800000020000000200000000100080000000000000400000000000000000000000000000000000000000000000080000080000000808000800000008000800080800000C0C0C000C0DCC000F0CAA6000020400000206000002080000020A0000020C0000020E00000400000004020000040400000406000004080000040A0
310
000040C0000040E00000600000006020000060400000606000006080000060A0000060C0000060E00000800000008020000080400000806000008080000080A0000080C0000080E00000A0000000A0200000A0400000A0600000A0800000A0A00000A0C00000A0E00000C0000000C0200000C0400000C0600000C0800000C0
310
A00000C0C00000C0E00000E0000000E0200000E0400000E0600000E0800000E0A00000E0C00000E0E00040000000400020004000400040006000400080004000A0004000C0004000E00040200000402020004020400040206000402080004020A0004020C0004020E000404000004040200040404000404060004040800040
310
40A0004040C0004040E00040600000406020004060400040606000406080004060A0004060C0004060E00040800000408020004080400040806000408080004080A0004080C0004080E00040A0000040A0200040A0400040A0600040A0800040A0A00040A0C00040A0E00040C0000040C0200040C0400040C0600040C08000
310
40C0A00040C0C00040C0E00040E0000040E0200040E0400040E0600040E0800040E0A00040E0C00040E0E00080000000800020008000400080006000800080008000A0008000C0008000E00080200000802020008020400080206000802080008020A0008020C0008020E00080400000804020008040400080406000804080
310
008040A0008040C0008040E00080600000806020008060400080606000806080008060A0008060C0008060E00080800000808020008080400080806000808080008080A0008080C0008080E00080A0000080A0200080A0400080A0600080A0800080A0A00080A0C00080A0E00080C0000080C0200080C0400080C0600080C0
310
800080C0A00080C0C00080C0E00080E0000080E0200080E0400080E0600080E0800080E0A00080E0C00080E0E000C0000000C0002000C0004000C0006000C0008000C000A000C000C000C000E000C0200000C0202000C0204000C0206000C0208000C020A000C020C000C020E000C0400000C0402000C0404000C0406000C0
310
408000C040A000C040C000C040E000C0600000C0602000C0604000C0606000C0608000C060A000C060C000C060E000C0800000C0802000C0804000C0806000C0808000C080A000C080C000C080E000C0A00000C0A02000C0A04000C0A06000C0A08000C0A0A000C0A0C000C0A0E000C0C00000C0C02000C0C04000C0C06000
310
C0C08000C0C0A000F0FBFF00A4A0A000808080000000FF0000FF000000FFFF00FF000000FF00FF00FFFF0000FFFFFF00FFFFFFFFFFFFFFFFFFFFFFFFFFFFFFFFFFFFFFFFFFFFFFFFFFFFFFFFFFFFFFFFFFFFFFFFFFFFFFFFFFFFFFFFFFFFFF0000FFFFFFFFFFFFFFFFFFFFFFFFFFFFFFFFFFFFFFFFFFFFFFFFFFFFFFFF0000
310
FF0000FFFFFFFFFFFFFFFFFFFFFFFFFFFFFFFFFFFFFFFFFFFFFFFFFFFFFF00FFFFFF0000FFFFFFFFFFFFFFFFFFFFFFFFFFFFFFFFFFFFFFFFFFFFFFFFFFFF00FFFFFFFF0000FFFFFFFFFFFFFFFFFFFFFFFFFFFFFFFFFFFFFFFFFFFFFFFF00FF00000000FF00FFFFFFFFFFFFFFFFFFFFFFFFFFFFFFFFFFFFFFFFFFFFFFFF0000
310
00FFFF00FF00FFFFFFFFFFFFFFFFFFFFFFFFFFFFFFFFFFFFFFFFFFFFFFFF0000FFFFFFFF0000FFFFFFFFFFFFFFFFFFFFFFFFFFFFFFFFFFFFFFFFFFFFFFFF0000FFFFFFFF0000FFFFFFFFFFFFFFFFFFFFFFFFFFFFFFFFFFFFFFFFFFFFFF00FF00FFFFFFFF00FF00FFFFFFFFFFFFFFFFFFFFFFFFFFFFFFFFFFFFFFFFFFFF0000
310
FFFFFFFFFF00FF00FFFFFFFFFFFFFFFFFFFFFFFFFFFFFFFFFFFFFFFFFFFF0000FFFFFFFFFFFF0000FFFFFFFFFFFFFFFFFFFFFFFFFFFFFFFFFFFFFFFFFFFF0000FFFFFFFFFFFF0000FFFFFFFFFFFFFFFFFFFFFFFFFFFFFFFFFFFFFFFFFFFF0000FFFFFFFFFFFF0000FFFFFFFFFFFFFFFFFFFFFFFFFFFFFFFFFFFFFFFFFFFF00
310
00FFFFFFFFFFFF0000FFFFFFFFFFFFFFFFFFFFFFFFFFFFFFFFFFFFFFFFFFFF0000FFFFFFFFFFFF0000FFFFFFFFFFFFFFFFFFFFFFFFFFFFFFFFFFFFFFFFFFFF0000FFFFFFFFFFFF0000FFFFFFFFFFFFFFFFFFFFFFFFFFFFFFFFFFFFFFFFFFFF0000FFFFFFFFFFFF0000FFFFFFFFFFFFFFFFFFFFFFFFFFFFFFFFFFFFFFFFFFFF
310
0000FFFFFFFFFFFF0000FFFFFFFFFFFFFFFFFFFFFFFFFFFFFFFFFFFFFFFFFFFF0000FFFFFFFFFFFF0000FFFFFFFFFFFFFFFFFFFFFFFFFFFFFFFFFFFFFFFFFFFF0000FFFFFFFFFFFF0000FFFFFFFFFFFFFFFFFFFFFFFFFFFFFFFFFFFFFFFFFFFF00FF00FFFFFFFF00FF00FFFFFFFFFFFFFFFFFFFFFFFFFFFFFFFFFFFFFFFFFF
310
FF00FF00FFFFFFFF00FF00FFFFFFFFFFFFFFFFFFFFFFFFFFFFFFFFFFFFFFFFFFFF00FF00FFFFFFFF00FF00FFFFFFFFFFFFFFFFFFFFFFFFFFFFFFFFFFFFFFFFFFFFFF0000FFFFFFFF0000FFFFFFFFFFFFFFFFFFFFFFFFFFFFFFFFFFFFFFFFFFFFFFFF00FF00FFFF00FF00FFFFFFFFFFFFFFFFFFFFFFFFFFFFFFFFFFFFFFFFFF
310
FFFFFF00FF00000000FF00FFFFFFFFFFFFFFFFFFFFFFFFFFFFFFFFFFFFFFFFFFFFFFFFFF00FFFFFFFF0000FFFFFFFFFFFFFFFFFFFFFFFFFFFFFFFFFFFFFFFFFFFFFFFFFF00FFFFFFFF00FFFFFFFFFFFFFFFFFFFFFFFFFFFFFFFFFFFFFFFFFFFFFFFFFFFFFF00000000FFFFFFFFFFFFFFFFFFFFFFFFFFFFFFFFFFFFFFFFFFFF
310
FFFFFFFFFFFFFF0000FFFFFFFFFFFFFFFFFFFFFFFFFFFFFFFFFFFFFFFFFFFFFFFFFFFFFFFFFFFFFFFFFFFFFFFFFFFFFFFFFFFFFFFFFFFFFF
102
{BLKREFS
331
268C
102
}
  0
BLOCK_RECORD
  5
265F
330
2361
100
AcDbSymbolTableRecord
100
AcDbBlockTableRecord
  2
AI9-BLK8
340
0
310
2800000020000000200000000100080000000000000400000000000000000000000000000000000000000000000080000080000000808000800000008000800080800000C0C0C000C0DCC000F0CAA6000020400000206000002080000020A0000020C0000020E00000400000004020000040400000406000004080000040A0
310
000040C0000040E00000600000006020000060400000606000006080000060A0000060C0000060E00000800000008020000080400000806000008080000080A0000080C0000080E00000A0000000A0200000A0400000A0600000A0800000A0A00000A0C00000A0E00000C0000000C0200000C0400000C0600000C0800000C0
310
A00000C0C00000C0E00000E0000000E0200000E0400000E0600000E0800000E0A00000E0C00000E0E00040000000400020004000400040006000400080004000A0004000C0004000E00040200000402020004020400040206000402080004020A0004020C0004020E000404000004040200040404000404060004040800040
310
40A0004040C0004040E00040600000406020004060400040606000406080004060A0004060C0004060E00040800000408020004080400040806000408080004080A0004080C0004080E00040A0000040A0200040A0400040A0600040A0800040A0A00040A0C00040A0E00040C0000040C0200040C0400040C0600040C08000
310
40C0A00040C0C00040C0E00040E0000040E0200040E0400040E0600040E0800040E0A00040E0C00040E0E00080000000800020008000400080006000800080008000A0008000C0008000E00080200000802020008020400080206000802080008020A0008020C0008020E00080400000804020008040400080406000804080
310
008040A0008040C0008040E00080600000806020008060400080606000806080008060A0008060C0008060E00080800000808020008080400080806000808080008080A0008080C0008080E00080A0000080A0200080A0400080A0600080A0800080A0A00080A0C00080A0E00080C0000080C0200080C0400080C0600080C0
310
800080C0A00080C0C00080C0E00080E0000080E0200080E0400080E0600080E0800080E0A00080E0C00080E0E000C0000000C0002000C0004000C0006000C0008000C000A000C000C000C000E000C0200000C0202000C0204000C0206000C0208000C020A000C020C000C020E000C0400000C0402000C0404000C0406000C0
310
408000C040A000C040C000C040E000C0600000C0602000C0604000C0606000C0608000C060A000C060C000C060E000C0800000C0802000C0804000C0806000C0808000C080A000C080C000C080E000C0A00000C0A02000C0A04000C0A06000C0A08000C0A0A000C0A0C000C0A0E000C0C00000C0C02000C0C04000C0C06000
310
C0C08000C0C0A000F0FBFF00A4A0A000808080000000FF0000FF000000FFFF00FF000000FF00FF00FFFF0000FFFFFF00FFFFFFFFFFFFFFFFFFFFFFFFFFFFFFFFFFFFFFFFFFFFFFFFFFFFFFFFFFFFFFFFFFFFFFFFFFFFFFFFFFFFFF0000FFFFFFFFFFFF0000FFFFFFFFFFFFFFFFFFFFFFFFFFFFFFFFFFFFFFFFFFFF0000FFFF
310
FFFFFFFF0000FFFFFFFFFFFFFFFFFFFFFFFFFFFFFFFFFFFFFFFFFFFF0000FFFFFFFFFF00FF00FFFFFFFFFFFFFFFFFFFFFFFFFFFFFFFFFFFFFFFFFFFF0000FFFFFFFFFF00FF00FFFFFFFFFFFFFFFFFFFFFFFFFFFFFFFFFFFFFFFFFFFF0000FFFFFFFFFF00FF00FFFFFFFFFFFFFFFFFFFFFFFFFFFFFFFFFFFFFFFFFFFF0000FF
310
FFFFFF00FFFF00FFFFFFFFFFFFFFFFFFFFFFFFFFFFFFFFFFFFFFFFFFFF0000FFFFFFFF00FF0000FFFFFFFFFFFFFFFFFFFFFFFFFFFFFFFFFFFFFFFFFFFF0000FFFFFFFF00FF0000FFFFFFFFFFFFFFFFFFFFFFFFFFFFFFFFFFFFFFFFFFFF0000FFFFFFFF00000000FFFFFFFFFFFFFFFFFFFFFFFFFFFFFFFFFFFFFFFFFFFF0000
310
FFFFFF00FF000000FFFFFFFFFFFFFFFFFFFFFFFFFFFFFFFFFFFFFFFFFFFF0000FFFFFF00FF000000FFFFFFFFFFFFFFFFFFFFFFFFFFFFFFFFFFFFFFFFFFFF0000FFFFFF00FF000000FFFFFFFFFFFFFFFFFFFFFFFFFFFFFFFFFFFFFFFFFFFF0000FFFF00FF00FF0000FFFFFFFFFFFFFFFFFFFFFFFFFFFFFFFFFFFFFFFFFFFF00
310
00FFFF00FF00FF0000FFFFFFFFFFFFFFFFFFFFFFFFFFFFFFFFFFFFFFFFFFFF0000FFFF00FF00FF0000FFFFFFFFFFFFFFFFFFFFFFFFFFFFFFFFFFFFFFFFFFFF0000FF00FFFF00FF0000FFFFFFFFFFFFFFFFFFFFFFFFFFFFFFFFFFFFFFFFFFFF0000FF00FF00FFFF0000FFFFFFFFFFFFFFFFFFFFFFFFFFFFFFFFFFFFFFFFFFFF
310
0000FF00FF00FFFF0000FFFFFFFFFFFFFFFFFFFFFFFFFFFFFFFFFFFFFFFFFFFF0000FF00FF00FFFF0000FFFFFFFFFFFFFFFFFFFFFFFFFFFFFFFFFFFFFFFFFFFF000000FFFF00FFFF0000FFFFFFFFFFFFFFFFFFFFFFFFFFFFFFFFFFFFFFFFFFFF000000FF00FFFFFF0000FFFFFFFFFFFFFFFFFFFFFFFFFFFFFFFFFFFFFFFFFF
310
FF000000FF00FFFFFF0000FFFFFFFFFFFFFFFFFFFFFFFFFFFFFFFFFFFFFFFFFFFF0000FFFF00FFFFFF0000FFFFFFFFFFFFFFFFFFFFFFFFFFFFFFFFFFFFFFFFFFFF0000FFFF00FFFFFF0000FFFFFFFFFFFFFFFFFFFFFFFFFFFFFFFFFFFFFFFFFFFF00FFFF00FFFFFFFF0000FFFFFFFFFFFFFFFFFFFFFFFFFFFFFFFFFFFFFFFF
310
FFFF00FFFF00FFFFFFFF0000FFFFFFFFFFFFFFFFFFFFFFFFFFFFFFFFFFFFFFFFFFFF00FFFF00FFFFFFFF0000FFFFFFFFFFFFFFFFFFFFFFFFFFFFFFFFFFFFFFFFFFFF00FFFF00FFFFFFFF0000FFFFFFFFFFFFFFFFFFFFFFFFFFFFFFFFFFFFFFFFFFFF00FF00FFFFFFFFFF0000FFFFFFFFFFFFFFFFFFFFFFFFFFFFFFFFFFFFFF
310
FFFFFF000000FFFFFFFFFF0000FFFFFFFFFFFFFFFFFFFFFFFFFFFFFFFFFFFFFFFFFFFFFFFFFFFFFFFFFFFFFFFFFFFFFFFFFFFFFFFFFFFFFF
102
{BLKREFS
331
268D
102
}
  0
BLOCK_RECORD
  5
2664
330
2361
100
AcDbSymbolTableRecord
100
AcDbBlockTableRecord
  2
AI9-BLK7
340
0
310
2800000020000000200000000100080000000000000400000000000000000000000000000000000000000000000080000080000000808000800000008000800080800000C0C0C000C0DCC000F0CAA6000020400000206000002080000020A0000020C0000020E00000400000004020000040400000406000004080000040A0
310
000040C0000040E00000600000006020000060400000606000006080000060A0000060C0000060E00000800000008020000080400000806000008080000080A0000080C0000080E00000A0000000A0200000A0400000A0600000A0800000A0A00000A0C00000A0E00000C0000000C0200000C0400000C0600000C0800000C0
310
A00000C0C00000C0E00000E0000000E0200000E0400000E0600000E0800000E0A00000E0C00000E0E00040000000400020004000400040006000400080004000A0004000C0004000E00040200000402020004020400040206000402080004020A0004020C0004020E000404000004040200040404000404060004040800040
310
40A0004040C0004040E00040600000406020004060400040606000406080004060A0004060C0004060E00040800000408020004080400040806000408080004080A0004080C0004080E00040A0000040A0200040A0400040A0600040A0800040A0A00040A0C00040A0E00040C0000040C0200040C0400040C0600040C08000
310
40C0A00040C0C00040C0E00040E0000040E0200040E0400040E0600040E0800040E0A00040E0C00040E0E00080000000800020008000400080006000800080008000A0008000C0008000E00080200000802020008020400080206000802080008020A0008020C0008020E00080400000804020008040400080406000804080
310
008040A0008040C0008040E00080600000806020008060400080606000806080008060A0008060C0008060E00080800000808020008080400080806000808080008080A0008080C0008080E00080A0000080A0200080A0400080A0600080A0800080A0A00080A0C00080A0E00080C0000080C0200080C0400080C0600080C0
310
800080C0A00080C0C00080C0E00080E0000080E0200080E0400080E0600080E0800080E0A00080E0C00080E0E000C0000000C0002000C0004000C0006000C0008000C000A000C000C000C000E000C0200000C0202000C0204000C0206000C0208000C020A000C020C000C020E000C0400000C0402000C0404000C0406000C0
310
408000C040A000C040C000C040E000C0600000C0602000C0604000C0606000C0608000C060A000C060C000C060E000C0800000C0802000C0804000C0806000C0808000C080A000C080C000C080E000C0A00000C0A02000C0A04000C0A06000C0A08000C0A0A000C0A0C000C0A0E000C0C00000C0C02000C0C04000C0C06000
310
C0C08000C0C0A000F0FBFF00A4A0A000808080000000FF0000FF000000FFFF00FF000000FF00FF00FFFF0000FFFFFF00FFFFFFFFFFFFFFFFFFFFFFFFFFFFFFFFFFFFFFFFFFFFFFFFFFFFFFFFFFFFFFFFFFFFFFFFFFFFFFFFFFFFFFFFFFFFFF0000FFFFFFFFFFFFFFFFFFFFFFFFFFFFFFFFFFFFFFFFFFFFFFFFFFFFFFFFFFFF
310
0000FFFFFFFFFFFFFFFFFFFFFFFFFFFFFFFFFFFFFFFFFFFFFFFFFFFFFFFFFFFF0000FFFFFFFFFFFFFFFFFFFFFFFFFFFFFFFFFFFFFFFFFFFFFFFFFFFFFFFFFFFF0000FFFFFFFFFFFFFFFFFFFFFFFFFFFFFFFFFFFFFFFFFFFFFFFFFFFFFFFFFFFF0000FFFFFFFFFFFFFFFFFFFFFFFFFFFFFFFFFFFFFFFFFFFFFFFFFFFFFFFFFF
310
FF0000FFFFFFFFFFFFFFFFFFFFFFFFFFFFFFFFFFFFFFFFFFFFFFFFFFFFFFFFFFFF0000FFFFFFFFFFFFFFFFFFFFFFFFFFFFFFFFFFFFFFFFFFFFFFFFFFFFFFFFFFFF0000FFFFFFFFFFFFFFFFFFFFFFFFFFFFFFFFFFFFFFFFFFFFFFFFFFFFFFFFFFFF0000FFFFFFFFFFFFFFFFFFFFFFFFFFFFFFFFFFFFFFFFFFFFFFFFFFFFFFFF
310
FFFF0000FFFFFFFFFFFFFFFFFFFFFFFFFFFFFFFFFFFFFFFFFFFFFFFFFFFFFFFFFFFF0000FFFFFFFFFFFFFFFFFFFFFFFFFFFFFFFFFFFFFFFFFFFFFFFFFFFFFFFFFFFF0000FFFFFFFFFFFFFFFFFFFFFFFFFFFFFFFFFFFFFFFFFFFFFFFFFFFFFFFFFFFF0000FFFFFFFFFFFFFFFFFFFFFFFFFFFFFFFFFFFFFFFFFFFFFFFFFFFFFF
310
FFFFFF0000FFFFFFFFFFFFFFFFFFFFFFFFFFFFFFFFFFFFFFFFFFFFFFFFFFFFFFFFFFFF0000FFFFFFFFFFFFFFFFFFFFFFFFFFFFFFFFFFFFFFFFFFFFFFFFFFFFFFFFFFFF0000FFFFFFFFFFFFFFFFFFFFFFFFFFFFFFFFFFFFFFFFFFFFFFFFFFFFFFFFFFFF0000FFFFFFFFFFFFFFFFFFFFFFFFFFFFFFFFFFFFFFFFFFFFFFFFFFFF
310
FFFFFFFF0000FFFFFFFFFFFFFFFFFFFFFFFFFFFFFFFFFFFFFFFFFFFFFFFFFFFFFFFFFFFF0000FFFFFFFFFFFFFFFFFFFFFFFFFFFFFFFFFFFFFFFFFFFFFFFFFFFFFFFFFFFF0000FFFFFFFFFFFFFFFFFFFFFFFFFFFFFFFFFFFFFFFFFFFFFFFFFFFFFFFFFFFF0000FFFFFFFFFFFFFFFFFFFFFFFFFFFFFFFFFFFFFFFFFFFFFFFFFF
310
FFFFFFFFFF0000FFFFFFFFFFFFFFFFFFFFFFFFFFFFFFFFFFFFFFFFFFFFFFFFFFFFFFFFFFFF0000FFFFFFFFFFFFFFFFFFFFFFFFFFFFFFFFFFFFFFFFFFFFFFFFFFFFFFFFFFFF0000FFFFFFFFFFFFFFFFFFFFFFFFFFFFFFFFFFFFFFFFFFFFFFFFFFFFFFFFFFFF0000FFFFFFFFFFFFFFFFFFFFFFFFFFFFFFFFFFFFFFFFFFFFFFFF
310
FFFFFFFFFFFF0000FFFFFFFFFFFFFFFFFFFFFFFFFFFFFFFFFFFFFFFFFFFFFFFFFFFFFFFFFFFF0000FFFFFFFFFFFFFFFFFFFFFFFFFFFFFFFFFFFFFFFFFFFFFFFFFFFFFFFFFFFF0000FFFFFFFFFFFFFFFFFFFFFFFFFFFFFFFFFFFFFFFFFFFFFFFFFFFFFFFFFFFF0000FFFFFFFFFFFFFFFFFFFFFFFFFFFFFFFFFFFFFFFFFFFFFF
310
FFFFFFFFFFFFFF0000FFFFFFFFFFFFFFFFFFFFFFFFFFFFFFFFFFFFFFFFFFFFFFFFFFFFFFFFFFFFFFFFFFFFFFFFFFFFFFFFFFFFFFFFFFFFFF
102
{BLKREFS
331
268E
102
}
  0
BLOCK_RECORD
  5
2669
330
2361
100
AcDbSymbolTableRecord
100
AcDbBlockTableRecord
  2
AI9-BLK6
340
0
310
2800000020000000200000000100080000000000000400000000000000000000000000000000000000000000000080000080000000808000800000008000800080800000C0C0C000C0DCC000F0CAA6000020400000206000002080000020A0000020C0000020E00000400000004020000040400000406000004080000040A0
310
000040C0000040E00000600000006020000060400000606000006080000060A0000060C0000060E00000800000008020000080400000806000008080000080A0000080C0000080E00000A0000000A0200000A0400000A0600000A0800000A0A00000A0C00000A0E00000C0000000C0200000C0400000C0600000C0800000C0
310
A00000C0C00000C0E00000E0000000E0200000E0400000E0600000E0800000E0A00000E0C00000E0E00040000000400020004000400040006000400080004000A0004000C0004000E00040200000402020004020400040206000402080004020A0004020C0004020E000404000004040200040404000404060004040800040
310
40A0004040C0004040E00040600000406020004060400040606000406080004060A0004060C0004060E00040800000408020004080400040806000408080004080A0004080C0004080E00040A0000040A0200040A0400040A0600040A0800040A0A00040A0C00040A0E00040C0000040C0200040C0400040C0600040C08000
310
40C0A00040C0C00040C0E00040E0000040E0200040E0400040E0600040E0800040E0A00040E0C00040E0E00080000000800020008000400080006000800080008000A0008000C0008000E00080200000802020008020400080206000802080008020A0008020C0008020E00080400000804020008040400080406000804080
310
008040A0008040C0008040E00080600000806020008060400080606000806080008060A0008060C0008060E00080800000808020008080400080806000808080008080A0008080C0008080E00080A0000080A0200080A0400080A0600080A0800080A0A00080A0C00080A0E00080C0000080C0200080C0400080C0600080C0
310
800080C0A00080C0C00080C0E00080E0000080E0200080E0400080E0600080E0800080E0A00080E0C00080E0E000C0000000C0002000C0004000C0006000C0008000C000A000C000C000C000E000C0200000C0202000C0204000C0206000C0208000C020A000C020C000C020E000C0400000C0402000C0404000C0406000C0
310
408000C040A000C040C000C040E000C0600000C0602000C0604000C0606000C0608000C060A000C060C000C060E000C0800000C0802000C0804000C0806000C0808000C080A000C080C000C080E000C0A00000C0A02000C0A04000C0A06000C0A08000C0A0A000C0A0C000C0A0E000C0C00000C0C02000C0C04000C0C06000
310
C0C08000C0C0A000F0FBFF00A4A0A000808080000000FF0000FF000000FFFF00FF000000FF00FF00FFFF0000FFFFFF00FFFFFFFFFFFFFFFFFFFFFFFF00FFFFFFFFFFFFFF00FFFFFFFFFFFFFFFFFFFFFFFFFFFFFFFFFFFFFFFFFFFFFF00FFFFFFFFFFFFFF00FFFFFFFFFFFFFFFFFFFFFFFFFFFFFFFFFFFFFFFFFFFFFF00FFFF
310
FFFFFFFFFF00FFFFFFFFFFFFFFFFFFFFFFFFFFFFFFFFFFFFFFFFFFFF00FFFFFFFFFFFFFFFF00FFFFFFFFFFFFFFFFFFFFFFFFFFFFFFFFFFFFFFFFFFFF00FFFFFFFFFFFFFF00FFFFFFFFFFFFFFFFFFFFFFFFFFFFFFFFFFFFFFFFFFFFFF00FFFFFFFFFFFFFF00FFFFFFFFFFFFFFFFFFFFFFFFFFFFFFFFFFFFFFFFFFFF00FFFFFF
310
FFFFFFFFFF00FFFFFFFFFFFFFFFFFFFFFFFFFFFFFFFFFFFFFFFFFFFF00FFFFFFFFFFFFFF00FFFFFFFFFFFFFFFFFFFFFFFFFFFFFFFFFFFFFFFFFFFF00FFFFFFFFFFFFFFFF00FFFFFFFFFFFFFFFFFFFFFFFFFFFFFFFFFFFFFFFFFF00FFFFFFFFFFFFFFFFFF00FFFFFFFFFFFFFFFFFFFFFFFFFFFFFFFFFFFFFFFF00FFFFFFFFFF
310
FFFFFFFFFF00FFFFFFFFFFFFFFFFFFFFFFFFFFFFFFFFFFFFFF00FFFFFFFFFFFFFFFFFFFF00FFFFFFFFFFFFFFFFFFFFFFFFFFFFFFFFFFFF0000FFFFFFFFFFFFFFFFFFFFFF00FFFFFFFFFFFFFFFFFFFFFFFFFFFF00000000FFFFFFFFFFFFFFFFFFFFFFFFFF00FFFFFFFFFFFFFFFFFFFFFFFFFFFFFFFFFFFFFFFFFFFFFFFFFFFF
310
FFFFFFFF00FFFFFFFFFFFFFFFFFFFFFFFFFFFFFFFFFFFFFFFFFFFFFFFFFFFFFFFFFFFFFF00FFFFFFFFFFFFFFFFFFFFFFFFFFFFFFFFFFFFFFFFFFFFFFFFFFFFFFFFFFFFFF00FFFFFFFFFFFFFFFFFFFFFFFFFFFFFFFFFFFFFFFFFFFFFFFFFFFFFFFFFFFF00FFFFFFFFFFFFFFFFFFFFFFFFFFFFFFFFFFFFFFFFFFFFFFFFFFFFFF
310
FFFFFFFF00FFFFFFFFFFFFFFFFFFFFFFFFFFFFFFFFFFFFFFFFFFFFFFFFFFFFFFFFFFFF00FFFFFFFFFFFFFFFFFFFFFFFFFFFFFFFFFFFFFFFFFFFFFFFFFFFFFFFFFFFF00FFFFFFFFFFFFFFFFFFFFFFFFFFFFFFFFFFFFFFFFFFFFFFFFFFFFFFFFFFFF00FFFFFFFFFFFFFFFFFFFFFFFFFFFFFFFFFFFFFFFFFFFFFFFFFFFFFFFFFF
310
FF00FFFFFFFFFFFFFFFFFFFFFFFFFFFFFFFFFFFFFFFFFFFFFFFFFFFFFFFFFFFFFF00FFFFFFFFFFFFFFFFFFFFFFFFFFFFFFFFFFFFFFFFFFFFFFFFFFFFFFFFFFFF00FFFFFFFFFFFFFFFFFFFFFFFFFFFFFFFFFFFFFFFFFFFFFFFFFFFFFFFFFF0000FFFFFFFFFFFFFFFFFFFFFFFFFFFFFFFFFFFFFFFFFFFFFFFFFFFFFFFF0000FF
310
FFFFFFFFFFFFFFFFFFFFFFFFFFFFFFFFFFFFFFFFFFFFFFFFFF00000000FFFFFFFFFFFFFFFFFFFFFFFFFFFFFFFFFFFFFFFFFFFFFFFFFFFF0000FFFFFFFFFFFFFFFFFFFFFFFFFFFFFFFFFFFFFFFFFFFFFFFFFFFFFFFFFFFFFFFFFFFFFFFFFFFFFFFFFFFFFFFFFFFFFFFFFFFFFFFFFFFFFFFFFFFFFFFFFFFFFFFFFFFFFFFFFFFF
310
FFFFFFFFFFFFFFFFFFFFFFFFFFFFFFFFFFFFFFFFFFFFFFFFFFFFFFFFFFFFFFFFFFFFFFFFFFFFFFFFFFFFFFFFFFFFFFFFFFFFFFFFFFFFFFFF
102
{BLKREFS
331
268F
102
}
  0
BLOCK_RECORD
  5
266D
330
2361
100
AcDbSymbolTableRecord
100
AcDbBlockTableRecord
  2
AI9-BLK5
340
0
310
2800000020000000200000000100080000000000000400000000000000000000000000000000000000000000000080000080000000808000800000008000800080800000C0C0C000C0DCC000F0CAA6000020400000206000002080000020A0000020C0000020E00000400000004020000040400000406000004080000040A0
310
000040C0000040E00000600000006020000060400000606000006080000060A0000060C0000060E00000800000008020000080400000806000008080000080A0000080C0000080E00000A0000000A0200000A0400000A0600000A0800000A0A00000A0C00000A0E00000C0000000C0200000C0400000C0600000C0800000C0
310
A00000C0C00000C0E00000E0000000E0200000E0400000E0600000E0800000E0A00000E0C00000E0E00040000000400020004000400040006000400080004000A0004000C0004000E00040200000402020004020400040206000402080004020A0004020C0004020E000404000004040200040404000404060004040800040
310
40A0004040C0004040E00040600000406020004060400040606000406080004060A0004060C0004060E00040800000408020004080400040806000408080004080A0004080C0004080E00040A0000040A0200040A0400040A0600040A0800040A0A00040A0C00040A0E00040C0000040C0200040C0400040C0600040C08000
310
40C0A00040C0C00040C0E00040E0000040E0200040E0400040E0600040E0800040E0A00040E0C00040E0E00080000000800020008000400080006000800080008000A0008000C0008000E00080200000802020008020400080206000802080008020A0008020C0008020E00080400000804020008040400080406000804080
310
008040A0008040C0008040E00080600000806020008060400080606000806080008060A0008060C0008060E00080800000808020008080400080806000808080008080A0008080C0008080E00080A0000080A0200080A0400080A0600080A0800080A0A00080A0C00080A0E00080C0000080C0200080C0400080C0600080C0
310
800080C0A00080C0C00080C0E00080E0000080E0200080E0400080E0600080E0800080E0A00080E0C00080E0E000C0000000C0002000C0004000C0006000C0008000C000A000C000C000C000E000C0200000C0202000C0204000C0206000C0208000C020A000C020C000C020E000C0400000C0402000C0404000C0406000C0
310
408000C040A000C040C000C040E000C0600000C0602000C0604000C0606000C0608000C060A000C060C000C060E000C0800000C0802000C0804000C0806000C0808000C080A000C080C000C080E000C0A00000C0A02000C0A04000C0A06000C0A08000C0A0A000C0A0C000C0A0E000C0C00000C0C02000C0C04000C0C06000
310
C0C08000C0C0A000F0FBFF00A4A0A000808080000000FF0000FF000000FFFF00FF000000FF00FF00FFFF0000FFFFFF00FFFFFFFFFFFFFFFFFFFFFFFFFFFFFFFFFFFFFFFFFFFFFFFFFFFFFFFFFFFFFFFFFFFFFFFFFFFFFFFF000000000000000000000000000000000000000000000000FFFFFFFFFFFFFFFF00FFFFFFFFFFFF
310
FFFFFFFFFFFFFFFFFFFFFFFFFFFFFFFFFFFFFFFFFFFFFFFFFF00FFFFFFFFFFFFFFFFFFFFFFFFFFFFFFFFFFFFFFFFFFFFFFFFFFFFFFFFFFFFFF00FFFFFFFFFFFFFFFFFFFFFFFFFFFFFFFFFFFFFFFFFFFFFFFFFFFFFFFFFFFFFF00FFFFFFFFFFFFFFFFFFFFFFFFFFFFFFFFFFFFFFFFFFFFFFFFFFFFFFFFFFFFFF00FFFFFFFFFF
310
FFFFFFFFFFFFFFFFFFFFFFFFFFFFFFFFFFFFFFFFFFFFFFFFFFFF00FFFFFFFFFFFFFFFFFFFFFFFFFFFFFFFFFFFFFFFFFFFFFFFFFFFFFFFFFFFFFF00FFFFFFFFFFFFFFFFFFFFFFFFFFFFFFFFFFFFFFFFFFFFFFFFFFFFFFFFFFFFFF00FFFFFFFFFFFFFFFFFFFFFFFFFFFFFFFFFFFFFFFFFFFFFFFFFFFFFFFFFFFFFF00FFFFFFFF
310
FFFFFFFFFFFFFFFFFFFFFFFFFFFFFFFFFFFFFFFFFFFFFFFFFFFFFF00FFFFFFFFFFFFFFFFFFFFFFFFFFFFFFFFFFFFFFFFFFFFFFFFFFFFFFFFFFFFFF00FFFFFFFFFFFFFFFFFFFFFFFFFFFFFFFFFFFFFFFFFFFFFFFFFFFFFFFFFFFFFF00FFFFFFFFFFFFFFFFFFFFFFFFFFFFFFFFFFFFFFFFFFFFFFFFFFFFFFFFFFFFFF00FFFFFF
310
FFFFFFFFFFFFFFFFFFFFFFFFFFFFFFFFFFFFFFFFFFFFFFFFFFFFFFFF00FFFFFFFFFFFFFFFFFFFFFFFFFFFFFFFFFFFFFFFFFFFFFFFFFFFFFFFFFFFFFF00FFFFFFFFFFFFFFFFFFFFFFFFFFFFFFFFFFFFFFFFFFFFFFFFFFFFFFFFFFFFFF00FFFFFFFFFFFFFFFFFFFFFFFFFFFFFFFFFFFFFFFFFFFFFFFFFFFFFFFFFFFFFF00FFFF
310
FFFFFFFFFFFFFFFFFFFFFFFFFFFFFFFFFFFFFFFFFFFFFFFFFFFFFFFFFF00FFFFFFFFFFFFFFFFFFFFFFFFFFFFFFFFFFFFFFFFFFFFFFFFFFFFFFFFFFFFFF00FFFFFFFFFFFFFFFFFFFFFFFFFFFFFFFFFFFFFFFFFFFFFFFFFFFFFFFFFFFFFF00FFFFFFFFFFFFFFFFFFFFFFFFFFFFFFFFFFFFFFFFFFFFFFFFFFFFFFFFFFFFFF00FF
310
FFFFFFFFFFFFFFFFFFFFFFFFFFFFFFFFFFFFFFFFFFFFFFFFFFFFFFFFFFFF00FFFFFFFFFFFFFFFFFFFFFFFFFFFFFFFFFFFFFFFFFFFFFFFFFFFFFFFFFFFFFF00FFFFFFFFFFFFFFFFFFFFFFFFFFFFFFFFFFFFFFFFFFFFFFFFFFFFFFFFFFFFFF00FFFFFFFFFFFFFFFFFFFFFFFFFFFFFFFFFFFFFFFFFFFFFFFFFFFFFFFFFFFFFF00
310
FFFFFFFFFFFFFFFFFFFFFFFFFFFFFFFFFFFFFFFFFFFFFFFFFFFFFFFFFFFFFF00FFFFFFFFFFFFFFFFFFFFFFFFFFFFFFFFFFFFFFFFFFFFFFFFFFFFFFFFFFFFFF00FFFFFFFFFFFFFFFFFFFFFFFFFFFFFFFFFFFFFFFFFFFFFFFFFFFFFFFFFFFFFF00FFFFFFFFFFFFFFFFFFFFFFFFFFFFFFFFFFFFFFFFFFFFFFFFFFFFFFFFFFFFFF
310
00FFFFFFFFFFFFFFFFFFFFFFFFFFFF000000000000000000FFFFFFFFFFFFFFFF00FFFFFFFFFFFFFFFFFFFFFFFFFFFF00FFFFFFFFFFFFFFFF
102
{BLKREFS
331
2690
102
}
  0
BLOCK_RECORD
  5
2672
330
2361
100
AcDbSymbolTableRecord
100
AcDbBlockTableRecord
  2
AI9-BLK4
340
0
310
2800000020000000200000000100080000000000000400000000000000000000000000000000000000000000000080000080000000808000800000008000800080800000C0C0C000C0DCC000F0CAA6000020400000206000002080000020A0000020C0000020E00000400000004020000040400000406000004080000040A0
310
000040C0000040E00000600000006020000060400000606000006080000060A0000060C0000060E00000800000008020000080400000806000008080000080A0000080C0000080E00000A0000000A0200000A0400000A0600000A0800000A0A00000A0C00000A0E00000C0000000C0200000C0400000C0600000C0800000C0
310
A00000C0C00000C0E00000E0000000E0200000E0400000E0600000E0800000E0A00000E0C00000E0E00040000000400020004000400040006000400080004000A0004000C0004000E00040200000402020004020400040206000402080004020A0004020C0004020E000404000004040200040404000404060004040800040
310
40A0004040C0004040E00040600000406020004060400040606000406080004060A0004060C0004060E00040800000408020004080400040806000408080004080A0004080C0004080E00040A0000040A0200040A0400040A0600040A0800040A0A00040A0C00040A0E00040C0000040C0200040C0400040C0600040C08000
310
40C0A00040C0C00040C0E00040E0000040E0200040E0400040E0600040E0800040E0A00040E0C00040E0E00080000000800020008000400080006000800080008000A0008000C0008000E00080200000802020008020400080206000802080008020A0008020C0008020E00080400000804020008040400080406000804080
310
008040A0008040C0008040E00080600000806020008060400080606000806080008060A0008060C0008060E00080800000808020008080400080806000808080008080A0008080C0008080E00080A0000080A0200080A0400080A0600080A0800080A0A00080A0C00080A0E00080C0000080C0200080C0400080C0600080C0
310
800080C0A00080C0C00080C0E00080E0000080E0200080E0400080E0600080E0800080E0A00080E0C00080E0E000C0000000C0002000C0004000C0006000C0008000C000A000C000C000C000E000C0200000C0202000C0204000C0206000C0208000C020A000C020C000C020E000C0400000C0402000C0404000C0406000C0
310
408000C040A000C040C000C040E000C0600000C0602000C0604000C0606000C0608000C060A000C060C000C060E000C0800000C0802000C0804000C0806000C0808000C080A000C080C000C080E000C0A00000C0A02000C0A04000C0A06000C0A08000C0A0A000C0A0C000C0A0E000C0C00000C0C02000C0C04000C0C06000
310
C0C08000C0C0A000F0FBFF00A4A0A000808080000000FF0000FF000000FFFF00FF000000FF00FF00FFFF0000FFFFFF00FFFFFFFFFFFFFFFFFFFFFFFFFFFFFFFFFFFFFFFFFFFFFFFFFFFFFFFFFFFFFFFFFFFFFFFFFFFFFFFFFFFFFFFFFFFF00000000FFFFFFFFFFFFFFFFFFFFFF000000FFFFFFFFFFFFFFFFFFFFFFFFFFFF00
310
FFFF00FFFFFFFFFFFFFFFFFFFFFF00FFFFFFFFFFFFFFFFFFFFFFFFFFFFFFFF00FFFF00FFFFFFFFFFFFFFFFFFFFFF00FFFFFFFFFFFFFFFFFFFFFFFFFFFFFFFF00FFFF00FFFFFFFFFFFFFFFFFFFFFF00FFFFFFFFFFFFFFFFFFFFFFFFFFFFFFFF00FFFF00FFFFFFFFFFFFFFFFFFFFFF00FFFFFFFFFFFFFFFFFFFFFFFFFFFFFFFF
310
00FFFF00FFFFFFFFFFFFFFFFFFFFFF00FFFFFFFFFFFFFFFFFFFFFFFFFFFFFFFF00FFFF00FFFFFFFFFFFFFFFFFFFFFF00FFFFFFFFFFFFFFFFFFFFFFFFFFFFFFFF00FFFF00FFFFFFFFFFFFFFFFFFFFFF00FFFFFFFFFFFFFFFFFFFFFFFFFFFFFFFF00FFFF00FFFFFFFFFFFFFFFFFFFFFF00FFFFFFFFFFFFFFFFFFFFFFFFFFFFFF
310
FF00FFFF00FFFFFFFFFFFFFFFFFFFFFF00FFFFFFFFFFFFFFFFFFFFFFFFFFFFFFFF00FFFF00FFFFFFFFFFFFFFFFFFFFFF00FFFFFFFFFFFFFFFFFFFFFFFFFFFFFFFF00FFFF00FFFFFFFFFFFFFFFFFFFFFF00FFFFFFFFFFFFFFFFFFFFFFFFFFFFFFFF00FFFF00FFFFFFFFFFFFFFFFFFFFFF00FFFFFFFFFFFFFFFFFFFFFFFFFFFF
310
FFFF00FFFF00FFFFFFFFFFFFFFFFFFFFFF00FFFFFFFFFFFFFFFFFFFFFFFFFFFFFFFF00FFFF00FFFFFFFFFFFFFFFFFFFFFF00FFFFFFFFFFFFFFFFFFFFFFFFFFFFFFFF00FFFF00FFFFFFFFFFFFFFFFFFFFFF00FFFFFFFFFFFFFFFFFFFFFFFFFFFFFFFF00FFFF00FFFFFFFFFFFFFFFFFFFF00FFFFFFFFFFFFFFFFFFFFFFFFFFFF
310
FFFFFF00FFFF00FFFFFFFFFFFFFFFFFFFF00FFFFFFFFFFFFFFFFFFFFFFFFFFFFFFFFFF00FFFF00FFFFFFFFFFFFFFFFFFFF00FFFFFFFFFFFFFFFFFFFFFFFFFFFFFFFFFF00FFFF00FFFFFFFFFFFFFFFFFFFF00FFFFFFFFFFFFFFFFFFFFFFFFFFFFFFFFFF00FFFF00FFFFFFFFFFFFFFFFFFFF00FFFFFFFFFFFFFFFFFFFFFFFFFF
310
FFFFFFFF00FFFF00FFFFFFFFFFFFFFFFFF0000FFFF00FFFFFFFFFFFFFFFFFFFFFFFFFFFF00FFFF00FFFFFFFFFFFFFFFF0000FFFFFF00FFFFFFFFFFFFFFFFFFFFFFFFFFFF00FFFF00000000000000000000FFFFFFFF00FFFFFFFFFFFFFFFFFFFFFFFFFFFF00FFFFFFFFFFFFFFFFFFFFFFFFFFFFFF00FFFFFFFFFFFFFFFFFFFF
310
FFFFFFFFFF00FFFFFFFFFFFFFFFFFFFFFFFFFFFF00FFFFFFFFFFFFFFFFFFFFFFFFFFFFFFFF00FFFFFFFFFFFFFFFFFFFFFFFFFFFF00FFFFFFFFFFFFFFFFFFFFFFFFFFFFFFFF00FFFFFFFFFFFFFFFFFFFFFFFFFFFFFF00FFFFFFFFFFFFFFFFFFFFFFFFFFFFFF00FFFFFFFFFFFFFFFFFFFFFFFFFFFFFF00FFFFFFFFFFFFFFFFFF
310
FFFFFFFFFFFF00FFFF00000000000000000000FFFFFFFF00FFFFFFFFFFFFFFFFFFFFFFFFFFFF00FFFF00FFFFFFFFFFFFFFFFFF0000FFFF00
102
{BLKREFS
331
2691
102
}
  0
BLOCK_RECORD
  5
2677
330
2361
100
AcDbSymbolTableRecord
100
AcDbBlockTableRecord
  2
AI9-BLK3
340
0
310
2800000020000000200000000100080000000000000400000000000000000000000000000000000000000000000080000080000000808000800000008000800080800000C0C0C000C0DCC000F0CAA6000020400000206000002080000020A0000020C0000020E00000400000004020000040400000406000004080000040A0
310
000040C0000040E00000600000006020000060400000606000006080000060A0000060C0000060E00000800000008020000080400000806000008080000080A0000080C0000080E00000A0000000A0200000A0400000A0600000A0800000A0A00000A0C00000A0E00000C0000000C0200000C0400000C0600000C0800000C0
310
A00000C0C00000C0E00000E0000000E0200000E0400000E0600000E0800000E0A00000E0C00000E0E00040000000400020004000400040006000400080004000A0004000C0004000E00040200000402020004020400040206000402080004020A0004020C0004020E000404000004040200040404000404060004040800040
310
40A0004040C0004040E00040600000406020004060400040606000406080004060A0004060C0004060E00040800000408020004080400040806000408080004080A0004080C0004080E00040A0000040A0200040A0400040A0600040A0800040A0A00040A0C00040A0E00040C0000040C0200040C0400040C0600040C08000
310
40C0A00040C0C00040C0E00040E0000040E0200040E0400040E0600040E0800040E0A00040E0C00040E0E00080000000800020008000400080006000800080008000A0008000C0008000E00080200000802020008020400080206000802080008020A0008020C0008020E00080400000804020008040400080406000804080
310
008040A0008040C0008040E00080600000806020008060400080606000806080008060A0008060C0008060E00080800000808020008080400080806000808080008080A0008080C0008080E00080A0000080A0200080A0400080A0600080A0800080A0A00080A0C00080A0E00080C0000080C0200080C0400080C0600080C0
310
800080C0A00080C0C00080C0E00080E0000080E0200080E0400080E0600080E0800080E0A00080E0C00080E0E000C0000000C0002000C0004000C0006000C0008000C000A000C000C000C000E000C0200000C0202000C0204000C0206000C0208000C020A000C020C000C020E000C0400000C0402000C0404000C0406000C0
310
408000C040A000C040C000C040E000C0600000C0602000C0604000C0606000C0608000C060A000C060C000C060E000C0800000C0802000C0804000C0806000C0808000C080A000C080C000C080E000C0A00000C0A02000C0A04000C0A06000C0A08000C0A0A000C0A0C000C0A0E000C0C00000C0C02000C0C04000C0C06000
310
C0C08000C0C0A000F0FBFF00A4A0A000808080000000FF0000FF000000FFFF00FF000000FF00FF00FFFF0000FFFFFF00FFFFFFFFFFFFFFFFFFFFFFFFFFFFFFFFFFFFFFFFFFFFFFFFFFFFFFFFFFFFFFFFFFFFFFFFFFFFFFFFFFFFFFFFFFFFFF0000FFFFFFFFFFFFFFFFFFFFFFFFFFFFFFFFFFFFFFFFFFFFFFFFFFFFFFFFFFFF
310
0000FFFFFFFFFFFFFFFFFFFFFFFFFFFFFFFFFFFFFFFFFFFFFFFFFFFFFFFFFFFF0000FFFFFFFFFFFFFFFFFFFFFFFFFFFFFFFFFFFFFFFFFFFFFFFFFFFFFFFFFFFF0000FFFFFFFFFFFFFFFFFFFFFFFFFFFFFFFFFFFFFFFFFFFFFFFFFFFFFFFFFFFF0000FFFFFFFFFFFFFFFFFFFFFFFFFFFFFFFFFFFFFFFFFFFFFFFFFFFFFFFFFF
310
FF0000FFFFFFFFFFFFFFFFFFFFFFFFFFFFFFFFFFFFFFFFFFFFFFFFFFFFFFFFFFFF0000FFFFFFFFFFFFFFFFFFFFFFFFFFFFFFFFFFFFFFFFFFFFFFFFFFFFFFFFFFFF0000FFFFFFFFFFFFFFFFFFFFFFFFFFFFFFFFFFFFFFFFFFFFFFFFFFFFFFFFFFFF0000FFFFFFFFFFFFFFFFFFFFFFFFFFFFFFFFFFFFFFFFFFFFFFFFFFFFFFFF
310
FFFF0000FFFFFFFFFFFFFFFFFFFFFFFFFFFFFFFFFFFFFFFFFFFFFFFFFFFFFFFFFFFF0000FFFFFFFFFFFFFFFFFFFFFFFFFFFFFFFFFFFFFFFFFFFFFFFFFFFFFFFFFFFF0000FFFFFFFFFFFFFFFFFFFFFFFFFFFFFFFFFFFFFFFFFFFFFFFFFFFFFFFFFFFF0000FFFFFFFFFFFFFFFFFFFFFFFFFFFFFFFFFFFFFFFFFFFFFFFFFFFFFF
310
FFFFFF0000FFFFFFFFFFFFFFFFFFFFFFFFFFFFFFFFFFFFFFFFFFFFFFFFFFFFFFFFFFFF0000FFFFFFFFFFFFFFFFFFFFFFFFFFFFFFFFFFFFFFFFFFFFFFFFFFFFFFFFFFFF0000FFFFFFFFFFFFFFFFFFFFFFFFFFFFFFFFFFFFFFFFFFFFFFFFFFFFFFFFFFFF0000FFFFFFFFFFFFFFFFFFFFFFFFFFFFFFFFFFFFFFFFFFFFFFFFFFFF
310
FFFFFFFF0000FFFFFFFFFFFFFFFFFFFFFFFFFFFFFFFFFFFFFFFFFFFFFFFFFFFFFFFFFFFF0000FFFFFFFFFFFFFFFFFFFFFFFFFFFFFFFFFFFFFFFFFFFFFFFFFFFFFFFFFFFF0000FFFFFFFFFFFFFFFFFFFFFFFFFFFFFFFFFFFFFFFFFFFFFFFFFFFFFFFFFFFF0000FFFFFFFFFFFFFFFFFFFFFFFFFFFFFFFFFFFFFFFFFFFFFFFFFF
310
FFFFFFFFFF0000FFFFFFFFFFFFFFFFFFFFFFFFFFFFFFFFFFFFFFFFFFFFFFFFFFFFFFFFFFFF0000FFFFFFFFFFFFFFFFFFFFFFFFFFFFFFFFFFFFFFFFFFFFFFFFFFFFFFFFFFFF0000FFFFFFFFFFFFFFFFFFFFFFFFFFFFFFFFFFFFFFFFFFFFFFFFFFFFFFFFFFFF0000FFFFFFFFFFFFFFFFFFFFFFFFFFFFFFFFFFFFFFFFFFFFFFFF
310
FFFFFFFFFFFF0000FFFFFFFFFFFFFFFFFFFFFFFFFFFFFFFFFFFFFFFFFFFFFFFFFFFFFFFFFFFF0000FFFFFFFFFFFFFFFFFFFFFFFFFFFFFFFFFFFFFFFFFFFFFFFFFFFFFFFFFFFF0000FFFFFFFFFFFFFFFFFFFFFFFFFFFFFFFFFFFFFFFFFFFFFFFFFFFFFFFFFFFF0000FFFFFFFFFFFFFFFFFFFFFFFFFFFFFFFFFFFFFFFFFFFFFF
310
FFFFFFFFFFFFFF0000FFFFFFFFFFFFFFFFFFFFFFFFFFFFFFFFFFFFFFFFFFFFFFFFFFFFFFFFFFFFFFFFFFFFFFFFFFFFFFFFFFFFFFFFFFFFFF
102
{BLKREFS
331
2692
102
}
  0
BLOCK_RECORD
  5
267C
330
2361
100
AcDbSymbolTableRecord
100
AcDbBlockTableRecord
  2
AI9-BLK2
340
0
310
2800000020000000200000000100080000000000000400000000000000000000000000000000000000000000000080000080000000808000800000008000800080800000C0C0C000C0DCC000F0CAA6000020400000206000002080000020A0000020C0000020E00000400000004020000040400000406000004080000040A0
310
000040C0000040E00000600000006020000060400000606000006080000060A0000060C0000060E00000800000008020000080400000806000008080000080A0000080C0000080E00000A0000000A0200000A0400000A0600000A0800000A0A00000A0C00000A0E00000C0000000C0200000C0400000C0600000C0800000C0
310
A00000C0C00000C0E00000E0000000E0200000E0400000E0600000E0800000E0A00000E0C00000E0E00040000000400020004000400040006000400080004000A0004000C0004000E00040200000402020004020400040206000402080004020A0004020C0004020E000404000004040200040404000404060004040800040
310
40A0004040C0004040E00040600000406020004060400040606000406080004060A0004060C0004060E00040800000408020004080400040806000408080004080A0004080C0004080E00040A0000040A0200040A0400040A0600040A0800040A0A00040A0C00040A0E00040C0000040C0200040C0400040C0600040C08000
310
40C0A00040C0C00040C0E00040E0000040E0200040E0400040E0600040E0800040E0A00040E0C00040E0E00080000000800020008000400080006000800080008000A0008000C0008000E00080200000802020008020400080206000802080008020A0008020C0008020E00080400000804020008040400080406000804080
310
008040A0008040C0008040E00080600000806020008060400080606000806080008060A0008060C0008060E00080800000808020008080400080806000808080008080A0008080C0008080E00080A0000080A0200080A0400080A0600080A0800080A0A00080A0C00080A0E00080C0000080C0200080C0400080C0600080C0
310
800080C0A00080C0C00080C0E00080E0000080E0200080E0400080E0600080E0800080E0A00080E0C00080E0E000C0000000C0002000C0004000C0006000C0008000C000A000C000C000C000E000C0200000C0202000C0204000C0206000C0208000C020A000C020C000C020E000C0400000C0402000C0404000C0406000C0
310
408000C040A000C040C000C040E000C0600000C0602000C0604000C0606000C0608000C060A000C060C000C060E000C0800000C0802000C0804000C0806000C0808000C080A000C080C000C080E000C0A00000C0A02000C0A04000C0A06000C0A08000C0A0A000C0A0C000C0A0E000C0C00000C0C02000C0C04000C0C06000
310
C0C08000C0C0A000F0FBFF00A4A0A000808080000000FF0000FF000000FFFF00FF000000FF00FF00FFFF0000FFFFFF00FFFFFFFFFFFFFFFFFFFFFFFFFFFFFFFFFFFFFFFFFFFFFFFFFFFFFFFFFFFFFFFFFFFFFFFFFFFFFFFFFFFFFFFFFFFFFF0000FFFFFFFFFFFFFFFFFFFFFFFFFFFFFFFFFFFFFFFFFFFFFFFFFFFFFFFFFFFF
310
0000FFFFFFFFFFFFFFFFFFFFFFFFFFFFFFFFFFFFFFFFFFFFFFFFFFFFFFFFFFFF0000FFFFFFFFFFFFFFFFFFFFFFFFFFFFFFFFFFFFFFFFFFFFFFFFFFFFFFFFFF00FFFF00FFFFFFFFFFFFFFFFFFFFFFFFFFFFFFFFFFFFFFFFFFFFFFFFFFFFFFFF00FFFF00FFFFFFFFFFFFFFFFFFFFFFFFFFFFFFFFFFFFFFFFFFFFFFFFFFFFFFFF
310
00FF0000FFFFFFFFFFFFFFFFFFFFFFFFFFFFFFFFFFFFFFFFFFFFFFFFFFFFFFFF00FF0000FFFFFFFFFFFFFFFFFFFFFFFFFFFFFFFFFFFFFFFFFFFFFFFFFFFFFFFF00FF0000FFFFFFFFFFFFFFFFFFFFFFFFFFFFFFFFFFFFFFFFFFFFFFFFFFFFFFFF00000000FFFFFFFFFFFFFFFFFFFFFFFFFFFFFFFFFFFFFFFFFFFFFFFFFFFFFF
310
00FF00FF0000FFFFFFFFFFFFFFFFFFFFFFFFFFFFFFFFFFFFFFFFFFFFFFFFFFFF00FF00FF0000FFFFFFFFFFFFFFFFFFFFFFFFFFFFFFFFFFFFFFFFFFFFFFFFFFFF00FF00FF0000FFFFFFFFFFFFFFFFFFFFFFFFFFFFFFFFFFFFFFFFFFFFFFFFFFFF00FF00FF0000FFFFFFFFFFFFFFFFFFFFFFFFFFFFFFFFFFFFFFFFFFFFFFFFFF
310
FF00FF00FF0000FFFFFFFFFFFFFFFFFFFFFFFFFFFFFFFFFFFFFFFFFFFFFFFFFFFF0000FFFF0000FFFFFFFFFFFFFFFFFFFFFFFFFFFFFFFFFFFFFFFFFFFFFFFFFF00FF00FFFF00FF00FFFFFFFFFFFFFFFFFFFFFFFFFFFFFFFFFFFFFFFFFFFFFFFF00FF00FFFF00FF00FFFFFFFFFFFFFFFFFFFFFFFFFFFFFFFFFFFFFFFFFFFFFF
310
FF00FF00FFFFFF0000FFFFFFFFFFFFFFFFFFFFFFFFFFFFFFFFFFFFFFFFFFFFFFFF00FF00FFFFFF0000FFFFFFFFFFFFFFFFFFFFFFFFFFFFFFFFFFFFFFFFFFFFFFFF00FF00FFFFFF0000FFFFFFFFFFFFFFFFFFFFFFFFFFFFFFFFFFFFFFFFFFFFFFFF0000FFFFFFFF0000FFFFFFFFFFFFFFFFFFFFFFFFFFFFFFFFFFFFFFFFFFFF
310
FF00FF00FFFFFFFF00FF00FFFFFFFFFFFFFFFFFFFFFFFFFFFFFFFFFFFFFFFFFFFF00FF00FFFFFFFF00FF00FFFFFFFFFFFFFFFFFFFFFFFFFFFFFFFFFFFFFFFFFFFF00FF00FFFFFFFF00FF00FFFFFFFFFFFFFFFFFFFFFFFFFFFFFFFFFFFFFFFFFFFF00FF00FFFFFFFF00FF00FFFFFFFFFFFFFFFFFFFFFFFFFFFFFFFFFFFFFFFF
310
FFFF00FF00FFFFFFFFFF0000FFFFFFFFFFFFFFFFFFFFFFFFFFFFFFFFFFFFFFFFFFFF0000FFFFFFFFFFFF0000FFFFFFFFFFFFFFFFFFFFFFFFFFFFFFFFFFFFFFFFFF00FF00FFFFFFFFFFFF00FF00FFFFFFFFFFFFFFFFFFFFFFFFFFFFFFFFFFFFFFFF00FF00FFFFFFFFFFFF00FF00FFFFFFFFFFFFFFFFFFFFFFFFFFFFFFFFFFFF
310
FFFF000000FFFFFFFFFFFF000000FFFFFFFFFFFFFFFFFFFFFFFFFFFFFFFFFFFFFFFFFFFFFFFFFFFFFFFFFFFFFFFFFFFFFFFFFFFFFFFFFFFF
102
{BLKREFS
331
2693
102
}
  0
BLOCK_RECORD
  5
2681
330
2361
100
AcDbSymbolTableRecord
100
AcDbBlockTableRecord
  2
AI9-BLK1
340
0
310
2800000020000000200000000100080000000000000400000000000000000000000000000000000000000000000080000080000000808000800000008000800080800000C0C0C000C0DCC000F0CAA6000020400000206000002080000020A0000020C0000020E00000400000004020000040400000406000004080000040A0
310
000040C0000040E00000600000006020000060400000606000006080000060A0000060C0000060E00000800000008020000080400000806000008080000080A0000080C0000080E00000A0000000A0200000A0400000A0600000A0800000A0A00000A0C00000A0E00000C0000000C0200000C0400000C0600000C0800000C0
310
A00000C0C00000C0E00000E0000000E0200000E0400000E0600000E0800000E0A00000E0C00000E0E00040000000400020004000400040006000400080004000A0004000C0004000E00040200000402020004020400040206000402080004020A0004020C0004020E000404000004040200040404000404060004040800040
310
40A0004040C0004040E00040600000406020004060400040606000406080004060A0004060C0004060E00040800000408020004080400040806000408080004080A0004080C0004080E00040A0000040A0200040A0400040A0600040A0800040A0A00040A0C00040A0E00040C0000040C0200040C0400040C0600040C08000
310
40C0A00040C0C00040C0E00040E0000040E0200040E0400040E0600040E0800040E0A00040E0C00040E0E00080000000800020008000400080006000800080008000A0008000C0008000E00080200000802020008020400080206000802080008020A0008020C0008020E00080400000804020008040400080406000804080
310
008040A0008040C0008040E00080600000806020008060400080606000806080008060A0008060C0008060E00080800000808020008080400080806000808080008080A0008080C0008080E00080A0000080A0200080A0400080A0600080A0800080A0A00080A0C00080A0E00080C0000080C0200080C0400080C0600080C0
310
800080C0A00080C0C00080C0E00080E0000080E0200080E0400080E0600080E0800080E0A00080E0C00080E0E000C0000000C0002000C0004000C0006000C0008000C000A000C000C000C000E000C0200000C0202000C0204000C0206000C0208000C020A000C020C000C020E000C0400000C0402000C0404000C0406000C0
310
408000C040A000C040C000C040E000C0600000C0602000C0604000C0606000C0608000C060A000C060C000C060E000C0800000C0802000C0804000C0806000C0808000C080A000C080C000C080E000C0A00000C0A02000C0A04000C0A06000C0A08000C0A0A000C0A0C000C0A0E000C0C00000C0C02000C0C04000C0C06000
310
C0C08000C0C0A000F0FBFF00A4A0A000808080000000FF0000FF000000FFFF00FF000000FF00FF00FFFF0000FFFFFF00FFFFFFFFFFFFFFFFFFFFFFFFFFFFFFFFFFFFFFFFFFFFFFFFFFFFFFFFFFFFFFFFFFFFFFFFFFFFFFFFFFFFFF00000000000000000000FFFFFFFFFFFFFFFFFFFFFFFFFFFFFFFFFFFFFFFFFFFF00FFFFFF
310
FFFFFFFFFF00FFFFFFFFFFFFFFFFFFFFFFFFFFFFFFFFFFFFFFFFFFFF00FFFFFFFFFFFFFFFF00FFFFFFFFFFFFFFFFFFFFFFFFFFFFFFFFFFFFFFFFFFFF00FFFFFFFFFFFFFFFF00FFFFFFFFFFFFFFFFFFFFFFFFFFFFFFFFFFFFFFFFFFFF00FF0000000000000000FFFFFFFFFFFFFFFFFFFFFFFFFFFFFFFFFFFFFFFFFFFF00FF00
310
FFFFFFFFFFFFFFFFFFFFFFFFFFFFFFFFFFFFFFFFFFFFFFFFFFFFFFFFFF00FF00FFFFFFFFFFFFFFFFFFFFFFFFFFFFFFFFFFFFFFFFFFFFFFFFFFFFFFFFFF00FF00FFFFFFFFFFFFFFFFFFFFFFFFFFFFFFFFFFFFFFFFFFFFFFFFFFFFFFFFFF00FF00FFFFFFFFFFFFFFFFFFFFFFFFFFFFFFFFFFFFFFFFFFFFFFFFFFFFFFFFFF00FF
310
00FFFFFFFFFFFFFFFFFFFFFFFFFFFFFFFFFFFFFFFFFFFFFFFFFFFFFFFFFF00FF00FFFFFFFFFFFFFFFFFFFFFFFFFFFFFFFFFFFFFFFFFFFFFFFFFFFFFFFFFF00FF00FFFFFFFFFFFFFFFFFFFFFFFFFFFFFFFFFFFFFFFFFFFFFFFFFFFFFFFFFF00FF00FFFFFFFFFFFFFFFFFFFFFFFFFFFFFFFFFFFFFFFFFFFFFFFFFFFFFFFFFF00
310
FF00000000000000FFFFFFFFFFFFFFFFFFFFFFFFFFFFFFFFFFFFFFFFFFFFFF00FFFFFFFFFFFFFF00FFFFFFFFFFFFFFFFFFFFFFFFFFFFFFFFFFFFFFFFFFFFFF00FFFFFFFFFFFFFF00FFFFFFFFFFFFFFFFFFFFFFFFFFFFFFFFFFFFFFFFFFFFFF00FFFFFFFFFFFFFF00FFFFFFFFFFFFFFFFFFFFFFFFFFFFFFFFFFFFFFFFFFFFFF
310
00FF00000000000000FFFFFFFFFFFFFFFFFFFFFFFFFFFFFFFFFFFFFFFFFFFFFF00FF00FFFFFFFFFFFFFFFFFFFFFFFFFFFFFFFFFFFFFFFFFFFFFFFFFFFFFFFFFF00FF00FFFFFFFFFFFFFFFFFFFFFFFFFFFFFFFFFFFFFFFFFFFFFFFFFFFFFFFFFF00FF00FFFFFFFFFFFFFFFFFFFFFFFFFFFFFFFFFFFFFFFFFFFFFFFFFFFFFFFF
310
FF00FF00FFFFFFFFFFFFFFFFFFFFFFFFFFFFFFFFFFFFFFFFFFFFFFFFFFFFFFFFFF00FF00FFFFFFFFFFFFFFFFFFFFFFFFFFFFFFFFFFFFFFFFFFFFFFFFFFFFFFFFFF00FF00FFFFFFFFFFFFFFFFFFFFFFFFFFFFFFFFFFFFFFFFFFFFFFFFFFFFFFFFFF00FF00FFFFFFFFFFFFFFFFFFFFFFFFFFFFFFFFFFFFFFFFFFFFFFFFFFFFFF
310
FFFF00FF0000000000000000FFFFFFFFFFFFFFFFFFFFFFFFFFFFFFFFFFFFFFFFFFFF00FFFFFFFFFFFFFFFF00FFFFFFFFFFFFFFFFFFFFFFFFFFFFFFFFFFFFFFFFFFFF00FFFFFFFFFFFFFFFF00FFFFFFFFFFFFFFFFFFFFFFFFFFFFFFFFFFFFFFFFFFFF00FFFFFFFFFFFFFFFF00FFFFFFFFFFFFFFFFFFFFFFFFFFFFFFFFFFFFFF
310
FFFFFF00000000000000000000FFFFFFFFFFFFFFFFFFFFFFFFFFFFFFFFFFFFFFFFFFFFFFFFFFFFFFFFFFFFFFFFFFFFFFFFFFFFFFFFFFFFFF
102
{BLKREFS
331
2694
102
}
  0
BLOCK_RECORD
  5
2686
330
2361
100
AcDbSymbolTableRecord
100
AcDbBlockTableRecord
  2
HD_LLC_logo_OT5
340
0
310
2800000020000000200000000100080000000000000400000000000000000000000000000000000000000000000080000080000000808000800000008000800080800000C0C0C000C0DCC000F0CAA6000020400000206000002080000020A0000020C0000020E00000400000004020000040400000406000004080000040A0
310
000040C0000040E00000600000006020000060400000606000006080000060A0000060C0000060E00000800000008020000080400000806000008080000080A0000080C0000080E00000A0000000A0200000A0400000A0600000A0800000A0A00000A0C00000A0E00000C0000000C0200000C0400000C0600000C0800000C0
310
A00000C0C00000C0E00000E0000000E0200000E0400000E0600000E0800000E0A00000E0C00000E0E00040000000400020004000400040006000400080004000A0004000C0004000E00040200000402020004020400040206000402080004020A0004020C0004020E000404000004040200040404000404060004040800040
310
40A0004040C0004040E00040600000406020004060400040606000406080004060A0004060C0004060E00040800000408020004080400040806000408080004080A0004080C0004080E00040A0000040A0200040A0400040A0600040A0800040A0A00040A0C00040A0E00040C0000040C0200040C0400040C0600040C08000
310
40C0A00040C0C00040C0E00040E0000040E0200040E0400040E0600040E0800040E0A00040E0C00040E0E00080000000800020008000400080006000800080008000A0008000C0008000E00080200000802020008020400080206000802080008020A0008020C0008020E00080400000804020008040400080406000804080
310
008040A0008040C0008040E00080600000806020008060400080606000806080008060A0008060C0008060E00080800000808020008080400080806000808080008080A0008080C0008080E00080A0000080A0200080A0400080A0600080A0800080A0A00080A0C00080A0E00080C0000080C0200080C0400080C0600080C0
310
800080C0A00080C0C00080C0E00080E0000080E0200080E0400080E0600080E0800080E0A00080E0C00080E0E000C0000000C0002000C0004000C0006000C0008000C000A000C000C000C000E000C0200000C0202000C0204000C0206000C0208000C020A000C020C000C020E000C0400000C0402000C0404000C0406000C0
310
408000C040A000C040C000C040E000C0600000C0602000C0604000C0606000C0608000C060A000C060C000C060E000C0800000C0802000C0804000C0806000C0808000C080A000C080C000C080E000C0A00000C0A02000C0A04000C0A06000C0A08000C0A0A000C0A0C000C0A0E000C0C00000C0C02000C0C04000C0C06000
310
C0C08000C0C0A000F0FBFF00A4A0A000808080000000FF0000FF000000FFFF00FF000000FF00FF00FFFF0000FFFFFF00FFFFFFFFFFFFFFFFFFFFFFFFFFFFFFFFFFFFFFFFFFFFFFFFFFFFFFFFFFFFFFFFFFFFFFFFFFFFFFFFFFFFFFFFFFFFFFFFFFFFFFFFFFFFFFFFFFFFFFFFFFFFFFFFFFFFFFFFFFFFFFFFFFFFFFFFFFFFFF
310
FFFFFFFFFFFFFFFFFFFFFFFFFFFFFFFFFFFFFFFFFFFFFFFFFFFFFFFFFFFFFFFFFFFFFFFFFFFFFFFFFFFFFFFFFFFFFFFFFFFFFFFFFFFFFFFFFFFFFFFFFFFFFFFFFFFFFFFFFFFFFFFFFFFFFFFFFFFFFFFFFFFFFFFFFFFFFFFFFFFFFFFFFFFFFFFFFFFFFFFFFFFFFFFFFFFFFFFFFFFFFFFFFFFFFFFFFFFFFFFFFFFFFFFFFFFFFF
310
FFFFFFFFFFFFFFFFFFFFFFFFFFFFFFFFFFFFFFFFFFFFFFFFFFFFFFFFFFFFFFFFFFFFFFFFFFFFFFFFFFFFFFFFFFFFFFFFFFFFFFFFFFFFFFFFFFFFFFFFFFFFFFFFFFFFFFFFFFFFFFFFFFFFFFFFFFFFFFFFFFFFFFFFFFFFFFFFFFFFFFFFFFFFFFFFFFFFFFFFFFFFFFFFFFFFFFFFFFFFFFFFFFFFFFFFFFFFFFFFFFFFFFFFFFFFFF
310
FFFFFFFFFFFFFFFFFFFFFFFFFFFFFFFFFFFFFFFFFFFFFFFFFFFFFFFFFFFFFFFFFFFFFFFFFFFFFFFFFFFFFFFFFFFFFFFFFFFFFFFF0000000000000000000000000000000000000000000000000000000000FFFFFF0000000000000000000000000000000000FFFFFFFFFFFFFFFFFFFF0000FFFFFF0000000000000000000000
310
00000000000000FFFFFFFFFFFFFFFFFFFF0000FFFF000000000000000000000000000000000000FFFFFF00000000FFFFFF0000FFFF00FFFFFFFFFFFF00FFFFFF00FFFFFFFFFF00FFFFFF0000000000FFFF0000FFFF00FFFFFFFFFFFF00FFFFFF00FFFFFFFFFF00FFFFFF00FFFF0000FFFF0000FFFF00FFFFFFFFFFFF00FFFF
310
00FFFFFFFFFFFF00FFFFFF00FFFF0000FFFF0000FFFF0000000000FFFF00000000FFFFFF00000000FFFFFF00000000FFFFFF0000FFFFFFFFFFFF00FFFFFFFFFFFFFFFFFF00FFFFFFFFFFFFFFFFFFFFFFFFFF0000FFFFFFFFFFFF00FFFFFFFFFFFFFFFFFF00FFFFFFFFFFFFFFFFFFFFFFFFFF0000FFFFFFFFFFFF00FFFFFFFF
310
FFFFFFFFFF00FFFFFFFFFFFFFFFFFFFFFFFF0000FFFFFF0000000000FFFF00000000FFFFFF0000000000000000000000000000FFFFFFFF00FFFFFFFFFFFF00FFFF00FFFFFFFFFFFF00FFFFFFFFFFFFFFFFFFFFFFFFFFFF00FFFFFFFFFFFF00FFFFFF00FFFFFFFFFF00FFFFFFFFFFFFFFFFFFFFFFFFFFFF0000000000000000
310
FFFFFF00000000000000FFFFFFFFFFFFFFFFFFFFFFFFFFFFFFFFFFFFFFFFFFFFFFFFFFFFFFFFFFFFFFFFFFFFFFFFFFFFFFFFFFFFFFFFFFFFFFFFFFFFFFFFFFFFFFFFFFFFFFFFFFFFFFFFFFFFFFFFFFFFFFFFFFFFFFFFFFFFFFFFFFFFFFFFFFFFFFFFFFFFFFFFFFFFFFFFFFFFFFFFFFFFFFFFFFFFFFFFFFFFFFFFFFFFFFFFFF
310
FFFFFFFFFFFFFFFFFFFFFFFFFFFFFFFFFFFFFFFFFFFFFFFFFFFFFFFFFFFFFFFFFFFFFFFFFFFFFFFFFFFFFFFFFFFFFFFFFFFFFFFFFFFFFFFF
102
{BLKREFS
331
26AC
102
}
  0
BLOCK_RECORD
  5
26AB
330
2361
100
AcDbSymbolTableRecord
100
AcDbBlockTableRecord
  2
HD logo-new
340
0
310
2800000020000000200000000100080000000000000400000000000000000000000000000000000000000000000080000080000000808000800000008000800080800000C0C0C000C0DCC000F0CAA6000020400000206000002080000020A0000020C0000020E00000400000004020000040400000406000004080000040A0
310
000040C0000040E00000600000006020000060400000606000006080000060A0000060C0000060E00000800000008020000080400000806000008080000080A0000080C0000080E00000A0000000A0200000A0400000A0600000A0800000A0A00000A0C00000A0E00000C0000000C0200000C0400000C0600000C0800000C0
310
A00000C0C00000C0E00000E0000000E0200000E0400000E0600000E0800000E0A00000E0C00000E0E00040000000400020004000400040006000400080004000A0004000C0004000E00040200000402020004020400040206000402080004020A0004020C0004020E000404000004040200040404000404060004040800040
310
40A0004040C0004040E00040600000406020004060400040606000406080004060A0004060C0004060E00040800000408020004080400040806000408080004080A0004080C0004080E00040A0000040A0200040A0400040A0600040A0800040A0A00040A0C00040A0E00040C0000040C0200040C0400040C0600040C08000
310
40C0A00040C0C00040C0E00040E0000040E0200040E0400040E0600040E0800040E0A00040E0C00040E0E00080000000800020008000400080006000800080008000A0008000C0008000E00080200000802020008020400080206000802080008020A0008020C0008020E00080400000804020008040400080406000804080
310
008040A0008040C0008040E00080600000806020008060400080606000806080008060A0008060C0008060E00080800000808020008080400080806000808080008080A0008080C0008080E00080A0000080A0200080A0400080A0600080A0800080A0A00080A0C00080A0E00080C0000080C0200080C0400080C0600080C0
310
800080C0A00080C0C00080C0E00080E0000080E0200080E0400080E0600080E0800080E0A00080E0C00080E0E000C0000000C0002000C0004000C0006000C0008000C000A000C000C000C000E000C0200000C0202000C0204000C0206000C0208000C020A000C020C000C020E000C0400000C0402000C0404000C0406000C0
310
408000C040A000C040C000C040E000C0600000C0602000C0604000C0606000C0608000C060A000C060C000C060E000C0800000C0802000C0804000C0806000C0808000C080A000C080C000C080E000C0A00000C0A02000C0A04000C0A06000C0A08000C0A0A000C0A0C000C0A0E000C0C00000C0C02000C0C04000C0C06000
310
C0C08000C0C0A000F0FBFF00A4A0A000808080000000FF0000FF000000FFFF00FF000000FF00FF00FFFF0000FFFFFF00FFFFFFFFFFFFFFFFFFFFFFFFFFFFFFFFFFFFFFFFFFFFFFFFFFFFFFFFFFFFFFFFFFFFFFFFFFFFFFFFFFFFFFFFFFFFFFFFFFFFFFFFFFFFFFFFFFFFFFFFFFFFFFFFFFFFFFFFFFFFFFFFFFFFFFFFFFFFFF
310
FFFFFFFFFFFFFFFFFFFFFFFFFFFFFFFFFFFFFFFFFFFFFFFFFFFFFFFFFFFFFFFFFFFFFFFFFFFFFFFFFFFFFFFFFFFFFFFFFFFFFFFFFFFFFFFFFFFFFFFFFFFFFFFFFFFFFFFFFFFFFFFFFFFFFFFFFFFFFFFFFFFFFFFFFFFFFFFFFFFFFFFFFFFFFFFFFFFFFFFFFFFFFFFFFFFFFFFFFFFFFFFFFFFFFFFFFFFFFFFFFFFFFFFFFFFFFF
310
FFFFFFFFFFFFFFFFFFFFFFFFFFFFFFFFFFFFFFFFFFFFFFFFFFFFFFFFFFFFFFFFFFFFFFFFFFFFFFFFFFFFFFFFFFFFFFFFFFFFFFFFFFFFFFFFFFFFFFFFFFFFFFFFFFFFFFFFFFFFFFFFFFFFFFFFFFFFFFFFFFFFFFFFFFFFFFFFFFFFFFFFFFFFFFFFFFFFFFFFFFFFFFFFFFFFFFFFFFFFFFFFFFFFFFFFFFFFFFFFFFFFFFFFFFFFFF
310
FFFFFFFFFFFFFFFFFFFFFFFFFFFFFFFFFFFFFFFFFFFFFFFFFFFFFFFFFFFFFFFFFFFFFFFFFFFFFFFFFFFFFFFFFFFFFFFFFFFFFFFF0000000000000000000000000000000000000000000000000000000000FFFFFF0000000000000000000000000000000000FFFFFFFFFFFFFFFFFFFF0000FFFFFF0000000000000000000000
310
00000000000000FFFFFFFFFFFFFFFFFFFF0000FFFF000000000000000000000000000000000000FFFFFF00000000FFFFFF0000FFFF00FFFFFFFFFFFF00FFFFFF00FFFFFFFFFF00FFFFFF0000000000FFFF0000FFFF00FFFFFFFFFFFF00FFFFFF00FFFFFFFFFF00FFFFFF00FFFF0000FFFF0000FFFF00FFFFFFFFFFFF00FFFF
310
00FFFFFFFFFFFF00FFFFFF00FFFF0000FFFF0000FFFF0000000000FFFF00000000FFFFFF00000000FFFFFF00000000FFFFFF0000FFFFFFFFFFFF00FFFFFFFFFFFFFFFFFF00FFFFFFFFFFFFFFFFFFFFFFFFFF0000FFFFFFFFFFFF00FFFFFFFFFFFFFFFFFF00FFFFFFFFFFFFFFFFFFFFFFFFFF0000FFFFFFFFFFFF00FFFFFFFF
310
FFFFFFFFFF00FFFFFFFFFFFFFFFFFFFFFFFF0000FFFFFF0000000000FFFF00000000FFFFFF0000000000000000000000000000FFFFFFFF00FFFFFFFFFFFF00FFFF00FFFFFFFFFFFF00FFFFFFFFFFFFFFFFFFFFFFFFFFFF00FFFFFFFFFFFF00FFFFFF00FFFFFFFFFF00FFFFFFFFFFFFFFFFFFFFFFFFFFFF0000000000000000
310
FFFFFF00000000000000FFFFFFFFFFFFFFFFFFFFFFFFFFFFFFFFFFFFFFFFFFFFFFFFFFFFFFFFFFFFFFFFFFFFFFFFFFFFFFFFFFFFFFFFFFFFFFFFFFFFFFFFFFFFFFFFFFFFFFFFFFFFFFFFFFFFFFFFFFFFFFFFFFFFFFFFFFFFFFFFFFFFFFFFFFFFFFFFFFFFFFFFFFFFFFFFFFFFFFFFFFFFFFFFFFFFFFFFFFFFFFFFFFFFFFFFFF
310
FFFFFFFFFFFFFFFFFFFFFFFFFFFFFFFFFFFFFFFFFFFFFFFFFFFFFFFFFFFFFFFFFFFFFFFFFFFFFFFFFFFFFFFFFFFFFFFFFFFFFFFFFFFFFFFF
102
{BLKREFS
331
26B0
331
2992
331
2996
102
}
  0
BLOCK_RECORD
  5
26AF
330
2361
100
AcDbSymbolTableRecord
100
AcDbBlockTableRecord
  2
HD Logo
340
0
310
2800000020000000200000000100080000000000000400000000000000000000000000000000000000000000000080000080000000808000800000008000800080800000C0C0C000C0DCC000F0CAA6000020400000206000002080000020A0000020C0000020E00000400000004020000040400000406000004080000040A0
310
000040C0000040E00000600000006020000060400000606000006080000060A0000060C0000060E00000800000008020000080400000806000008080000080A0000080C0000080E00000A0000000A0200000A0400000A0600000A0800000A0A00000A0C00000A0E00000C0000000C0200000C0400000C0600000C0800000C0
310
A00000C0C00000C0E00000E0000000E0200000E0400000E0600000E0800000E0A00000E0C00000E0E00040000000400020004000400040006000400080004000A0004000C0004000E00040200000402020004020400040206000402080004020A0004020C0004020E000404000004040200040404000404060004040800040
310
40A0004040C0004040E00040600000406020004060400040606000406080004060A0004060C0004060E00040800000408020004080400040806000408080004080A0004080C0004080E00040A0000040A0200040A0400040A0600040A0800040A0A00040A0C00040A0E00040C0000040C0200040C0400040C0600040C08000
310
40C0A00040C0C00040C0E00040E0000040E0200040E0400040E0600040E0800040E0A00040E0C00040E0E00080000000800020008000400080006000800080008000A0008000C0008000E00080200000802020008020400080206000802080008020A0008020C0008020E00080400000804020008040400080406000804080
310
008040A0008040C0008040E00080600000806020008060400080606000806080008060A0008060C0008060E00080800000808020008080400080806000808080008080A0008080C0008080E00080A0000080A0200080A0400080A0600080A0800080A0A00080A0C00080A0E00080C0000080C0200080C0400080C0600080C0
310
800080C0A00080C0C00080C0E00080E0000080E0200080E0400080E0600080E0800080E0A00080E0C00080E0E000C0000000C0002000C0004000C0006000C0008000C000A000C000C000C000E000C0200000C0202000C0204000C0206000C0208000C020A000C020C000C020E000C0400000C0402000C0404000C0406000C0
310
408000C040A000C040C000C040E000C0600000C0602000C0604000C0606000C0608000C060A000C060C000C060E000C0800000C0802000C0804000C0806000C0808000C080A000C080C000C080E000C0A00000C0A02000C0A04000C0A06000C0A08000C0A0A000C0A0C000C0A0E000C0C00000C0C02000C0C04000C0C06000
310
C0C08000C0C0A000F0FBFF00A4A0A000808080000000FF0000FF000000FFFF00FF000000FF00FF00FFFF0000FFFFFF00FFFFFFFFFFFFFFFFFFFFFFFFFFFFFFFFFFFFFFFFFFFFFFFFFFFFFFFFFFFFFFFFFFFFFFFFFFFFFFFFFFFFFFFFFFFFFFFFFFFFFFFFFFFFFFFFFFFFFFFFFFFFFFFFFFFFFFFFFFFFFFFFFFFFFFFFFFFFFF
310
FFFFFFFFFFFFFFFFFFFFFFFFFFFFFFFFFFFFFFFFFFFFFFFFFFFFFFFFFFFFFFFFFFFFFFFFFFFFFFFFFFFFFFFFFFFFFFFFFFFFFFFFFFFFFFFFFFFFFFFFFFFFFFFFFFFFFFFFFFFFFFFFFFFFFFFFFFFFFFFFFFFFFFFFFFFFFFFFFFFFFFFFFFFFFFFFFFFFFFFFFFFFFFFFFFFFFFFFFFFFFFFFFFFFFFFFFFFFFFFFFFFFFFFFFFFFFF
310
FFFFFFFFFFFFFFFFFFFFFFFFFFFFFFFFFFFFFFFFFFFFFFFFFFFFFFFFFFFFFFFFFFFFFFFFFFFFFFFFFFFFFFFFFFFFFFFFFFFFFFFFFFFFFFFFFFFFFFFFFFFFFFFFFFFFFFFFFFFFFFFFFFFFFFFFFFFFFFFFFFFFFFFFFFFFFFFFFFFFFFFFFFFFFFFFFFFFFFFFFFFFFFFFFFFFFFFFFFFFFFFFFFFFFFFFFFFFFFFFFFFFFFFFFFFFFF
310
FFFFFFFFFFFFFFFFFFFFFFFFFFFFFFFFFFFFFFFFFFFFFFFFFFFFFFFFFFFFFFFFFFFFFFFFFFFFFFFFFFFFFFFFFFFFFFFFFFFFFFFF0000000000000000000000000000000000000000000000000000000000FFFFFF0000000000000000000000000000000000FFFFFFFFFFFFFFFFFFFF0000FFFFFF0000000000000000000000
310
00000000000000FFFFFFFFFFFFFFFFFFFF0000FFFF000000000000000000000000000000000000FFFFFF00000000FFFFFF0000FFFF00FFFFFFFFFFFF00FFFFFF00FFFFFFFFFF00FFFFFF0000000000FFFF0000FFFF00FFFFFFFFFFFF00FFFFFF00FFFFFFFFFF00FFFFFF00FFFF0000FFFF0000FFFF00FFFFFFFFFFFF00FFFF
310
00FFFFFFFFFFFF00FFFFFF00FFFF0000FFFF0000FFFF0000000000FFFF00000000FFFFFF00000000FFFFFF00000000FFFFFF0000FFFFFFFFFFFF00FFFFFFFFFFFFFFFFFF00FFFFFFFFFFFFFFFFFFFFFFFFFF0000FFFFFFFFFFFF00FFFFFFFFFFFFFFFFFF00FFFFFFFFFFFFFFFFFFFFFFFFFF0000FFFFFFFFFFFF00FFFFFFFF
310
FFFFFFFFFF00FFFFFFFFFFFFFFFFFFFFFFFF0000FFFFFF0000000000FFFF00000000FFFFFF0000000000000000000000000000FFFFFFFF00FFFFFFFFFFFF00FFFF00FFFFFFFFFFFF00FFFFFFFFFFFFFFFFFFFFFFFFFFFF00FFFFFFFFFFFF00FFFFFF00FFFFFFFFFF00FFFFFFFFFFFFFFFFFFFFFFFFFFFF0000000000000000
310
FFFFFF00000000000000FFFFFFFFFFFFFFFFFFFFFFFFFFFFFFFFFFFFFFFFFFFFFFFFFFFFFFFFFFFFFFFFFFFFFFFFFFFFFFFFFFFFFFFFFFFFFFFFFFFFFFFFFFFFFFFFFFFFFFFFFFFFFFFFFFFFFFFFFFFFFFFFFFFFFFFFFFFFFFFFFFFFFFFFFFFFFFFFFFFFFFFFFFFFFFFFFFFFFFFFFFFFFFFFFFFFFFFFFFFFFFFFFFFFFFFFFF
310
FFFFFFFFFFFFFFFFFFFFFFFFFFFFFFFFFFFFFFFFFFFFFFFFFFFFFFFFFFFFFFFFFFFFFFFFFFFFFFFFFFFFFFFFFFFFFFFFFFFFFFFFFFFFFFFF
102
{BLKREFS
331
26B6
331
26BA
102
}
  0
BLOCK_RECORD
  5
26BB
330
2361
100
AcDbSymbolTableRecord
100
AcDbBlockTableRecord
  2
Harmonic Drive LLC
340
0
310
2800000020000000200000000100080000000000000400000000000000000000000000000000000000000000000080000080000000808000800000008000800080800000C0C0C000C0DCC000F0CAA6000020400000206000002080000020A0000020C0000020E00000400000004020000040400000406000004080000040A0
310
000040C0000040E00000600000006020000060400000606000006080000060A0000060C0000060E00000800000008020000080400000806000008080000080A0000080C0000080E00000A0000000A0200000A0400000A0600000A0800000A0A00000A0C00000A0E00000C0000000C0200000C0400000C0600000C0800000C0
310
A00000C0C00000C0E00000E0000000E0200000E0400000E0600000E0800000E0A00000E0C00000E0E00040000000400020004000400040006000400080004000A0004000C0004000E00040200000402020004020400040206000402080004020A0004020C0004020E000404000004040200040404000404060004040800040
310
40A0004040C0004040E00040600000406020004060400040606000406080004060A0004060C0004060E00040800000408020004080400040806000408080004080A0004080C0004080E00040A0000040A0200040A0400040A0600040A0800040A0A00040A0C00040A0E00040C0000040C0200040C0400040C0600040C08000
310
40C0A00040C0C00040C0E00040E0000040E0200040E0400040E0600040E0800040E0A00040E0C00040E0E00080000000800020008000400080006000800080008000A0008000C0008000E00080200000802020008020400080206000802080008020A0008020C0008020E00080400000804020008040400080406000804080
310
008040A0008040C0008040E00080600000806020008060400080606000806080008060A0008060C0008060E00080800000808020008080400080806000808080008080A0008080C0008080E00080A0000080A0200080A0400080A0600080A0800080A0A00080A0C00080A0E00080C0000080C0200080C0400080C0600080C0
310
800080C0A00080C0C00080C0E00080E0000080E0200080E0400080E0600080E0800080E0A00080E0C00080E0E000C0000000C0002000C0004000C0006000C0008000C000A000C000C000C000E000C0200000C0202000C0204000C0206000C0208000C020A000C020C000C020E000C0400000C0402000C0404000C0406000C0
310
408000C040A000C040C000C040E000C0600000C0602000C0604000C0606000C0608000C060A000C060C000C060E000C0800000C0802000C0804000C0806000C0808000C080A000C080C000C080E000C0A00000C0A02000C0A04000C0A06000C0A08000C0A0A000C0A0C000C0A0E000C0C00000C0C02000C0C04000C0C06000
310
C0C08000C0C0A000F0FBFF00A4A0A000808080000000FF0000FF000000FFFF00FF000000FF00FF00FFFF0000FFFFFF00FFFFFFFFFFFFFFFFFFFFFFFFFFFFFFFFFFFFFFFFFFFFFFFFFFFFFFFFFFFFFFFFFFFFFFFFFFFFFFFFFFFFFFFFFFFFFFFFFFFFFFFFFFFFFFFFFFFFFFFFFFFFFFFFFFFFFFFFFFFFFFFFFFFFFFFFFFFFFF
310
FFFFFFFFFFFFFFFFFFFFFFFFFFFFFFFFFFFFFFFFFFFFFFFFFFFFFFFFFFFFFFFFFFFFFFFFFFFFFFFFFFFFFFFFFFFFFFFFFFFFFFFFFFFFFFFFFFFFFFFFFFFFFFFFFFFFFFFFFFFFFFFFFFFFFFFFFFFFFFFFFFFFFFFFFFFFFFFFFFFFFFFFFFFFFFFFFFFFFFFFFFFFFFFFFFFFFFFFFFFFFFFFFFFFFFFFFFFFFFFFFFFFFFFFFFFFFF
310
FFFFFFFFFFFFFFFFFFFFFFFFFFFFFFFFFFFFFFFFFFFFFFFFFFFFFFFFFFFFFFFFFFFFFFFFFFFFFFFFFFFFFFFFFFFFFFFFFFFFFFFFFFFFFFFFFFFFFFFFFFFFFFFFFFFFFFFFFFFFFFFFFFFFFFFFFFFFFFFFFFFFFFFFFFFFFFFFFFFFFFFFFFFFFFFFFFFFFFFFFFFFFFFFFFFFFFFFFFFFFFFFFFFFFFFFFFFFFFFFFFFFFFFFFFFFFF
310
FFFFFFFFFFFFFFFFFFFFFFFFFFFFFFFFFFFFFFFFFFFFFFFFFFFFFFFFFFFFFFFFFFFFFFFFFFFFFFFFFFFFFFFFFFFFFFFFFFFFFFFFFFFFFFFFFFFFFFFFFFFFFFFFFFFFFFFFFFFFFFFFFFFFFFFFFFFFFFFFFFFFFFFFFFFFFFFFFFFFFFFF0000000000000000000000000000FFFFFFFFFFFFFFFFFFFFFFFFFFFFFFFFFFFF000000
310
0000000000000000000000FFFFFFFFFFFFFFFFFFFFFFFFFFFFFFFFFFFFFFFFFF000000000000000000FFFFFFFFFFFFFFFFFFFFFFFFFFFFFFFFFFFFFFFFFFFFFF000000000000000000FFFFFFFFFFFFFFFFFFFFFFFFFFFFFFFFFFFFFFFFFF000000000000000000000000FFFFFFFFFFFFFFFFFFFFFFFFFFFFFFFFFFFFFFFF00
310
FFFFFF00FF0000FF000000FFFFFFFFFFFFFFFFFFFFFFFFFFFFFFFFFFFFFFFFFFFFFFFFFFFFFFFFFFFFFFFFFFFFFFFFFFFFFFFFFFFFFFFFFFFFFFFFFFFFFFFFFFFFFFFFFFFFFFFFFFFFFFFFFFFFFFFFFFFFFFFFFFFFFFFFFFFFFFFFFFFFFFFFFFFFFFFFFFFFFFFFFFFFFFFFFFFFFFFFFFFFFFFFFFFFFFFFFFFFFFFFFFFFFFFF
310
FFFFFFFFFFFFFFFFFFFFFFFFFFFFFFFFFFFFFFFFFFFFFFFFFFFFFFFFFFFFFFFFFFFFFFFFFFFFFFFFFFFFFFFFFFFFFFFFFFFFFFFFFFFFFFFFFFFFFFFFFFFFFFFFFFFFFFFFFFFFFFFFFFFFFFFFFFFFFFFFFFFFFFFFFFFFFFFFFFFFFFFFFFFFFFFFFFFFFFFFFFFFFFFFFFFFFFFFFFFFFFFFFFFFFFFFFFFFFFFFFFFFFFFFFFFFFF
310
FFFFFFFFFFFFFFFFFFFFFFFFFFFFFFFFFFFFFFFFFFFFFFFFFFFFFFFFFFFFFFFFFFFFFFFFFFFFFFFFFFFFFFFFFFFFFFFFFFFFFFFFFFFFFFFFFFFFFFFFFFFFFFFFFFFFFFFFFFFFFFFFFFFFFFFFFFFFFFFFFFFFFFFFFFFFFFFFFFFFFFFFFFFFFFFFFFFFFFFFFFFFFFFFFFFFFFFFFFFFFFFFFFFFFFFFFFFFFFFFFFFFFFFFFFFFFF
310
FFFFFFFFFFFFFFFFFFFFFFFFFFFFFFFFFFFFFFFFFFFFFFFFFFFFFFFFFFFFFFFFFFFFFFFFFFFFFFFFFFFFFFFFFFFFFFFFFFFFFFFFFFFFFFFF
102
{BLKREFS
331
26C0
331
26C5
331
26C7
331
26CB
331
2982
331
2986
102
}
  0
BLOCK_RECORD
  5
26D7
330
2361
100
AcDbSymbolTableRecord
100
AcDbBlockTableRecord
  2
A$C40874447
340
0
102
{BLKREFS
331
296E
102
}
  0
BLOCK_RECORD
  5
2987
330
2361
100
AcDbSymbolTableRecord
100
AcDbBlockTableRecord
  2
HD LLC
340
0
310
2800000020000000200000000100080000000000000400000000000000000000000000000000000000000000000080000080000000808000800000008000800080800000C0C0C000C0DCC000F0CAA6000020400000206000002080000020A0000020C0000020E00000400000004020000040400000406000004080000040A0
310
000040C0000040E00000600000006020000060400000606000006080000060A0000060C0000060E00000800000008020000080400000806000008080000080A0000080C0000080E00000A0000000A0200000A0400000A0600000A0800000A0A00000A0C00000A0E00000C0000000C0200000C0400000C0600000C0800000C0
310
A00000C0C00000C0E00000E0000000E0200000E0400000E0600000E0800000E0A00000E0C00000E0E00040000000400020004000400040006000400080004000A0004000C0004000E00040200000402020004020400040206000402080004020A0004020C0004020E000404000004040200040404000404060004040800040
310
40A0004040C0004040E00040600000406020004060400040606000406080004060A0004060C0004060E00040800000408020004080400040806000408080004080A0004080C0004080E00040A0000040A0200040A0400040A0600040A0800040A0A00040A0C00040A0E00040C0000040C0200040C0400040C0600040C08000
310
40C0A00040C0C00040C0E00040E0000040E0200040E0400040E0600040E0800040E0A00040E0C00040E0E00080000000800020008000400080006000800080008000A0008000C0008000E00080200000802020008020400080206000802080008020A0008020C0008020E00080400000804020008040400080406000804080
310
008040A0008040C0008040E00080600000806020008060400080606000806080008060A0008060C0008060E00080800000808020008080400080806000808080008080A0008080C0008080E00080A0000080A0200080A0400080A0600080A0800080A0A00080A0C00080A0E00080C0000080C0200080C0400080C0600080C0
310
800080C0A00080C0C00080C0E00080E0000080E0200080E0400080E0600080E0800080E0A00080E0C00080E0E000C0000000C0002000C0004000C0006000C0008000C000A000C000C000C000E000C0200000C0202000C0204000C0206000C0208000C020A000C020C000C020E000C0400000C0402000C0404000C0406000C0
310
408000C040A000C040C000C040E000C0600000C0602000C0604000C0606000C0608000C060A000C060C000C060E000C0800000C0802000C0804000C0806000C0808000C080A000C080C000C080E000C0A00000C0A02000C0A04000C0A06000C0A08000C0A0A000C0A0C000C0A0E000C0C00000C0C02000C0C04000C0C06000
310
C0C08000C0C0A000F0FBFF00A4A0A000808080000000FF0000FF000000FFFF00FF000000FF00FF00FFFF0000FFFFFF00FFFFFFFFFFFFFFFFFFFFFFFFFFFFFFFFFFFFFFFFFFFFFFFFFFFFFFFFFFFFFFFFFFFFFFFFFFFFFFFFFFFFFFFFFFFFFFFFFFFFFFFFFFFFFFFFFFFFFFFFFFFFFFFFFFFFFFFFFFFFFFFFFFFFFFFFFFFFFF
310
FFFFFFFFFFFFFFFFFFFFFFFFFFFFFFFFFFFFFFFFFFFFFFFFFFFFFFFFFFFFFFFFFFFFFFFFFFFFFFFFFFFFFFFFFFFFFFFFFFFFFFFFFFFFFFFFFFFFFFFFFFFFFFFFFFFFFFFFFFFFFFFFFFFFFFFFFFFFFFFFFFFFFFFFFFFFFFFFFFFFFFFFFFFFFFFFFFFFFFFFFFFFFFFFFFFFFFFFFFFFFFFFFFFFFFFFFFFFFFFFFFFFFFFFFFFFFF
310
FFFFFFFFFFFFFFFFFFFFFFFFFFFFFFFFFFFFFFFFFFFFFFFFFFFFFFFFFFFFFFFFFFFFFFFFFFFFFFFFFFFFFFFFFFFFFFFFFFFFFFFFFFFFFFFFFFFFFFFFFFFFFFFFFFFFFFFFFFFFFFFFFFFFFFFFFFFFFFFFFFFFFFFFFFFFFFFFFFFFFFFFFFFFFFFFFFFFFFFFFFFFFFFFFFFFFFFFFFFFFFFFFFFFFFFFFFFFFFFFFFFFFFFFFFFFFF
310
FFFFFFFFFFFFFFFFFFFFFFFFFFFFFFFFFFFFFFFFFFFFFFFFFFFFFFFFFFFFFFFFFFFFFFFFFFFFFFFFFFFFFFFFFFFFFFFFFFFFFFFFFFFFFFFFFFFFFFFFFFFFFFFFFFFFFFFFFFFFFFFFFFFFFFFFFFFFFFFFFFFFFFFFFFFFFFFFFFFFFFFFFFFFFFFFFFFFFFFFFFFFFFFFFFFFFFFFFFFFFFFFFFFFFFFFFFFFFFFFFFFFFFFFFFFF00
310
000000000000000000FFFFFFFFFFFFFFFFFFFFFFFFFFFFFFFFFFFFFFFFFFFF00000000000000000000FFFFFFFFFFFFFFFFFFFFFFFFFFFFFFFFFFFFFFFFFFFF00000000000000000000FFFFFFFFFFFFFFFFFFFFFFFFFFFFFFFFFFFFFFFFFFFF00000000000000000000FFFFFFFFFFFFFFFFFFFFFFFFFFFFFFFFFFFFFFFFFFFF
310
FFFFFFFFFFFFFFFFFFFFFFFFFFFFFFFFFFFFFFFFFFFFFFFFFFFFFFFFFFFFFFFFFFFFFFFFFFFFFFFFFFFFFFFFFFFFFFFFFFFFFFFFFFFFFFFFFFFFFFFFFFFFFFFFFFFFFFFFFFFFFFFFFFFFFFFFFFFFFFFFFFFFFFFFFFFFFFFFFFFFFFFFFFFFFFFFFFFFFFFFFFFFFFFFFFFFFFFFFFFFFFFFFFFFFFFFFFFFFFFFFFFFFFFFFFFFFF
310
FFFFFFFFFFFFFFFFFFFFFFFFFFFFFFFFFFFFFFFFFFFFFFFFFFFFFFFFFFFFFFFFFFFFFFFFFFFFFFFFFFFFFFFFFFFFFFFFFFFFFFFFFFFFFFFFFFFFFFFFFFFFFFFFFFFFFFFFFFFFFFFFFFFFFFFFFFFFFFFFFFFFFFFFFFFFFFFFFFFFFFFFFFFFFFFFFFFFFFFFFFFFFFFFFFFFFFFFFFFFFFFFFFFFFFFFFFFFFFFFFFFFFFFFFFFFFF
310
FFFFFFFFFFFFFFFFFFFFFFFFFFFFFFFFFFFFFFFFFFFFFFFFFFFFFFFFFFFFFFFFFFFFFFFFFFFFFFFFFFFFFFFFFFFFFFFFFFFFFFFFFFFFFFFFFFFFFFFFFFFFFFFFFFFFFFFFFFFFFFFFFFFFFFFFFFFFFFFFFFFFFFFFFFFFFFFFFFFFFFFFFFFFFFFFFFFFFFFFFFFFFFFFFFFFFFFFFFFFFFFFFFFFFFFFFFFFFFFFFFFFFFFFFFFFFF
310
FFFFFFFFFFFFFFFFFFFFFFFFFFFFFFFFFFFFFFFFFFFFFFFFFFFFFFFFFFFFFFFFFFFFFFFFFFFFFFFFFFFFFFFFFFFFFFFFFFFFFFFFFFFFFFFF
102
{BLKREFS
331
298C
331
2990
102
}
  0
BLOCK_RECORD
  5
2997
330
2361
100
AcDbSymbolTableRecord
100
AcDbBlockTableRecord
  2
NTC
340
0
310
2800000020000000200000000100080000000000000400000000000000000000000000000000000000000000000080000080000000808000800000008000800080800000C0C0C000C0DCC000F0CAA6000020400000206000002080000020A0000020C0000020E00000400000004020000040400000406000004080000040A0
310
000040C0000040E00000600000006020000060400000606000006080000060A0000060C0000060E00000800000008020000080400000806000008080000080A0000080C0000080E00000A0000000A0200000A0400000A0600000A0800000A0A00000A0C00000A0E00000C0000000C0200000C0400000C0600000C0800000C0
310
A00000C0C00000C0E00000E0000000E0200000E0400000E0600000E0800000E0A00000E0C00000E0E00040000000400020004000400040006000400080004000A0004000C0004000E00040200000402020004020400040206000402080004020A0004020C0004020E000404000004040200040404000404060004040800040
310
40A0004040C0004040E00040600000406020004060400040606000406080004060A0004060C0004060E00040800000408020004080400040806000408080004080A0004080C0004080E00040A0000040A0200040A0400040A0600040A0800040A0A00040A0C00040A0E00040C0000040C0200040C0400040C0600040C08000
310
40C0A00040C0C00040C0E00040E0000040E0200040E0400040E0600040E0800040E0A00040E0C00040E0E00080000000800020008000400080006000800080008000A0008000C0008000E00080200000802020008020400080206000802080008020A0008020C0008020E00080400000804020008040400080406000804080
310
008040A0008040C0008040E00080600000806020008060400080606000806080008060A0008060C0008060E00080800000808020008080400080806000808080008080A0008080C0008080E00080A0000080A0200080A0400080A0600080A0800080A0A00080A0C00080A0E00080C0000080C0200080C0400080C0600080C0
310
800080C0A00080C0C00080C0E00080E0000080E0200080E0400080E0600080E0800080E0A00080E0C00080E0E000C0000000C0002000C0004000C0006000C0008000C000A000C000C000C000E000C0200000C0202000C0204000C0206000C0208000C020A000C020C000C020E000C0400000C0402000C0404000C0406000C0
310
408000C040A000C040C000C040E000C0600000C0602000C0604000C0606000C0608000C060A000C060C000C060E000C0800000C0802000C0804000C0806000C0808000C080A000C080C000C080E000C0A00000C0A02000C0A04000C0A06000C0A08000C0A0A000C0A0C000C0A0E000C0C00000C0C02000C0C04000C0C06000
310
C0C08000C0C0A000F0FBFF00A4A0A000808080000000FF0000FF000000FFFF00FF000000FF00FF00FFFF0000FFFFFF00FFFFFFFFFFFFFFFFFFFFFFFFFFFFFFFFFFFFFFFFFFFFFFFFFFFFFFFFFFFFFFFFFFFFFFFFFFFFFFFFFFFFFFFFFFFFFFFFFFFFFFFFFFFFFFFFFFFFFFFFFFFFFFFFFFFFFFFFFFFFFFFFFFFFFFFFFFFFFF
310
FFFFFFFFFFFFFFFFFFFFFFFFFFFFFFFFFFFFFFFFFFFFFFFFFFFFFFFFFFFFFFFFFFFFFFFFFFFFFFFFFFFFFFFFFFFFFFFFFFFFFFFFFFFFFFFFFFFFFFFFFFFFFFFFFFFFFFFFFFFFFFFFFFFFFFFFFFFFFFFFFFFFFFFFFFFFFFFFFFFFFFFFFFFFFFFFFFFFFFFFFFFFFFFFFFFFFFFFFFFFFFFFFFFFFFFFFFFFFFFFFFFFFFFFFFFFFF
310
FFFFFFFFFFFFFFFFFFFFFFFFFFFFFFFFFFFFFFFFFFFFFFFFFFFFFFFFFFFFFFFFFFFFFFFFFFFFFFFFFFFFFFFFFFFFFFFFFFFFFFFFFFFFFFFFFFFFFFFFFFFFFFFFFFFFFFFFFFFFFFFFFFFFFFFFFFFFFFFFFFFFFFFFFFFFFFFFFFFFFFFFFFFFFFFFFFFFFFFFFFFFFFFFFFFFFFFFFFFFFFFFFFFFFFFFFFFFFFFFFFFFFFFFFFFFFF
310
FFFFFFFFFFFFFFFFFFFFFFFFFFFFFFFFFFFFFFFF000000000000000000000000000000000000000000000000000000000000FFFF00FF0000000000000000FFFFFFFFFFFFFFFFFFFFFFFFFFFFFFFFFFFFFF00FFFF00FF0000000000000000FFFFFFFFFFFFFFFFFFFFFFFFFFFFFFFFFFFFFF00FFFF00FF000000000000000000
310
00000000000000000000000000FFFFFFFFFF00FFFF00FF0000000000000000000000000000000000000000000000000000FF00FFFF00FF0000000000000000000000000000000000000000000000000000FF00FFFF00FF0000000000000000000000000000000000000000000000000000FF00FFFF00FF0000000000000000
310
00000000000000000000000000000000FFFFFF00FFFF00FF0000000000FFFFFFFFFFFFFFFFFFFFFFFFFFFFFFFFFFFFFFFFFFFF00FFFF000000000000000000000000000000000000000000000000000000000000FFFFFFFFFFFFFFFFFFFFFFFFFFFFFFFFFFFFFFFFFFFFFFFFFFFFFFFFFFFFFFFFFFFFFFFFFFFFFFFFFFFFFF
310
FFFFFFFFFFFFFFFFFFFFFFFFFFFFFFFFFFFFFFFFFFFFFFFFFFFFFFFFFFFFFFFFFFFFFFFFFFFFFFFFFFFFFFFFFFFFFFFFFFFFFFFFFFFFFFFFFFFFFFFFFFFFFFFFFFFFFFFFFFFFFFFFFFFFFFFFFFFFFFFFFFFFFFFFFFFFFFFFFFFFFFFFFFFFFFFFFFFFFFFFFFFFFFFFFFFFFFFFFFFFFFFFFFFFFFFFFFFFFFFFFFFFFFFFFFFFFF
310
FFFFFFFFFFFFFFFFFFFFFFFFFFFFFFFFFFFFFFFFFFFFFFFFFFFFFFFFFFFFFFFFFFFFFFFFFFFFFFFFFFFFFFFFFFFFFFFFFFFFFFFFFFFFFFFFFFFFFFFFFFFFFFFFFFFFFFFFFFFFFFFFFFFFFFFFFFFFFFFFFFFFFFFFFFFFFFFFFFFFFFFFFFFFFFFFFFFFFFFFFFFFFFFFFFFFFFFFFFFFFFFFFFFFFFFFFFFFFFFFFFFFFFFFFFFFFF
310
FFFFFFFFFFFFFFFFFFFFFFFFFFFFFFFFFFFFFFFFFFFFFFFFFFFFFFFFFFFFFFFFFFFFFFFFFFFFFFFFFFFFFFFFFFFFFFFFFFFFFFFFFFFFFFFF
102
{BLKREFS
331
299D
331
29A3
102
}
  0
ENDTAB
  0
ENDSEC
  0
SECTION
  2
BLOCKS
  0
BLOCK
  5
237F
330
237E
100
AcDbEntity
  8
0
100
AcDbBlockBegin
  2
*Model_Space
 70
     0
 10
0.0
 20
0.0
 30
0.0
  3
*Model_Space
  1

  0
ENDBLK
  5
2380
330
237E
100
AcDbEntity
  8
0
100
AcDbBlockEnd
  0
BLOCK
  5
237B
330
237A
100
AcDbEntity
 67
     1
  8
0
100
AcDbBlockBegin
  2
*Paper_Space
 70
     0
 10
0.0
 20
0.0
 30
0.0
  3
*Paper_Space
  1

  0
ENDBLK
  5
237C
330
237A
100
AcDbEntity
 67
     1
  8
0
100
AcDbBlockEnd
  0
BLOCK
  5
2398
330
2397
100
AcDbEntity
  8
0
100
AcDbBlockBegin
  2
$MODEL_SPACE
 70
     0
 10
0.0
 20
0.0
 30
0.0
  3
$MODEL_SPACE
  1

  0
ENDBLK
  5
2399
330
2397
100
AcDbEntity
  8
0
100
AcDbBlockEnd
  0
BLOCK
  5
239B
330
239A
100
AcDbEntity
  8
0
100
AcDbBlockBegin
  2
$PAPER_SPACE
 70
     0
 10
0.0
 20
0.0
 30
0.0
  3
$PAPER_SPACE
  1

  0
ENDBLK
  5
239C
330
239A
100
AcDbEntity
  8
0
100
AcDbBlockEnd
  0
BLOCK
  5
264A
330
2647
100
AcDbEntity
  8
0
 62
     7
100
AcDbBlockBegin
  2
AI9-BLK14
 70
     0
 10
0.0
 20
0.0
 30
0.0
  3
AI9-BLK14
  1

  0
SPLINE
  5
2648
330
2647
100
AcDbEntity
  8
LAYER_1
 62
     7
100
AcDbSpline
210
0.0
220
0.0
230
1.0
 70
    11
 71
     3
 72
    23
 73
    19
 74
     0
 42
0.0000000001
 43
0.0000000001
 40
0.0
 40
0.0
 40
0.0
 40
0.0
 40
1.0
 40
1.0
 40
1.0
 40
2.0
 40
2.0
 40
2.0
 40
3.0
 40
3.0
 40
3.0
 40
4.0
 40
4.0
 40
4.0
 40
5.0
 40
5.0
 40
5.0
 40
6.0
 40
6.0
 40
6.0
 40
6.0
 10
-10.90321044921874
 20
10.88107571072048
 30
0.0
 10
-10.90321044921874
 20
10.88107571072048
 30
0.0
 10
-10.90321044921874
 20
-10.88107571072048
 30
0.0
 10
-10.90321044921874
 20
-10.88107571072048
 30
0.0
 10
-10.90321044921874
 20
-10.88107571072048
 30
0.0
 10
1.752692328559025
 20
-10.88107571072048
 30
0.0
 10
1.752692328559025
 20
-10.88107571072048
 30
0.0
 10
3.280592176649305
 20
-10.88107571072048
 30
0.0
 10
10.90321044921874
 20
-10.32383151584201
 30
0.0
 10
10.90321044921874
 20
0.6792867024739583
 30
0.0
 10
10.90321044921874
 20
10.61700914171006
 30
0.0
 10
2.773129611545138
 20
10.87952541775172
 30
0.0
 10
2.691136338975693
 20
10.88090345594618
 30
0.0
 10
2.691136338975693
 20
10.88090345594618
 30
0.0
 10
-9.903099229600693
 20
10.88107571072048
 30
0.0
 10
-9.903099229600693
 20
10.88107571072048
 30
0.0
 10
-9.903099229600693
 20
10.88107571072048
 30
0.0
 10
-10.90321044921874
 20
10.88107571072048
 30
0.0
 10
-10.90321044921874
 20
10.88107571072048
 30
0.0
  0
SPLINE
  5
2649
330
2647
100
AcDbEntity
  8
LAYER_1
 62
     7
100
AcDbSpline
210
0.0
220
0.0
230
1.0
 70
    11
 71
     3
 72
    20
 73
    16
 74
     0
 42
0.0000000001
 43
0.0000000001
 40
0.0
 40
0.0
 40
0.0
 40
0.0
 40
1.0
 40
1.0
 40
1.0
 40
2.0
 40
2.0
 40
2.0
 40
3.0
 40
3.0
 40
3.0
 40
4.0
 40
4.0
 40
4.0
 40
5.0
 40
5.0
 40
5.0
 40
5.0
 10
2.672877332899305
 20
8.881197781032986
 30
0.0
 10
2.905421278211805
 20
8.874307590060762
 30
0.0
 10
8.902988009982637
 20
8.616442192925347
 30
0.0
 10
8.902988009982637
 20
0.6792867024739583
 30
0.0
 10
8.902988009982637
 20
-8.191661919487842
 30
0.0
 10
3.430109320746526
 20
-8.881197781032986
 30
0.0
 10
1.752692328559025
 20
-8.881197781032986
 30
0.0
 10
1.752692328559025
 20
-8.881197781032986
 30
0.0
 10
-7.231427680121528
 20
-8.881197781032986
 30
0.0
 10
-8.902988009982637
 20
-8.881197781032986
 30
0.0
 10
-8.902988009982637
 20
-7.174497477213541
 30
0.0
 10
-8.902988009982637
 20
7.174497477213541
 30
0.0
 10
-8.902988009982637
 20
8.881197781032986
 30
0.0
 10
-7.208690049913191
 20
8.881197781032986
 30
0.0
 10
2.672877332899305
 20
8.881197781032986
 30
0.0
 10
2.672877332899305
 20
8.881197781032986
 30
0.0
  0
ENDBLK
  5
264B
330
2647
100
AcDbEntity
  8
0
100
AcDbBlockEnd
  0
BLOCK
  5
264F
330
264C
100
AcDbEntity
  8
0
 62
     7
100
AcDbBlockBegin
  2
AI9-BLK13
 70
     0
 10
0.0
 20
0.0
 30
0.0
  3
AI9-BLK13
  1

  0
LWPOLYLINE
  5
264D
330
264C
100
AcDbEntity
  8
LAYER_1
 62
     7
100
AcDbPolyline
 90
       12
 70
     1
 43
0.0
 10
-3.792361111111107
 20
10.7376736111111
 10
-2.469444444444443
 20
10.7376736111111
 10
-2.469444444444443
 20
1.874131944444444
 10
2.469444444444443
 20
1.874131944444444
 10
2.469444444444443
 20
10.7376736111111
 10
3.792361111111107
 20
10.7376736111111
 10
3.792361111111107
 20
-10.7376736111111
 10
2.469444444444443
 20
-10.7376736111111
 10
2.469444444444443
 20
-0.6835069444444444
 10
-2.469444444444443
 20
-0.6835069444444444
 10
-2.469444444444443
 20
-10.7376736111111
 10
-3.792361111111107
 20
-10.7376736111111
  0
HATCH
  5
264E
330
264C
100
AcDbEntity
  8
LAYER_1
 62
     7
100
AcDbHatch
 10
0.0
 20
0.0
 30
0.0
210
0.0
220
0.0
230
1.0
  2
SOLID
 70
     1
 71
     0
 91
        1
 92
        3
 72
     0
 73
     1
 93
       12
 10
-3.792361111111107
 20
10.7376736111111
 10
-2.469444444444443
 20
10.7376736111111
 10
-2.469444444444443
 20
1.874131944444444
 10
2.469444444444443
 20
1.874131944444444
 10
2.469444444444443
 20
10.7376736111111
 10
3.792361111111107
 20
10.7376736111111
 10
3.792361111111107
 20
-10.7376736111111
 10
2.469444444444443
 20
-10.7376736111111
 10
2.469444444444443
 20
-0.6835069444444444
 10
-2.469444444444443
 20
-0.6835069444444444
 10
-2.469444444444443
 20
-10.7376736111111
 10
-3.792361111111107
 20
-10.7376736111111
 97
        0
 75
     2
 76
     1
 98
        1
 10
0.0
 20
0.0
  0
ENDBLK
  5
2650
330
264C
100
AcDbEntity
  8
0
100
AcDbBlockEnd
  0
BLOCK
  5
2654
330
2651
100
AcDbEntity
  8
0
 62
     7
100
AcDbBlockBegin
  2
AI9-BLK11
 70
     0
 10
0.0
 20
0.0
 30
0.0
  3
AI9-BLK11
  1

  0
SPLINE
  5
2652
330
2651
100
AcDbEntity
  8
LAYER_1
 62
     7
100
AcDbSpline
210
0.0
220
0.0
230
1.0
 70
    11
 71
     3
 72
    26
 73
    22
 74
     0
 42
0.0000000001
 43
0.0000000001
 40
0.0
 40
0.0
 40
0.0
 40
0.0
 40
1.0
 40
1.0
 40
1.0
 40
2.0
 40
2.0
 40
2.0
 40
3.0
 40
3.0
 40
3.0
 40
4.0
 40
4.0
 40
4.0
 40
5.0
 40
5.0
 40
5.0
 40
6.0
 40
6.0
 40
6.0
 40
7.0
 40
7.0
 40
7.0
 40
7.0
 10
-2.645833333333333
 20
0.9039930555555551
 30
0.0
 10
-2.645833333333333
 20
0.9039930555555551
 30
0.0
 10
-2.645833333333333
 20
8.180034722222217
 30
0.0
 10
-2.645833333333333
 20
8.180034722222217
 30
0.0
 10
-2.645833333333333
 20
8.180034722222217
 30
0.0
 10
0.465087890625
 20
8.180034722222217
 30
0.0
 10
0.465087890625
 20
8.180034722222217
 30
0.0
 10
0.9026150173611108
 20
8.180034722222217
 30
0.0
 10
1.24988064236111
 20
8.034651692708331
 30
0.0
 10
1.506884765625
 20
7.745263671874997
 30
0.0
 10
2.001600477430554
 20
7.194048394097221
 30
0.0
 10
2.248958333333332
 20
6.160519748263887
 30
0.0
 10
2.248958333333332
 20
4.643299696180553
 30
0.0
 10
2.248958333333332
 20
3.232188585069443
 30
0.0
 10
2.072569444444444
 20
2.256537543402775
 30
0.0
 10
1.720480685763888
 20
1.715657552083333
 30
0.0
 10
1.368391927083333
 20
1.174088541666665
 30
0.0
 10
0.8929687499999998
 20
0.9039930555555551
 30
0.0
 10
0.2942111545138888
 20
0.9039930555555551
 30
0.0
 10
0.2942111545138888
 20
0.9039930555555551
 30
0.0
 10
-2.645833333333333
 20
0.9039930555555551
 30
0.0
 10
-2.645833333333333
 20
0.9039930555555551
 30
0.0
  0
SPLINE
  5
2653
330
2651
100
AcDbEntity
  8
LAYER_1
 62
     7
100
AcDbSpline
210
0.0
220
0.0
230
1.0
 70
    11
 71
     3
 72
    68
 73
    64
 74
     0
 42
0.0000000001
 43
0.0000000001
 40
0.0
 40
0.0
 40
0.0
 40
0.0
 40
1.0
 40
1.0
 40
1.0
 40
2.0
 40
2.0
 40
2.0
 40
3.0
 40
3.0
 40
3.0
 40
4.0
 40
4.0
 40
4.0
 40
5.0
 40
5.0
 40
5.0
 40
6.0
 40
6.0
 40
6.0
 40
7.0
 40
7.0
 40
7.0
 40
8.0
 40
8.0
 40
8.0
 40
9.0
 40
9.0
 40
9.0
 40
10.0
 40
10.0
 40
10.0
 40
11.0
 40
11.0
 40
11.0
 40
12.0
 40
12.0
 40
12.0
 40
13.0
 40
13.0
 40
13.0
 40
14.0
 40
14.0
 40
14.0
 40
15.0
 40
15.0
 40
15.0
 40
16.0
 40
16.0
 40
16.0
 40
17.0
 40
17.0
 40
17.0
 40
18.0
 40
18.0
 40
18.0
 40
19.0
 40
19.0
 40
19.0
 40
20.0
 40
20.0
 40
20.0
 40
21.0
 40
21.0
 40
21.0
 40
21.0
 10
-3.968749999999998
 20
-10.7376736111111
 30
0.0
 10
-3.968749999999998
 20
-10.7376736111111
 30
0.0
 10
-2.645833333333333
 20
-10.7376736111111
 30
0.0
 10
-2.645833333333333
 20
-10.7376736111111
 30
0.0
 10
-2.645833333333333
 20
-10.7376736111111
 30
0.0
 10
-2.645833333333333
 20
-1.521354166666665
 30
0.0
 10
-2.645833333333333
 20
-1.521354166666665
 30
0.0
 10
-2.645833333333333
 20
-1.521354166666665
 30
0.0
 10
0.2390896267361111
 20
-1.521354166666665
 30
0.0
 10
0.2390896267361111
 20
-1.521354166666665
 30
0.0
 10
0.7599880642361111
 20
-1.521354166666665
 30
0.0
 10
1.143771701388887
 20
-1.65295681423611
 30
0.0
 10
1.390440538194444
 20
-1.916162109374999
 30
0.0
 10
1.816254340277773
 20
-2.39434136284722
 30
0.0
 10
2.04363064236111
 20
-3.335541449652775
 30
0.0
 10
2.072569444444444
 20
-4.739762369791666
 30
0.0
 10
2.072569444444444
 20
-4.739762369791666
 30
0.0
 10
2.160763888888888
 20
-8.324039713541665
 30
0.0
 10
2.160763888888888
 20
-8.324039713541665
 30
0.0
 10
2.18005642361111
 20
-9.163264973958332
 30
0.0
 10
2.202794053819443
 20
-9.728949652777775
 30
0.0
 10
2.227598741319444
 20
-10.02109374999998
 30
0.0
 10
2.252403428819443
 20
-10.31392686631944
 30
0.0
 10
2.28892144097222
 20
-10.55301649305555
 30
0.0
 10
2.33853081597222
 20
-10.7376736111111
 30
0.0
 10
2.33853081597222
 20
-10.7376736111111
 30
0.0
 10
3.968749999999998
 20
-10.7376736111111
 30
0.0
 10
3.968749999999998
 20
-10.7376736111111
 30
0.0
 10
3.968749999999998
 20
-10.7376736111111
 30
0.0
 10
3.968749999999998
 20
-10.25260416666666
 30
0.0
 10
3.968749999999998
 20
-10.25260416666666
 30
0.0
 10
3.766867404513888
 20
-10.05830078125
 30
0.0
 10
3.625618489583333
 20
-9.621462673611112
 30
0.0
 10
3.545692274305555
 20
-8.942089843749997
 30
0.0
 10
3.49470486111111
 20
-8.543836805555555
 30
0.0
 10
3.459564887152775
 20
-7.937499999999999
 30
0.0
 10
3.439583333333333
 20
-7.121701388888887
 30
0.0
 10
3.439583333333333
 20
-7.121701388888887
 30
0.0
 10
3.395486111111106
 20
-4.232644314236106
 30
0.0
 10
3.395486111111106
 20
-4.232644314236106
 30
0.0
 10
3.375504557291666
 20
-2.981385633680555
 30
0.0
 10
3.26870659722222
 20
-2.077392578125
 30
0.0
 10
3.075781249999999
 20
-1.522043185763888
 30
0.0
 10
2.882166883680555
 20
-0.9666937934027776
 30
0.0
 10
2.592089843749999
 20
-0.5188313802083333
 30
0.0
 10
2.204861111111106
 20
-0.1770779079861111
 30
0.0
 10
2.63618706597222
 20
0.3197048611111111
 30
0.0
 10
2.971739366319443
 20
0.9770290798611107
 30
0.0
 10
3.211518012152775
 20
1.79558376736111
 30
0.0
 10
3.451296657986107
 20
2.613449435763888
 30
0.0
 10
3.571874999999999
 20
3.66558159722222
 30
0.0
 10
3.571874999999999
 20
4.951291232638888
 30
0.0
 10
3.571874999999999
 20
7.415912543402777
 30
0.0
 10
3.124701605902775
 20
9.106076388888887
 30
0.0
 10
2.231043836805555
 20
10.02178276909722
 30
0.0
 10
1.759754774305553
 20
10.498583984375
 30
0.0
 10
1.163753255208332
 20
10.7376736111111
 30
0.0
 10
0.443039279513889
 20
10.7376736111111
 30
0.0
 10
0.443039279513889
 20
10.7376736111111
 30
0.0
 10
-3.968749999999998
 20
10.7376736111111
 30
0.0
 10
-3.968749999999998
 20
10.7376736111111
 30
0.0
 10
-3.968749999999998
 20
10.7376736111111
 30
0.0
 10
-3.968749999999998
 20
-10.7376736111111
 30
0.0
 10
-3.968749999999998
 20
-10.7376736111111
 30
0.0
  0
ENDBLK
  5
2655
330
2651
100
AcDbEntity
  8
0
100
AcDbBlockEnd
  0
BLOCK
  5
2658
330
2656
100
AcDbEntity
  8
0
 62
     7
100
AcDbBlockBegin
  2
AI9-BLK10
 70
     0
 10
0.0
 20
0.0
 30
0.0
  3
AI9-BLK10
  1

  0
SPLINE
  5
2657
330
2656
100
AcDbEntity
  8
LAYER_1
 62
     7
100
AcDbSpline
210
0.0
220
0.0
230
1.0
 70
    11
 71
     3
 72
    59
 73
    55
 74
     0
 42
0.0000000001
 43
0.0000000001
 40
0.0
 40
0.0
 40
0.0
 40
0.0
 40
1.0
 40
1.0
 40
1.0
 40
2.0
 40
2.0
 40
2.0
 40
3.0
 40
3.0
 40
3.0
 40
4.0
 40
4.0
 40
4.0
 40
5.0
 40
5.0
 40
5.0
 40
6.0
 40
6.0
 40
6.0
 40
7.0
 40
7.0
 40
7.0
 40
8.0
 40
8.0
 40
8.0
 40
9.0
 40
9.0
 40
9.0
 40
10.0
 40
10.0
 40
10.0
 40
11.0
 40
11.0
 40
11.0
 40
12.0
 40
12.0
 40
12.0
 40
13.0
 40
13.0
 40
13.0
 40
14.0
 40
14.0
 40
14.0
 40
15.0
 40
15.0
 40
15.0
 40
16.0
 40
16.0
 40
16.0
 40
17.0
 40
17.0
 40
17.0
 40
18.0
 40
18.0
 40
18.0
 40
18.0
 10
-4.652256944444443
 20
10.7376736111111
 30
0.0
 10
-4.652256944444443
 20
10.7376736111111
 30
0.0
 10
-2.798795572916666
 20
10.7376736111111
 30
0.0
 10
-2.798795572916666
 20
10.7376736111111
 30
0.0
 10
-2.798795572916666
 20
10.7376736111111
 30
0.0
 10
0.0
 20
-7.419357638888887
 30
0.0
 10
0.0
 20
-7.419357638888887
 30
0.0
 10
0.0
 20
-7.419357638888887
 30
0.0
 10
2.793283420138888
 20
10.7376736111111
 30
0.0
 10
2.793283420138888
 20
10.7376736111111
 30
0.0
 10
2.793283420138888
 20
10.7376736111111
 30
0.0
 10
4.652256944444443
 20
10.7376736111111
 30
0.0
 10
4.652256944444443
 20
10.7376736111111
 30
0.0
 10
4.652256944444443
 20
10.7376736111111
 30
0.0
 10
4.652256944444443
 20
-10.7376736111111
 30
0.0
 10
4.652256944444443
 20
-10.7376736111111
 30
0.0
 10
4.652256944444443
 20
-10.7376736111111
 30
0.0
 10
3.41753472222222
 20
-10.7376736111111
 30
0.0
 10
3.41753472222222
 20
-10.7376736111111
 30
0.0
 10
3.41753472222222
 20
-10.7376736111111
 30
0.0
 10
3.41753472222222
 20
1.936832682291665
 30
0.0
 10
3.41753472222222
 20
1.936832682291665
 30
0.0
 10
3.41753472222222
 20
2.375048828124999
 30
0.0
 10
3.424424913194443
 20
3.101274956597221
 30
0.0
 10
3.439583333333333
 20
4.11482204861111
 30
0.0
 10
3.454052734374998
 20
5.128369140624998
 30
0.0
 10
3.461631944444443
 20
6.214952256944441
 30
0.0
 10
3.461631944444443
 20
7.375260416666666
 30
0.0
 10
3.461631944444443
 20
7.375260416666666
 30
0.0
 10
0.6538791232638889
 20
-10.7376736111111
 30
0.0
 10
0.6538791232638889
 20
-10.7376736111111
 30
0.0
 10
0.6538791232638889
 20
-10.7376736111111
 30
0.0
 10
-0.6628363715277778
 20
-10.7376736111111
 30
0.0
 10
-0.6628363715277778
 20
-10.7376736111111
 30
0.0
 10
-0.6628363715277778
 20
-10.7376736111111
 30
0.0
 10
-3.461631944444443
 20
7.375260416666666
 30
0.0
 10
-3.461631944444443
 20
7.375260416666666
 30
0.0
 10
-3.461631944444443
 20
7.375260416666666
 30
0.0
 10
-3.461631944444443
 20
6.717247178819441
 30
0.0
 10
-3.461631944444443
 20
6.717247178819441
 30
0.0
 10
-3.461631944444443
 20
6.190836588541666
 30
0.0
 10
-3.45474175347222
 20
5.389507378472222
 30
0.0
 10
-3.439583333333333
 20
4.312570529513888
 30
0.0
 10
-3.425113932291666
 20
3.235633680555555
 30
0.0
 10
-3.41753472222222
 20
2.44395073784722
 30
0.0
 10
-3.41753472222222
 20
1.936832682291665
 30
0.0
 10
-3.41753472222222
 20
1.936832682291665
 30
0.0
 10
-3.41753472222222
 20
-10.7376736111111
 30
0.0
 10
-3.41753472222222
 20
-10.7376736111111
 30
0.0
 10
-3.41753472222222
 20
-10.7376736111111
 30
0.0
 10
-4.652256944444443
 20
-10.7376736111111
 30
0.0
 10
-4.652256944444443
 20
-10.7376736111111
 30
0.0
 10
-4.652256944444443
 20
-10.7376736111111
 30
0.0
 10
-4.652256944444443
 20
10.7376736111111
 30
0.0
 10
-4.652256944444443
 20
10.7376736111111
 30
0.0
  0
ENDBLK
  5
2659
330
2656
100
AcDbEntity
  8
0
100
AcDbBlockEnd
  0
BLOCK
  5
265D
330
265A
100
AcDbEntity
  8
0
 62
     7
100
AcDbBlockBegin
  2
AI9-BLK9
 70
     0
 10
0.0
 20
0.0
 30
0.0
  3
AI9-BLK9
  1

  0
SPLINE
  5
265B
330
265A
100
AcDbEntity
  8
LAYER_1
 62
     7
100
AcDbSpline
210
0.0
220
0.0
230
1.0
 70
    11
 71
     3
 72
    29
 73
    25
 74
     0
 42
0.0000000001
 43
0.0000000001
 40
0.0
 40
0.0
 40
0.0
 40
0.0
 40
1.0
 40
1.0
 40
1.0
 40
2.0
 40
2.0
 40
2.0
 40
3.0
 40
3.0
 40
3.0
 40
4.0
 40
4.0
 40
4.0
 40
5.0
 40
5.0
 40
5.0
 40
6.0
 40
6.0
 40
6.0
 40
7.0
 40
7.0
 40
7.0
 40
8.0
 40
8.0
 40
8.0
 40
8.0
 10
0.0668348524305556
 20
-8.753298611111111
 30
0.0
 10
-0.9067491319444444
 20
-8.753298611111111
 30
0.0
 10
-1.60954861111111
 20
-7.936810980902778
 30
0.0
 10
-2.041563585069444
 20
-6.30383572048611
 30
0.0
 10
-2.474267578124999
 20
-4.670860460069443
 30
0.0
 10
-2.689930555555555
 20
-2.664436848958333
 30
0.0
 10
-2.689930555555555
 20
-0.28525390625
 30
0.0
 10
-2.689930555555555
 20
2.68855251736111
 30
0.0
 10
-2.439127604166666
 20
4.938199869791666
 30
0.0
 10
-1.937521701388888
 20
6.464377170138886
 30
0.0
 10
-1.43591579861111
 20
7.989865451388887
 30
0.0
 10
-0.7827256944444444
 20
8.753298611111111
 30
0.0
 10
0.0220486111111111
 20
8.753298611111111
 30
0.0
 10
0.8468044704861108
 20
8.753298611111111
 30
0.0
 10
1.49792751736111
 20
7.982975260416663
 30
0.0
 10
1.974728732638888
 20
6.442328559027776
 30
0.0
 10
2.451529947916665
 20
4.901681857638886
 30
0.0
 10
2.689930555555555
 20
2.868386501736111
 30
0.0
 10
2.689930555555555
 20
0.3438205295138888
 30
0.0
 10
2.689930555555555
 20
-2.045697699652774
 30
0.0
 10
2.483224826388884
 20
-4.15891927083333
 30
0.0
 10
2.071191406249999
 20
-5.996533203124998
 30
0.0
 10
1.65915798611111
 20
-7.834836154513887
 30
0.0
 10
0.9908094618055557
 20
-8.753298611111111
 30
0.0
 10
0.0668348524305556
 20
-8.753298611111111
 30
0.0
  0
SPLINE
  5
265C
330
265A
100
AcDbEntity
  8
LAYER_1
 62
     7
100
AcDbSpline
210
0.0
220
0.0
230
1.0
 70
    11
 71
     3
 72
    29
 73
    25
 74
     0
 42
0.0000000001
 43
0.0000000001
 40
0.0
 40
0.0
 40
0.0
 40
0.0
 40
1.0
 40
1.0
 40
1.0
 40
2.0
 40
2.0
 40
2.0
 40
3.0
 40
3.0
 40
3.0
 40
4.0
 40
4.0
 40
4.0
 40
5.0
 40
5.0
 40
5.0
 40
6.0
 40
6.0
 40
6.0
 40
7.0
 40
7.0
 40
7.0
 40
8.0
 40
8.0
 40
8.0
 40
8.0
 10
-0.0289388020833333
 20
11.35503472222222
 30
0.0
 10
-1.317404513888887
 20
11.35503472222222
 30
0.0
 10
-2.28892144097222
 20
10.02798394097222
 30
0.0
 10
-2.94280056423611
 20
7.374571397569441
 30
0.0
 10
-3.450607638888888
 20
5.30613606770833
 30
0.0
 10
-3.704166666666666
 20
2.81877712673611
 30
0.0
 10
-3.704166666666666
 20
-0.0881944444444445
 30
0.0
 10
-3.704166666666666
 20
-3.307291666666666
 30
0.0
 10
-3.406510416666666
 20
-5.97035047743055
 30
0.0
 10
-2.811197916666666
 20
-8.077370876736106
 30
0.0
 10
-2.147672526041664
 20
-10.26293945312499
 30
0.0
 10
-1.229899088541666
 20
-11.35503472222222
 30
0.0
 10
-0.0585666232638889
 20
-11.35503472222222
 30
0.0
 10
1.20027126736111
 20
-11.35503472222222
 30
0.0
 10
2.166276041666665
 20
-10.10653211805555
 30
0.0
 10
2.840136718749998
 20
-7.609526909722221
 30
0.0
 10
3.416156684027776
 20
-5.483213975694441
 30
0.0
 10
3.704166666666666
 20
-2.814643012152775
 30
0.0
 10
3.704166666666666
 20
0.3948079427083333
 30
0.0
 10
3.704166666666666
 20
3.360346137152776
 30
0.0
 10
3.449918619791666
 20
5.793961588541666
 30
0.0
 10
2.94280056423611
 20
7.696343315972222
 30
0.0
 10
2.298567708333333
 20
10.13547092013888
 30
0.0
 10
1.307758246527777
 20
11.35503472222222
 30
0.0
 10
-0.0289388020833333
 20
11.35503472222222
 30
0.0
  0
ENDBLK
  5
265E
330
265A
100
AcDbEntity
  8
0
100
AcDbBlockEnd
  0
BLOCK
  5
2662
330
265F
100
AcDbEntity
  8
0
 62
     7
100
AcDbBlockBegin
  2
AI9-BLK8
 70
     0
 10
0.0
 20
0.0
 30
0.0
  3
AI9-BLK8
  1

  0
LWPOLYLINE
  5
2660
330
265F
100
AcDbEntity
  8
LAYER_1
 62
     7
100
AcDbPolyline
 90
       10
 70
     1
 43
0.0
 10
-3.792361111111107
 20
10.7376736111111
 10
-2.268939887152773
 20
10.7376736111111
 10
2.557638888888888
 20
-6.505718315972222
 10
2.557638888888888
 20
10.7376736111111
 10
3.792361111111107
 20
10.7376736111111
 10
3.792361111111107
 20
-10.7376736111111
 10
2.32612847222222
 20
-10.7376736111111
 10
-2.557638888888888
 20
6.549815538194441
 10
-2.557638888888888
 20
-10.7376736111111
 10
-3.792361111111107
 20
-10.7376736111111
  0
HATCH
  5
2661
330
265F
100
AcDbEntity
  8
LAYER_1
 62
     7
100
AcDbHatch
 10
0.0
 20
0.0
 30
0.0
210
0.0
220
0.0
230
1.0
  2
SOLID
 70
     1
 71
     0
 91
        1
 92
        3
 72
     0
 73
     1
 93
       10
 10
-3.792361111111107
 20
10.7376736111111
 10
-2.268939887152773
 20
10.7376736111111
 10
2.557638888888888
 20
-6.505718315972222
 10
2.557638888888888
 20
10.7376736111111
 10
3.792361111111107
 20
10.7376736111111
 10
3.792361111111107
 20
-10.7376736111111
 10
2.32612847222222
 20
-10.7376736111111
 10
-2.557638888888888
 20
6.549815538194441
 10
-2.557638888888888
 20
-10.7376736111111
 10
-3.792361111111107
 20
-10.7376736111111
 97
        0
 75
     2
 76
     1
 98
        1
 10
0.0
 20
0.0
  0
ENDBLK
  5
2663
330
265F
100
AcDbEntity
  8
0
100
AcDbBlockEnd
  0
BLOCK
  5
2667
330
2664
100
AcDbEntity
  8
0
 62
     7
100
AcDbBlockBegin
  2
AI9-BLK7
 70
     0
 10
0.0
 20
0.0
 30
0.0
  3
AI9-BLK7
  1

  0
LWPOLYLINE
  5
2665
330
2664
100
AcDbEntity
  8
LAYER_1
 62
     7
100
AcDbPolyline
 90
        4
 70
     1
 43
0.0
 10
-0.6614583333333333
 20
10.7376736111111
 10
0.6614583333333333
 20
10.7376736111111
 10
0.6614583333333333
 20
-10.7376736111111
 10
-0.6614583333333333
 20
-10.7376736111111
  0
HATCH
  5
2666
330
2664
100
AcDbEntity
  8
LAYER_1
 62
     7
100
AcDbHatch
 10
0.0
 20
0.0
 30
0.0
210
0.0
220
0.0
230
1.0
  2
SOLID
 70
     1
 71
     0
 91
        1
 92
        3
 72
     0
 73
     1
 93
        4
 10
-0.6614583333333333
 20
10.7376736111111
 10
0.6614583333333333
 20
10.7376736111111
 10
0.6614583333333333
 20
-10.7376736111111
 10
-0.6614583333333333
 20
-10.7376736111111
 97
        0
 75
     2
 76
     1
 98
        1
 10
0.0
 20
0.0
  0
ENDBLK
  5
2668
330
2664
100
AcDbEntity
  8
0
100
AcDbBlockEnd
  0
BLOCK
  5
266B
330
2669
100
AcDbEntity
  8
0
 62
     7
100
AcDbBlockBegin
  2
AI9-BLK6
 70
     0
 10
0.0
 20
0.0
 30
0.0
  3
AI9-BLK6
  1

  0
SPLINE
  5
266A
330
2669
100
AcDbEntity
  8
LAYER_1
 62
     7
100
AcDbSpline
210
0.0
220
0.0
230
1.0
 70
    11
 71
     3
 72
    59
 73
    55
 74
     0
 42
0.0000000001
 43
0.0000000001
 40
0.0
 40
0.0
 40
0.0
 40
0.0
 40
1.0
 40
1.0
 40
1.0
 40
2.0
 40
2.0
 40
2.0
 40
3.0
 40
3.0
 40
3.0
 40
4.0
 40
4.0
 40
4.0
 40
5.0
 40
5.0
 40
5.0
 40
6.0
 40
6.0
 40
6.0
 40
7.0
 40
7.0
 40
7.0
 40
8.0
 40
8.0
 40
8.0
 40
9.0
 40
9.0
 40
9.0
 40
10.0
 40
10.0
 40
10.0
 40
11.0
 40
11.0
 40
11.0
 40
12.0
 40
12.0
 40
12.0
 40
13.0
 40
13.0
 40
13.0
 40
14.0
 40
14.0
 40
14.0
 40
15.0
 40
15.0
 40
15.0
 40
16.0
 40
16.0
 40
16.0
 40
17.0
 40
17.0
 40
17.0
 40
18.0
 40
18.0
 40
18.0
 40
18.0
 10
3.062689887152775
 20
9.168088107638887
 30
0.0
 10
3.735172526041666
 20
7.739062499999997
 30
0.0
 10
4.110687934027776
 20
6.116422526041666
 30
0.0
 10
4.189236111111108
 20
4.299479166666666
 30
0.0
 10
4.189236111111108
 20
4.299479166666666
 30
0.0
 10
2.866319444444443
 20
4.299479166666666
 30
0.0
 10
2.866319444444443
 20
4.299479166666666
 30
0.0
 10
2.720936414930555
 20
5.667871093749997
 30
0.0
 10
2.435682508680555
 20
6.752387152777776
 30
0.0
 10
2.009868706597218
 20
7.553027343749997
 30
0.0
 10
1.584054904513888
 20
8.352978515624997
 30
0.0
 10
0.9839192708333332
 20
8.753298611111111
 30
0.0
 10
0.2101508246527778
 20
8.753298611111111
 30
0.0
 10
-0.7386284722222222
 20
8.753298611111111
 30
0.0
 10
-1.503439670138888
 20
8.010536024305555
 30
0.0
 10
-2.083593749999999
 20
6.526388888888886
 30
0.0
 10
-2.664436848958333
 20
5.042241753472221
 30
0.0
 10
-2.954513888888888
 20
2.767100694444443
 30
0.0
 10
-2.954513888888888
 20
-0.2990342881944444
 30
0.0
 10
-2.954513888888888
 20
-2.811197916666666
 30
0.0
 10
-2.693375651041666
 20
-4.847938368055555
 30
0.0
 10
-2.17041015625
 20
-6.409944661458332
 30
0.0
 10
-1.648133680555553
 20
-7.972639973958332
 30
0.0
 10
-0.8640299479166666
 20
-8.753298611111111
 30
0.0
 10
0.1812120225694444
 20
-8.753298611111111
 30
0.0
 10
1.138948567708333
 20
-8.753298611111111
 30
0.0
 10
1.865174696180553
 20
-7.927853732638887
 30
0.0
 10
2.359201388888884
 20
-6.275585937499998
 30
0.0
 10
2.62998589409722
 20
-5.406043836805555
 30
0.0
 10
2.828423394097221
 20
-4.262272135416666
 30
0.0
 10
2.954513888888888
 20
-2.844270833333331
 30
0.0
 10
2.954513888888888
 20
-2.844270833333331
 30
0.0
 10
4.277430555555555
 20
-2.844270833333331
 30
0.0
 10
4.277430555555555
 20
-2.844270833333331
 30
0.0
 10
4.169943576388888
 20
-5.109765624999996
 30
0.0
 10
3.795117187499998
 20
-7.009391276041665
 30
0.0
 10
3.151573350694443
 20
-8.542458767361106
 30
0.0
 10
2.381249999999999
 20
-10.38834092881943
 30
0.0
 10
1.347721354166665
 20
-11.3109375
 30
0.0
 10
0.0509874131944445
 20
-11.3109375
 30
0.0
 10
-1.07004665798611
 20
-11.3109375
 30
0.0
 10
-2.010557725694444
 20
-10.55577256944443
 30
0.0
 10
-2.771234809027776
 20
-9.04475368923611
 30
0.0
 10
-3.775824652777775
 20
-7.046598307291666
 30
0.0
 10
-4.277430555555555
 20
-3.961170789930555
 30
0.0
 10
-4.277430555555555
 20
0.2115288628472222
 30
0.0
 10
-4.277430555555555
 20
3.379638671874998
 30
0.0
 10
-3.902604166666666
 20
5.977929687499997
 30
0.0
 10
-3.151573350694443
 20
8.005712890624996
 30
0.0
 10
-2.333018663194443
 20
10.20919596354165
 30
0.0
 10
-1.20647243923611
 20
11.3109375
 30
0.0
 10
0.2266872829861111
 20
11.3109375
 30
0.0
 10
1.444873046875
 20
11.3109375
 30
0.0
 10
2.390207248263884
 20
10.59642469618055
 30
0.0
 10
3.062689887152775
 20
9.168088107638887
 30
0.0
  0
ENDBLK
  5
266C
330
2669
100
AcDbEntity
  8
0
100
AcDbBlockEnd
  0
BLOCK
  5
2670
330
266D
100
AcDbEntity
  8
0
 62
     7
100
AcDbBlockBegin
  2
AI9-BLK5
 70
     0
 10
0.0
 20
0.0
 30
0.0
  3
AI9-BLK5
  1

  0
SPLINE
  5
266E
330
266D
100
AcDbEntity
  8
LAYER_1
 62
     7
100
AcDbSpline
210
0.0
220
0.0
230
1.0
 70
    11
 71
     3
 72
    32
 73
    28
 74
     0
 42
0.0000000001
 43
0.0000000001
 40
0.0
 40
0.0
 40
0.0
 40
0.0
 40
1.0
 40
1.0
 40
1.0
 40
2.0
 40
2.0
 40
2.0
 40
3.0
 40
3.0
 40
3.0
 40
4.0
 40
4.0
 40
4.0
 40
5.0
 40
5.0
 40
5.0
 40
6.0
 40
6.0
 40
6.0
 40
7.0
 40
7.0
 40
7.0
 40
8.0
 40
8.0
 40
8.0
 40
9.0
 40
9.0
 40
9.0
 40
9.0
 10
-2.62378472222222
 20
-8.268229166666666
 30
0.0
 10
-2.62378472222222
 20
-8.268229166666666
 30
0.0
 10
-2.62378472222222
 20
8.180034722222217
 30
0.0
 10
-2.62378472222222
 20
8.180034722222217
 30
0.0
 10
-2.62378472222222
 20
8.180034722222217
 30
0.0
 10
-0.3376193576388888
 20
8.180034722222217
 30
0.0
 10
-0.3376193576388888
 20
8.180034722222217
 30
0.0
 10
0.6972873263888888
 20
8.180034722222217
 30
0.0
 10
1.449007161458333
 20
7.445540364583332
 30
0.0
 10
1.918918185763885
 20
5.977929687499997
 30
0.0
 10
2.388829210069443
 20
4.510319010416666
 30
0.0
 10
2.62378472222222
 20
2.449462890624999
 30
0.0
 10
2.62378472222222
 20
-0.204638671875
 30
0.0
 10
2.62378472222222
 20
-0.8950358072916666
 30
0.0
 10
2.590022786458332
 20
-1.643310546874999
 30
0.0
 10
2.523187934027773
 20
-2.45015190972222
 30
0.0
 10
2.408121744791666
 20
-3.80200737847222
 30
0.0
 10
2.226220703124999
 20
-4.909950086805555
 30
0.0
 10
1.976795789930553
 20
-5.774669053819441
 30
0.0
 10
1.659847005208333
 20
-6.853672960069442
 30
0.0
 10
1.252636718749998
 20
-7.583344184027778
 30
0.0
 10
0.7544759114583333
 20
-7.962304687499997
 30
0.0
 10
0.4664659288194444
 20
-8.166254340277777
 30
0.0
 10
0.1074869791666666
 20
-8.268229166666666
 30
0.0
 10
-0.3231499565972222
 20
-8.268229166666666
 30
0.0
 10
-0.3231499565972222
 20
-8.268229166666666
 30
0.0
 10
-2.62378472222222
 20
-8.268229166666666
 30
0.0
 10
-2.62378472222222
 20
-8.268229166666666
 30
0.0
  0
SPLINE
  5
266F
330
266D
100
AcDbEntity
  8
LAYER_1
 62
     7
100
AcDbSpline
210
0.0
220
0.0
230
1.0
 70
    11
 71
     3
 72
    26
 73
    22
 74
     0
 42
0.0000000001
 43
0.0000000001
 40
0.0
 40
0.0
 40
0.0
 40
0.0
 40
1.0
 40
1.0
 40
1.0
 40
2.0
 40
2.0
 40
2.0
 40
3.0
 40
3.0
 40
3.0
 40
4.0
 40
4.0
 40
4.0
 40
5.0
 40
5.0
 40
5.0
 40
6.0
 40
6.0
 40
6.0
 40
7.0
 40
7.0
 40
7.0
 40
7.0
 10
-3.946701388888888
 20
-10.7376736111111
 30
0.0
 10
-3.946701388888888
 20
-10.7376736111111
 30
0.0
 10
-0.0943956163194444
 20
-10.7376736111111
 30
0.0
 10
-0.0943956163194444
 20
-10.7376736111111
 30
0.0
 10
1.546847873263885
 20
-10.7376736111111
 30
0.0
 10
2.705777994791666
 20
-9.11021050347222
 30
0.0
 10
3.381705729166666
 20
-5.854595269097222
 30
0.0
 10
3.757910156249999
 20
-4.01284722222222
 30
0.0
 10
3.946701388888888
 20
-1.951991102430555
 30
0.0
 10
3.946701388888888
 20
0.328662109375
 30
0.0
 10
3.946701388888888
 20
3.281797960069443
 30
0.0
 10
3.622862413194443
 20
5.703700086805552
 30
0.0
 10
2.976562499999998
 20
7.594368489583332
 30
0.0
 10
2.25171440972222
 20
9.689675564236106
 30
0.0
 10
1.233344184027777
 20
10.7376736111111
 30
0.0
 10
-0.0799262152777778
 20
10.7376736111111
 30
0.0
 10
-0.0799262152777778
 20
10.7376736111111
 30
0.0
 10
-3.946701388888888
 20
10.7376736111111
 30
0.0
 10
-3.946701388888888
 20
10.7376736111111
 30
0.0
 10
-3.946701388888888
 20
10.7376736111111
 30
0.0
 10
-3.946701388888888
 20
-10.7376736111111
 30
0.0
 10
-3.946701388888888
 20
-10.7376736111111
 30
0.0
  0
ENDBLK
  5
2671
330
266D
100
AcDbEntity
  8
0
100
AcDbBlockEnd
  0
BLOCK
  5
2675
330
2672
100
AcDbEntity
  8
0
 62
     7
100
AcDbBlockBegin
  2
AI9-BLK4
 70
     0
 10
0.0
 20
0.0
 30
0.0
  3
AI9-BLK4
  1

  0
SPLINE
  5
2673
330
2672
100
AcDbEntity
  8
LAYER_1
 62
     7
100
AcDbSpline
210
0.0
220
0.0
230
1.0
 70
    11
 71
     3
 72
    26
 73
    22
 74
     0
 42
0.0000000001
 43
0.0000000001
 40
0.0
 40
0.0
 40
0.0
 40
0.0
 40
1.0
 40
1.0
 40
1.0
 40
2.0
 40
2.0
 40
2.0
 40
3.0
 40
3.0
 40
3.0
 40
4.0
 40
4.0
 40
4.0
 40
5.0
 40
5.0
 40
5.0
 40
6.0
 40
6.0
 40
6.0
 40
7.0
 40
7.0
 40
7.0
 40
7.0
 10
-2.645833333333333
 20
0.9039930555555551
 30
0.0
 10
-2.645833333333333
 20
0.9039930555555551
 30
0.0
 10
-2.645833333333333
 20
8.180034722222217
 30
0.0
 10
-2.645833333333333
 20
8.180034722222217
 30
0.0
 10
-2.645833333333333
 20
8.180034722222217
 30
0.0
 10
0.465087890625
 20
8.180034722222217
 30
0.0
 10
0.465087890625
 20
8.180034722222217
 30
0.0
 10
0.9026150173611108
 20
8.180034722222217
 30
0.0
 10
1.24988064236111
 20
8.034651692708331
 30
0.0
 10
1.506884765625
 20
7.745263671874997
 30
0.0
 10
2.001600477430554
 20
7.194048394097221
 30
0.0
 10
2.248958333333332
 20
6.160519748263887
 30
0.0
 10
2.248958333333332
 20
4.643299696180553
 30
0.0
 10
2.248958333333332
 20
3.232188585069443
 30
0.0
 10
2.072569444444444
 20
2.256537543402775
 30
0.0
 10
1.720480685763888
 20
1.715657552083333
 30
0.0
 10
1.368391927083333
 20
1.174088541666665
 30
0.0
 10
0.8929687499999998
 20
0.9039930555555551
 30
0.0
 10
0.2942111545138888
 20
0.9039930555555551
 30
0.0
 10
0.2942111545138888
 20
0.9039930555555551
 30
0.0
 10
-2.645833333333333
 20
0.9039930555555551
 30
0.0
 10
-2.645833333333333
 20
0.9039930555555551
 30
0.0
  0
SPLINE
  5
2674
330
2672
100
AcDbEntity
  8
LAYER_1
 62
     7
100
AcDbSpline
210
0.0
220
0.0
230
1.0
 70
    11
 71
     3
 72
    68
 73
    64
 74
     0
 42
0.0000000001
 43
0.0000000001
 40
0.0
 40
0.0
 40
0.0
 40
0.0
 40
1.0
 40
1.0
 40
1.0
 40
2.0
 40
2.0
 40
2.0
 40
3.0
 40
3.0
 40
3.0
 40
4.0
 40
4.0
 40
4.0
 40
5.0
 40
5.0
 40
5.0
 40
6.0
 40
6.0
 40
6.0
 40
7.0
 40
7.0
 40
7.0
 40
8.0
 40
8.0
 40
8.0
 40
9.0
 40
9.0
 40
9.0
 40
10.0
 40
10.0
 40
10.0
 40
11.0
 40
11.0
 40
11.0
 40
12.0
 40
12.0
 40
12.0
 40
13.0
 40
13.0
 40
13.0
 40
14.0
 40
14.0
 40
14.0
 40
15.0
 40
15.0
 40
15.0
 40
16.0
 40
16.0
 40
16.0
 40
17.0
 40
17.0
 40
17.0
 40
18.0
 40
18.0
 40
18.0
 40
19.0
 40
19.0
 40
19.0
 40
20.0
 40
20.0
 40
20.0
 40
21.0
 40
21.0
 40
21.0
 40
21.0
 10
-3.968749999999998
 20
-10.7376736111111
 30
0.0
 10
-3.968749999999998
 20
-10.7376736111111
 30
0.0
 10
-2.645833333333333
 20
-10.7376736111111
 30
0.0
 10
-2.645833333333333
 20
-10.7376736111111
 30
0.0
 10
-2.645833333333333
 20
-10.7376736111111
 30
0.0
 10
-2.645833333333333
 20
-1.521354166666665
 30
0.0
 10
-2.645833333333333
 20
-1.521354166666665
 30
0.0
 10
-2.645833333333333
 20
-1.521354166666665
 30
0.0
 10
0.2390896267361111
 20
-1.521354166666665
 30
0.0
 10
0.2390896267361111
 20
-1.521354166666665
 30
0.0
 10
0.7599880642361111
 20
-1.521354166666665
 30
0.0
 10
1.143771701388887
 20
-1.65295681423611
 30
0.0
 10
1.390440538194444
 20
-1.916162109374999
 30
0.0
 10
1.816254340277773
 20
-2.39434136284722
 30
0.0
 10
2.04363064236111
 20
-3.335541449652775
 30
0.0
 10
2.072569444444444
 20
-4.739762369791666
 30
0.0
 10
2.072569444444444
 20
-4.739762369791666
 30
0.0
 10
2.160763888888888
 20
-8.324039713541665
 30
0.0
 10
2.160763888888888
 20
-8.324039713541665
 30
0.0
 10
2.18005642361111
 20
-9.163264973958332
 30
0.0
 10
2.202794053819443
 20
-9.728949652777775
 30
0.0
 10
2.227598741319444
 20
-10.02109374999998
 30
0.0
 10
2.252403428819443
 20
-10.31392686631944
 30
0.0
 10
2.28892144097222
 20
-10.55301649305555
 30
0.0
 10
2.33853081597222
 20
-10.7376736111111
 30
0.0
 10
2.33853081597222
 20
-10.7376736111111
 30
0.0
 10
3.968749999999998
 20
-10.7376736111111
 30
0.0
 10
3.968749999999998
 20
-10.7376736111111
 30
0.0
 10
3.968749999999998
 20
-10.7376736111111
 30
0.0
 10
3.968749999999998
 20
-10.25260416666666
 30
0.0
 10
3.968749999999998
 20
-10.25260416666666
 30
0.0
 10
3.766867404513888
 20
-10.05830078125
 30
0.0
 10
3.625618489583333
 20
-9.621462673611112
 30
0.0
 10
3.545692274305555
 20
-8.942089843749997
 30
0.0
 10
3.49470486111111
 20
-8.543836805555555
 30
0.0
 10
3.459564887152775
 20
-7.937499999999999
 30
0.0
 10
3.439583333333333
 20
-7.121701388888887
 30
0.0
 10
3.439583333333333
 20
-7.121701388888887
 30
0.0
 10
3.395486111111106
 20
-4.232644314236106
 30
0.0
 10
3.395486111111106
 20
-4.232644314236106
 30
0.0
 10
3.375504557291666
 20
-2.981385633680555
 30
0.0
 10
3.26870659722222
 20
-2.077392578125
 30
0.0
 10
3.075781249999999
 20
-1.522043185763888
 30
0.0
 10
2.882166883680555
 20
-0.9666937934027776
 30
0.0
 10
2.592089843749999
 20
-0.5188313802083333
 30
0.0
 10
2.204861111111106
 20
-0.1770779079861111
 30
0.0
 10
2.63618706597222
 20
0.3197048611111111
 30
0.0
 10
2.971739366319443
 20
0.9770290798611107
 30
0.0
 10
3.211518012152775
 20
1.79558376736111
 30
0.0
 10
3.451296657986107
 20
2.613449435763888
 30
0.0
 10
3.571874999999999
 20
3.66558159722222
 30
0.0
 10
3.571874999999999
 20
4.951291232638888
 30
0.0
 10
3.571874999999999
 20
7.415912543402777
 30
0.0
 10
3.124701605902775
 20
9.106076388888887
 30
0.0
 10
2.231043836805555
 20
10.02178276909722
 30
0.0
 10
1.759754774305553
 20
10.498583984375
 30
0.0
 10
1.163753255208332
 20
10.7376736111111
 30
0.0
 10
0.443039279513889
 20
10.7376736111111
 30
0.0
 10
0.443039279513889
 20
10.7376736111111
 30
0.0
 10
-3.968749999999998
 20
10.7376736111111
 30
0.0
 10
-3.968749999999998
 20
10.7376736111111
 30
0.0
 10
-3.968749999999998
 20
10.7376736111111
 30
0.0
 10
-3.968749999999998
 20
-10.7376736111111
 30
0.0
 10
-3.968749999999998
 20
-10.7376736111111
 30
0.0
  0
ENDBLK
  5
2676
330
2672
100
AcDbEntity
  8
0
100
AcDbBlockEnd
  0
BLOCK
  5
267A
330
2677
100
AcDbEntity
  8
0
 62
     7
100
AcDbBlockBegin
  2
AI9-BLK3
 70
     0
 10
0.0
 20
0.0
 30
0.0
  3
AI9-BLK3
  1

  0
LWPOLYLINE
  5
2678
330
2677
100
AcDbEntity
  8
LAYER_1
 62
     7
100
AcDbPolyline
 90
        4
 70
     1
 43
0.0
 10
-0.6613722059461809
 20
10.7376736111111
 10
0.6613722059461809
 20
10.7376736111111
 10
0.6613722059461809
 20
-10.7376736111111
 10
-0.6613722059461809
 20
-10.7376736111111
  0
HATCH
  5
2679
330
2677
100
AcDbEntity
  8
LAYER_1
 62
     7
100
AcDbHatch
 10
0.0
 20
0.0
 30
0.0
210
0.0
220
0.0
230
1.0
  2
SOLID
 70
     1
 71
     0
 91
        1
 92
        3
 72
     0
 73
     1
 93
        4
 10
-0.6613722059461809
 20
10.7376736111111
 10
0.6613722059461809
 20
10.7376736111111
 10
0.6613722059461809
 20
-10.7376736111111
 10
-0.6613722059461809
 20
-10.7376736111111
 97
        0
 75
     2
 76
     1
 98
        1
 10
0.0
 20
0.0
  0
ENDBLK
  5
267B
330
2677
100
AcDbEntity
  8
0
100
AcDbBlockEnd
  0
BLOCK
  5
267F
330
267C
100
AcDbEntity
  8
0
 62
     7
100
AcDbBlockBegin
  2
AI9-BLK2
 70
     0
 10
0.0
 20
0.0
 30
0.0
  3
AI9-BLK2
  1

  0
LWPOLYLINE
  5
267D
330
267C
100
AcDbEntity
  8
LAYER_1
 62
     7
100
AcDbPolyline
 90
        7
 70
     1
 43
0.0
 10
-2.785704210069443
 20
10.7376736111111
 10
0.0
 20
-7.550960286458332
 10
2.771234809027776
 20
10.7376736111111
 10
4.233333333333331
 20
10.7376736111111
 10
0.6910861545138888
 20
-10.7376736111111
 10
-0.7055555555555558
 20
-10.7376736111111
 10
-4.233333333333331
 20
10.7376736111111
  0
HATCH
  5
267E
330
267C
100
AcDbEntity
  8
LAYER_1
 62
     7
100
AcDbHatch
 10
0.0
 20
0.0
 30
0.0
210
0.0
220
0.0
230
1.0
  2
SOLID
 70
     1
 71
     0
 91
        1
 92
        3
 72
     0
 73
     1
 93
        7
 10
-2.785704210069443
 20
10.7376736111111
 10
0.0
 20
-7.550960286458332
 10
2.771234809027776
 20
10.7376736111111
 10
4.233333333333331
 20
10.7376736111111
 10
0.6910861545138888
 20
-10.7376736111111
 10
-0.7055555555555558
 20
-10.7376736111111
 10
-4.233333333333331
 20
10.7376736111111
 97
        0
 75
     2
 76
     1
 98
        1
 10
0.0
 20
0.0
  0
ENDBLK
  5
2680
330
267C
100
AcDbEntity
  8
0
100
AcDbBlockEnd
  0
BLOCK
  5
2684
330
2681
100
AcDbEntity
  8
0
 62
     7
100
AcDbBlockBegin
  2
AI9-BLK1
 70
     0
 10
0.0
 20
0.0
 30
0.0
  3
AI9-BLK1
  1

  0
LWPOLYLINE
  5
2682
330
2681
100
AcDbEntity
  8
LAYER_1
 62
     7
100
AcDbPolyline
 90
       12
 70
     1
 43
0.0
 10
-3.571874999999999
 20
10.7376736111111
 10
3.483680555555555
 20
10.7376736111111
 10
3.483680555555555
 20
8.091840277777777
 10
-2.248958333333332
 20
8.091840277777777
 10
-2.248958333333332
 20
1.565451388888888
 10
3.042708333333333
 20
1.565451388888888
 10
3.042708333333333
 20
-0.9039930555555551
 10
-2.248958333333332
 20
-0.9039930555555551
 10
-2.248958333333332
 20
-8.180034722222217
 10
3.571874999999999
 20
-8.180034722222217
 10
3.571874999999999
 20
-10.7376736111111
 10
-3.571874999999999
 20
-10.7376736111111
  0
HATCH
  5
2683
330
2681
100
AcDbEntity
  8
LAYER_1
 62
     7
100
AcDbHatch
 10
0.0
 20
0.0
 30
0.0
210
0.0
220
0.0
230
1.0
  2
SOLID
 70
     1
 71
     0
 91
        1
 92
        3
 72
     0
 73
     1
 93
       12
 10
-3.571874999999999
 20
10.7376736111111
 10
3.483680555555555
 20
10.7376736111111
 10
3.483680555555555
 20
8.091840277777777
 10
-2.248958333333332
 20
8.091840277777777
 10
-2.248958333333332
 20
1.565451388888888
 10
3.042708333333333
 20
1.565451388888888
 10
3.042708333333333
 20
-0.9039930555555551
 10
-2.248958333333332
 20
-0.9039930555555551
 10
-2.248958333333332
 20
-8.180034722222217
 10
3.571874999999999
 20
-8.180034722222217
 10
3.571874999999999
 20
-10.7376736111111
 10
-3.571874999999999
 20
-10.7376736111111
 97
        0
 75
     2
 76
     1
 98
        1
 10
0.0
 20
0.0
  0
ENDBLK
  5
2685
330
2681
100
AcDbEntity
  8
0
100
AcDbBlockEnd
  0
BLOCK
  5
26A9
330
2686
100
AcDbEntity
  8
0
100
AcDbBlockBegin
  2
HD_LLC_logo_OT5
 70
     0
 10
0.0
 20
0.0
 30
0.0
  3
HD_LLC_logo_OT5
  1

  0
SPLINE
  5
2687
102
{ACAD_REACTORS
330
26A7
102
}
330
2686
100
AcDbEntity
  8
LAYER_1
 62
     7
100
AcDbSpline
210
0.0
220
0.0
230
1.0
 70
    11
 71
     3
 72
   113
 73
   109
 74
     0
 42
0.0000000001
 43
0.0000000001
 40
0.0
 40
0.0
 40
0.0
 40
0.0
 40
1.0
 40
1.0
 40
1.0
 40
2.0
 40
2.0
 40
2.0
 40
3.0
 40
3.0
 40
3.0
 40
4.0
 40
4.0
 40
4.0
 40
5.0
 40
5.0
 40
5.0
 40
6.0
 40
6.0
 40
6.0
 40
7.0
 40
7.0
 40
7.0
 40
8.0
 40
8.0
 40
8.0
 40
9.0
 40
9.0
 40
9.0
 40
10.0
 40
10.0
 40
10.0
 40
11.0
 40
11.0
 40
11.0
 40
12.0
 40
12.0
 40
12.0
 40
13.0
 40
13.0
 40
13.0
 40
14.0
 40
14.0
 40
14.0
 40
15.0
 40
15.0
 40
15.0
 40
16.0
 40
16.0
 40
16.0
 40
17.0
 40
17.0
 40
17.0
 40
18.0
 40
18.0
 40
18.0
 40
19.0
 40
19.0
 40
19.0
 40
20.0
 40
20.0
 40
20.0
 40
21.0
 40
21.0
 40
21.0
 40
22.0
 40
22.0
 40
22.0
 40
23.0
 40
23.0
 40
23.0
 40
24.0
 40
24.0
 40
24.0
 40
25.0
 40
25.0
 40
25.0
 40
26.0
 40
26.0
 40
26.0
 40
27.0
 40
27.0
 40
27.0
 40
28.0
 40
28.0
 40
28.0
 40
29.0
 40
29.0
 40
29.0
 40
30.0
 40
30.0
 40
30.0
 40
31.0
 40
31.0
 40
31.0
 40
32.0
 40
32.0
 40
32.0
 40
33.0
 40
33.0
 40
33.0
 40
34.0
 40
34.0
 40
34.0
 40
35.0
 40
35.0
 40
35.0
 40
36.0
 40
36.0
 40
36.0
 40
36.0
 10
193.3039632161458
 20
186.1548733181423
 30
0.0
 10
193.3039632161458
 20
186.1860514322916
 30
0.0
 10
193.3039632161458
 20
219.6932223849826
 30
0.0
 10
193.3039632161458
 20
219.6932223849826
 30
0.0
 10
193.3039632161458
 20
219.6932223849826
 30
0.0
 10
193.2974175347219
 20
219.7488606770833
 30
0.0
 10
193.2974175347219
 20
219.7488606770833
 30
0.0
 10
191.5293945312499
 20
235.455740017361
 30
0.0
 10
175.1458984374999
 20
235.2467949761284
 30
0.0
 10
174.9808783637151
 20
235.2428331163193
 30
0.0
 10
174.9808783637151
 20
235.2428331163193
 30
0.0
 10
125.8827555338541
 20
235.2430053710937
 30
0.0
 10
125.8827555338541
 20
235.2430053710937
 30
0.0
 10
125.8827555338541
 20
235.2430053710937
 30
0.0
 10
125.8827555338541
 20
255.5278998480901
 30
0.0
 10
125.8827555338541
 20
255.5278998480901
 30
0.0
 10
125.8827555338541
 20
255.5278998480901
 30
0.0
 10
84.5626247829861
 20
255.5278998480901
 30
0.0
 10
84.5626247829861
 20
255.5278998480901
 30
0.0
 10
84.5626247829861
 20
255.5278998480901
 30
0.0
 10
84.55711263020829
 20
233.7919311523436
 30
0.0
 10
84.55711263020829
 20
233.7919311523436
 30
0.0
 10
84.55711263020829
 20
233.7919311523436
 30
0.0
 10
64.42052951388888
 20
233.7919311523436
 30
0.0
 10
64.42052951388888
 20
233.7919311523436
 30
0.0
 10
64.42052951388888
 20
233.7919311523436
 30
0.0
 10
64.41501736111111
 20
255.5278998480901
 30
0.0
 10
64.41501736111111
 20
255.5278998480901
 30
0.0
 10
64.41501736111111
 20
255.5278998480901
 30
0.0
 10
23.91757541232637
 20
255.5278998480901
 30
0.0
 10
23.91757541232637
 20
255.5278998480901
 30
0.0
 10
23.91757541232637
 20
255.5278998480901
 30
0.0
 10
23.91757541232637
 20
233.2393378363715
 30
0.0
 10
23.91757541232637
 20
233.2393378363715
 30
0.0
 10
23.91757541232637
 20
233.2393378363715
 30
0.0
 10
43.65624999999999
 20
233.2393378363715
 30
0.0
 10
43.65624999999999
 20
233.2393378363715
 30
0.0
 10
43.65624999999999
 20
233.2393378363715
 30
0.0
 10
43.65624999999999
 20
211.5188720703125
 30
0.0
 10
43.65624999999999
 20
211.5188720703125
 30
0.0
 10
43.65624999999999
 20
211.5188720703125
 30
0.0
 10
23.91757541232637
 20
211.5188720703125
 30
0.0
 10
23.91757541232637
 20
211.5188720703125
 30
0.0
 10
23.91757541232637
 20
211.5188720703125
 30
0.0
 10
23.91757541232637
 20
189.2303100585936
 30
0.0
 10
23.91757541232637
 20
189.2303100585936
 30
0.0
 10
23.91757541232637
 20
189.2303100585936
 30
0.0
 10
64.41501736111111
 20
189.2303100585936
 30
0.0
 10
64.41501736111111
 20
189.2303100585936
 30
0.0
 10
64.41501736111111
 20
189.2303100585936
 30
0.0
 10
64.42052951388888
 20
211.069976128472
 30
0.0
 10
64.42052951388888
 20
211.069976128472
 30
0.0
 10
64.42052951388888
 20
211.069976128472
 30
0.0
 10
84.55711263020829
 20
211.069976128472
 30
0.0
 10
84.55711263020829
 20
211.069976128472
 30
0.0
 10
84.55711263020829
 20
211.069976128472
 30
0.0
 10
84.5626247829861
 20
189.2303100585936
 30
0.0
 10
84.5626247829861
 20
189.2303100585936
 30
0.0
 10
84.5626247829861
 20
189.2303100585936
 30
0.0
 10
125.8827555338541
 20
189.2303100585936
 30
0.0
 10
125.8827555338541
 20
189.2303100585936
 30
0.0
 10
125.8827555338541
 20
189.2303100585936
 30
0.0
 10
125.8827555338541
 20
211.5188720703125
 30
0.0
 10
125.8827555338541
 20
211.5188720703125
 30
0.0
 10
125.8827555338541
 20
211.5188720703125
 30
0.0
 10
105.3213921440971
 20
211.5188720703125
 30
0.0
 10
105.3213921440971
 20
211.5188720703125
 30
0.0
 10
105.3213921440971
 20
211.5188720703125
 30
0.0
 10
105.3213921440971
 20
233.2393378363715
 30
0.0
 10
105.3213921440971
 20
233.2393378363715
 30
0.0
 10
105.3213921440971
 20
233.2393378363715
 30
0.0
 10
175.0046495225693
 20
233.243127441406
 30
0.0
 10
175.0046495225693
 20
233.243127441406
 30
0.0
 10
175.6268337673611
 20
233.2560465494791
 30
0.0
 10
189.7165852864583
 20
233.3962619357638
 30
0.0
 10
191.3037407769094
 20
219.5690266927083
 30
0.0
 10
191.3037407769094
 20
219.4332899305555
 30
0.0
 10
191.3037407769094
 20
186.1142211914062
 30
0.0
 10
191.3037407769094
 20
186.1142211914062
 30
0.0
 10
191.3037407769094
 20
186.1142211914062
 30
0.0
 10
191.3051188151039
 20
186.0880384657115
 30
0.0
 10
191.3051188151039
 20
186.0880384657115
 30
0.0
 10
191.3054633246526
 20
186.0787367078991
 30
0.0
 10
191.3109754774304
 20
185.9566080729166
 30
0.0
 10
191.3109754774304
 20
185.7399115668401
 30
0.0
 10
191.3109754774304
 20
184.2090833875865
 30
0.0
 10
191.0488037109374
 20
177.9643310546874
 30
0.0
 10
186.9866916232638
 20
173.5652886284722
 30
0.0
 10
184.2540418836804
 20
170.6064683702255
 30
0.0
 10
180.3224989149304
 20
169.0308539496526
 30
0.0
 10
175.300927734375
 20
168.8825425889756
 30
0.0
 10
175.300927734375
 20
168.8825425889756
 30
0.0
 10
107.0094889322916
 20
168.8828870985243
 30
0.0
 10
107.0094889322916
 20
168.8828870985243
 30
0.0
 10
107.0094889322916
 20
168.8828870985243
 30
0.0
 10
107.0094889322916
 20
166.8830091688368
 30
0.0
 10
107.0094889322916
 20
166.8830091688368
 30
0.0
 10
107.0094889322916
 20
166.8830091688368
 30
0.0
 10
175.3305555555555
 20
166.8830091688368
 30
0.0
 10
175.3305555555555
 20
166.8830091688368
 30
0.0
 10
180.9467502170138
 20
167.0485460069444
 30
0.0
 10
185.3571614583333
 20
168.8448187934026
 30
0.0
 10
188.4687717013888
 20
172.2223904079861
 30
0.0
 10
192.9649658203124
 20
177.1034016927083
 30
0.0
 10
193.3136094835069
 20
183.7202243381076
 30
0.0
 10
193.3136094835069
 20
185.6520616319443
 30
0.0
 10
193.3136094835069
 20
185.9247409396701
 30
0.0
 10
193.3070638020833
 20
186.0868326822916
 30
0.0
 10
193.3039632161458
 20
186.1548733181423
 30
0.0
  0
INSERT
  5
2688
102
{ACAD_REACTORS
330
26A8
102
}
330
2686
100
AcDbEntity
  8
LAYER_1
 62
     7
100
AcDbBlockReference
  2
AI9-BLK14
 10
159.5625257703993
 20
200.5118781195744
 30
0.0
  0
INSERT
  5
2689
330
2686
100
AcDbEntity
  8
LAYER_1
 62
     7
100
AcDbBlockReference
  2
AI9-BLK13
 10
27.69615614149305
 20
179.2145562065971
 30
0.0
 42
0.9200000000000001
  0
INSERT
  5
268A
102
{ACAD_REACTORS
330
2695
102
}
330
2686
100
AcDbEntity
  8
LAYER_1
 62
     7
100
AcDbBlockReference
  2
AI9-BLK11
 10
44.76591525607638
 20
179.2145562065971
 30
0.0
 42
0.9200000000000001
  0
INSERT
  5
268B
102
{ACAD_REACTORS
330
26A3
102
}
330
2686
100
AcDbEntity
  8
LAYER_1
 62
     7
100
AcDbBlockReference
  2
AI9-BLK10
 10
54.04665798611111
 20
179.2145562065971
 30
0.0
 42
0.9200000000000001
  0
INSERT
  5
268C
102
{ACAD_REACTORS
330
26A2
102
}
330
2686
100
AcDbEntity
  8
LAYER_1
 62
     7
100
AcDbBlockReference
  2
AI9-BLK9
 10
62.79013807508679
 20
179.2145562065971
 30
0.0
 42
0.9
  0
INSERT
  5
268D
330
2686
100
AcDbEntity
  8
LAYER_1
 62
     7
100
AcDbBlockReference
  2
AI9-BLK8
 10
71.03046196831595
 20
179.2145562065971
 30
0.0
 42
0.9200000000000001
  0
INSERT
  5
268E
330
2686
100
AcDbEntity
  8
LAYER_1
 62
     7
100
AcDbBlockReference
  2
AI9-BLK7
 10
76.93793945312498
 20
179.2145562065971
 30
0.0
 42
0.9200000000000001
  0
INSERT
  5
268F
102
{ACAD_REACTORS
330
2696
102
}
330
2686
100
AcDbEntity
  8
LAYER_1
 62
     7
100
AcDbBlockReference
  2
AI9-BLK6
 10
82.55602891710069
 20
179.2145562065971
 30
0.0
 42
0.9
  0
INSERT
  5
2690
102
{ACAD_REACTORS
330
26A4
102
}
330
2686
100
AcDbEntity
  8
LAYER_1
 62
     7
100
AcDbBlockReference
  2
AI9-BLK5
 10
94.32430284288193
 20
179.2145562065971
 30
0.0
 42
0.9200000000000001
  0
INSERT
  5
2691
102
{ACAD_REACTORS
330
26A5
102
}
330
2686
100
AcDbEntity
  8
LAYER_1
 62
     7
100
AcDbBlockReference
  2
AI9-BLK4
 10
103.2081705729166
 20
179.2145562065971
 30
0.0
 42
0.9200000000000001
  0
INSERT
  5
2692
330
2686
100
AcDbEntity
  8
LAYER_1
 62
     7
100
AcDbBlockReference
  2
AI9-BLK3
 10
108.850978597005
 20
179.2145562065971
 30
0.0
 42
0.9200000000000001
  0
INSERT
  5
2693
330
2686
100
AcDbEntity
  8
LAYER_1
 62
     7
100
AcDbBlockReference
  2
AI9-BLK2
 10
114.2045708550346
 20
179.2145562065971
 30
0.0
 42
0.9200000000000001
  0
INSERT
  5
2694
330
2686
100
AcDbEntity
  8
LAYER_1
 62
     7
100
AcDbBlockReference
  2
AI9-BLK1
 10
122.4125108506944
 20
179.2145562065971
 30
0.0
 42
0.9200000000000001
  0
HATCH
  5
2695
330
2686
100
AcDbEntity
  8
0
  6
Continuous
100
AcDbHatch
 10
0.0
 20
0.0
 30
0.0
210
0.0
220
0.0
230
1.0
  2
SOLID
 70
     1
 71
     1
 91
        2
 92
       16
 93
        1
 72
     4
 94
        3
 73
     0
 74
     0
 95
       26
 96
       22
 40
0.0
 40
0.0
 40
0.0
 40
0.0
 40
1.0
 40
1.0
 40
1.0
 40
2.0
 40
2.0
 40
2.0
 40
3.0
 40
3.0
 40
3.0
 40
4.0
 40
4.0
 40
4.0
 40
5.0
 40
5.0
 40
5.0
 40
6.0
 40
6.0
 40
6.0
 40
7.0
 40
7.0
 40
7.0
 40
7.0
 10
42.12008192274304
 20
180.046229817708
 10
42.12008192274304
 20
180.046229817708
 10
42.12008192274304
 20
186.7401881510414
 10
42.12008192274304
 20
186.7401881510414
 10
42.12008192274304
 20
186.7401881510414
 10
45.23100314670138
 20
186.7401881510414
 10
45.23100314670138
 20
186.7401881510414
 10
45.66853027343749
 20
186.7401881510414
 10
46.01579589843749
 20
186.6064357638887
 10
46.27280002170138
 20
186.3401987847218
 10
46.76751573350694
 20
185.8330807291664
 10
47.01487358940972
 20
184.8822343749996
 10
47.01487358940972
 20
183.4863919270832
 10
47.01487358940972
 20
182.188169704861
 10
46.83848470052082
 20
181.2905707465276
 10
46.48639594184028
 20
180.7929611545137
 10
46.13430718315971
 20
180.2947176649304
 10
45.65888400607638
 20
180.046229817708
 10
45.06012641059028
 20
180.046229817708
 10
45.06012641059028
 20
180.046229817708
 10
42.12008192274304
 20
180.046229817708
 10
42.12008192274304
 20
180.046229817708
 97
        1
330
268A
 92
        1
 93
        1
 72
     4
 94
        3
 73
     0
 74
     0
 95
       68
 96
       64
 40
0.0
 40
0.0
 40
0.0
 40
0.0
 40
1.0
 40
1.0
 40
1.0
 40
2.0
 40
2.0
 40
2.0
 40
3.0
 40
3.0
 40
3.0
 40
4.0
 40
4.0
 40
4.0
 40
5.0
 40
5.0
 40
5.0
 40
6.0
 40
6.0
 40
6.0
 40
7.0
 40
7.0
 40
7.0
 40
8.0
 40
8.0
 40
8.0
 40
9.0
 40
9.0
 40
9.0
 40
10.0
 40
10.0
 40
10.0
 40
11.0
 40
11.0
 40
11.0
 40
12.0
 40
12.0
 40
12.0
 40
13.0
 40
13.0
 40
13.0
 40
14.0
 40
14.0
 40
14.0
 40
15.0
 40
15.0
 40
15.0
 40
16.0
 40
16.0
 40
16.0
 40
17.0
 40
17.0
 40
17.0
 40
18.0
 40
18.0
 40
18.0
 40
19.0
 40
19.0
 40
19.0
 40
20.0
 40
20.0
 40
20.0
 40
21.0
 40
21.0
 40
21.0
 40
21.0
 10
40.79716525607638
 20
169.3358964843748
 10
40.79716525607638
 20
169.3358964843748
 10
42.12008192274304
 20
169.3358964843748
 10
42.12008192274304
 20
169.3358964843748
 10
42.12008192274304
 20
169.3358964843748
 10
42.12008192274304
 20
177.8149103732637
 10
42.12008192274304
 20
177.8149103732637
 10
42.12008192274304
 20
177.8149103732637
 10
45.00500488281249
 20
177.8149103732637
 10
45.00500488281249
 20
177.8149103732637
 10
45.52590332031249
 20
177.8149103732637
 10
45.90968695746528
 20
177.6938359374998
 10
46.15635579427083
 20
177.4516870659719
 10
46.58216959635415
 20
177.0117621527776
 10
46.80954589843749
 20
176.1458580729164
 10
46.83848470052082
 20
174.8539748263887
 10
46.83848470052082
 20
174.8539748263887
 10
46.92667914496527
 20
171.5564396701385
 10
46.92667914496527
 20
171.5564396701385
 10
46.94597167968749
 20
170.7843524305554
 10
46.96870930989581
 20
170.2639225260415
 10
46.99351399739582
 20
169.9951499565971
 10
47.01831868489581
 20
169.725743489583
 10
47.0548366970486
 20
169.5057810329859
 10
47.10444607204859
 20
169.3358964843748
 10
47.10444607204859
 20
169.3358964843748
 10
48.73466525607638
 20
169.3358964843748
 10
48.73466525607638
 20
169.3358964843748
 10
48.73466525607638
 20
169.3358964843748
 10
48.73466525607638
 20
169.7821603732635
 10
48.73466525607638
 20
169.7821603732635
 10
48.53278266059028
 20
169.9609194878471
 10
48.39153374565971
 20
170.3628105468748
 10
48.31160753038194
 20
170.9878335503471
 10
48.26062011718749
 20
171.3542263454858
 10
48.22548014322915
 20
171.9120562065971
 10
48.20549858940971
 20
172.6625909288193
 10
48.20549858940971
 20
172.6625909288193
 10
48.16140136718749
 20
175.3205234374999
 10
48.16140136718749
 20
175.3205234374999
 10
48.14141981336803
 20
176.4716814236109
 10
48.03462185329859
 20
177.3033550347219
 10
47.84169650607638
 20
177.8142764756941
 10
47.64808213975693
 20
178.3251979166665
 10
47.35800509982638
 20
178.7372313368054
 10
46.97077636718749
 20
179.0516445312498
 10
47.4021023220486
 20
179.5086846788193
 10
47.73765462239582
 20
180.1134229600693
 10
47.97743326822915
 20
180.8664932725691
 10
48.21721191406249
 20
181.6189296874999
 10
48.33779025607638
 20
182.5868912760413
 10
48.33779025607638
 20
183.7697441406248
 10
48.33779025607638
 20
186.0371957465274
 10
47.89061686197916
 20
187.5921464843749
 10
46.99695909288194
 20
188.4345963541665
 10
46.52567003038194
 20
188.8732534722221
 10
45.92966851128472
 20
189.0932159288193
 10
45.20895453559027
 20
189.0932159288193
 10
45.20895453559027
 20
189.0932159288193
 10
40.79716525607638
 20
189.0932159288193
 10
40.79716525607638
 20
189.0932159288193
 10
40.79716525607638
 20
189.0932159288193
 10
40.79716525607638
 20
169.3358964843748
 10
40.79716525607638
 20
169.3358964843748
 97
        0
 75
     0
 76
     1
 98
        0
  0
HATCH
  5
2696
330
2686
100
AcDbEntity
  8
0
  6
Continuous
100
AcDbHatch
 10
0.0
 20
0.0
 30
0.0
210
0.0
220
0.0
230
1.0
  2
SOLID
 70
     1
 71
     1
 91
        1
 92
        1
 93
        1
 72
     4
 94
        3
 73
     0
 74
     0
 95
       59
 96
       55
 40
0.0
 40
0.0
 40
0.0
 40
0.0
 40
1.0
 40
1.0
 40
1.0
 40
2.0
 40
2.0
 40
2.0
 40
3.0
 40
3.0
 40
3.0
 40
4.0
 40
4.0
 40
4.0
 40
5.0
 40
5.0
 40
5.0
 40
6.0
 40
6.0
 40
6.0
 40
7.0
 40
7.0
 40
7.0
 40
8.0
 40
8.0
 40
8.0
 40
9.0
 40
9.0
 40
9.0
 40
10.0
 40
10.0
 40
10.0
 40
11.0
 40
11.0
 40
11.0
 40
12.0
 40
12.0
 40
12.0
 40
13.0
 40
13.0
 40
13.0
 40
14.0
 40
14.0
 40
14.0
 40
15.0
 40
15.0
 40
15.0
 40
16.0
 40
16.0
 40
16.0
 40
17.0
 40
17.0
 40
17.0
 40
18.0
 40
18.0
 40
18.0
 40
18.0
 10
85.61871880425345
 20
187.4658355034721
 10
86.29120144314232
 20
186.1797124565971
 10
86.66671685112847
 20
184.7193364800346
 10
86.7452650282118
 20
183.0840874565969
 10
86.7452650282118
 20
183.0840874565969
 10
85.42234836154511
 20
183.0840874565969
 10
85.42234836154511
 20
183.0840874565969
 10
85.27696533203123
 20
184.3156401909719
 10
84.99171142578125
 20
185.2917046440971
 10
84.56589762369791
 20
186.0122808159719
 10
84.14008382161458
 20
186.7322368706594
 10
83.53994818793401
 20
187.0925249565969
 10
82.76617974175342
 20
187.0925249565969
 10
81.81740044487847
 20
187.0925249565969
 10
81.05258924696178
 20
186.4240386284721
 10
80.47243516710068
 20
185.0883062065971
 10
79.89159206814234
 20
183.7525737847219
 10
79.6015150282118
 20
181.7049468315971
 10
79.6015150282118
 20
178.9454253472221
 10
79.6015150282118
 20
176.6844780815969
 10
79.86265326605901
 20
174.8514116753471
 10
80.38561876085069
 20
173.4456060112846
 10
80.90789523654512
 20
172.0391802300344
 10
81.69199896918403
 20
171.3365874565971
 10
82.73724093967013
 20
171.3365874565971
 10
83.69497748480901
 20
171.3365874565971
 10
84.42120361328125
 20
172.0794878472221
 10
84.91523030598958
 20
173.5665288628469
 10
85.18601481119791
 20
174.3491167534719
 10
85.38445231119791
 20
175.3785112847221
 10
85.51054280598959
 20
176.6547124565971
 10
85.51054280598959
 20
176.6547124565971
 10
86.83345947265625
 20
176.6547124565971
 10
86.83345947265625
 20
176.6547124565971
 10
86.72597249348957
 20
174.6157671440971
 10
86.35114610460069
 20
172.9061040581596
 10
85.70760226779514
 20
171.526343315972
 10
84.93727891710069
 20
169.8650493706596
 10
83.90375027126735
 20
169.0347124565971
 10
82.60701633029514
 20
169.0347124565971
 10
81.48598225911458
 20
169.0347124565971
 10
80.54547119140625
 20
169.7143608940971
 10
79.78479410807292
 20
171.0742778862845
 10
78.78020426432292
 20
172.8726177300344
 10
78.27859836154512
 20
175.6495024956596
 10
78.27859836154512
 20
179.4049321831594
 10
78.27859836154512
 20
182.2562310112846
 10
78.65342475043402
 20
184.5946929253469
 10
79.40445556640622
 20
186.4196978081596
 10
80.22301025390625
 20
188.4028325737846
 10
81.34955647786458
 20
189.3943999565971
 10
82.78271620008679
 20
189.3943999565971
 10
84.00090196397568
 20
189.3943999565971
 10
84.94623616536458
 20
188.7513384331594
 10
85.61871880425345
 20
187.4658355034721
 97
        1
330
268F
 75
     0
 76
     1
 98
        1
 10
0.0
 20
0.0
  0
LINE
  5
2697
102
{ACAD_REACTORS
330
26A6
102
}
330
2686
100
AcDbEntity
  8
LAYER_1
 62
     7
100
AcDbLine
 10
34.65766059027778
 20
177.4497853732638
 30
0.0
 11
36.19830729166666
 21
186.1658769531249
 31
0.0
  0
LINE
  5
2698
102
{ACAD_REACTORS
330
26A6
102
}
330
2686
100
AcDbEntity
  8
LAYER_1
 62
     7
100
AcDbLine
 10
36.19830729166666
 20
186.1658769531249
 30
0.0
 11
37.67556423611111
 21
177.4497853732638
 31
0.0
  0
LINE
  5
2699
102
{ACAD_REACTORS
330
26A6
102
}
330
2686
100
AcDbEntity
  8
LAYER_1
 62
     7
100
AcDbLine
 10
37.67556423611111
 20
177.4497853732638
 30
0.0
 11
34.65766059027778
 21
177.4497853732638
 31
0.0
  0
LINE
  5
269A
102
{ACAD_REACTORS
330
26A6
102
}
330
2686
100
AcDbEntity
  8
LAYER_1
 62
     7
100
AcDbLine
 10
31.83957248263888
 20
169.3358964843748
 30
0.0
 11
33.22450086805555
 21
169.3358964843748
 31
0.0
  0
LINE
  5
269B
102
{ACAD_REACTORS
330
26A6
102
}
330
2686
100
AcDbEntity
  8
LAYER_1
 62
     7
100
AcDbLine
 10
33.22450086805555
 20
169.3358964843748
 30
0.0
 11
34.27043185763887
 21
175.2590353732638
 31
0.0
  0
LINE
  5
269C
102
{ACAD_REACTORS
330
26A6
102
}
330
2686
100
AcDbEntity
  8
LAYER_1
 62
     7
100
AcDbLine
 10
34.27043185763887
 20
175.2590353732638
 30
0.0
 11
38.04694552951389
 21
175.2590353732638
 31
0.0
  0
LINE
  5
269D
102
{ACAD_REACTORS
330
26A6
102
}
330
2686
100
AcDbEntity
  8
LAYER_1
 62
     7
100
AcDbLine
 10
38.04694552951389
 20
175.2590353732638
 30
0.0
 11
39.05015733506942
 21
169.3358964843748
 31
0.0
  0
LINE
  5
269E
102
{ACAD_REACTORS
330
26A6
102
}
330
2686
100
AcDbEntity
  8
LAYER_1
 62
     7
100
AcDbLine
 10
39.05015733506942
 20
169.3358964843748
 30
0.0
 11
40.43508572048611
 21
169.3358964843748
 31
0.0
  0
LINE
  5
269F
102
{ACAD_REACTORS
330
26A6
102
}
330
2686
100
AcDbEntity
  8
LAYER_1
 62
     7
100
AcDbLine
 10
40.43508572048611
 20
169.3358964843748
 30
0.0
 11
36.952783203125
 21
189.0932159288193
 31
0.0
  0
LINE
  5
26A0
102
{ACAD_REACTORS
330
26A6
102
}
330
2686
100
AcDbEntity
  8
LAYER_1
 62
     7
100
AcDbLine
 10
36.952783203125
 20
189.0932159288193
 30
0.0
 11
35.47828233506943
 21
189.0932159288193
 31
0.0
  0
LINE
  5
26A1
102
{ACAD_REACTORS
330
26A6
102
}
330
2686
100
AcDbEntity
  8
LAYER_1
 62
     7
100
AcDbLine
 10
35.47828233506943
 20
189.0932159288193
 30
0.0
 11
31.83957248263888
 21
169.3358964843748
 31
0.0
  0
HATCH
  5
26A2
330
2686
100
AcDbEntity
  8
0
  6
Continuous
100
AcDbHatch
 10
0.0
 20
0.0
 30
0.0
210
0.0
220
0.0
230
1.0
  2
SOLID
 70
     1
 71
     1
 91
        2
 92
       16
 93
        1
 72
     4
 94
        3
 73
     0
 74
     0
 95
       29
 96
       25
 40
0.0
 40
0.0
 40
0.0
 40
0.0
 40
1.0
 40
1.0
 40
1.0
 40
2.0
 40
2.0
 40
2.0
 40
3.0
 40
3.0
 40
3.0
 40
4.0
 40
4.0
 40
4.0
 40
5.0
 40
5.0
 40
5.0
 40
6.0
 40
6.0
 40
6.0
 40
7.0
 40
7.0
 40
7.0
 40
8.0
 40
8.0
 40
8.0
 40
8.0
 10
62.85697292751734
 20
171.3365874565971
 10
61.88338894314235
 20
171.3365874565971
 10
61.18058946397566
 20
172.0714263237844
 10
60.74857449001735
 20
173.5411040581594
 10
60.31587049696178
 20
175.0107817925344
 10
60.10020751953123
 20
176.8165630425343
 10
60.10020751953123
 20
178.9578276909721
 10
60.10020751953123
 20
181.6342534722221
 10
60.35101047092013
 20
183.6589360894094
 10
60.85261637369789
 20
185.0324956597219
 10
61.35422227647566
 20
186.4054351128471
 10
62.00741238064235
 20
187.0925249565969
 10
62.81218668619789
 20
187.0925249565969
 10
63.6369425455729
 20
187.0925249565969
 10
64.28806559244789
 20
186.3992339409721
 10
64.76486680772568
 20
185.0126519097221
 10
65.24166802300347
 20
183.6260698784719
 10
65.48006863064235
 20
181.7961040581594
 10
65.48006863064235
 20
179.5239946831596
 10
65.48006863064235
 20
177.3734282769096
 10
65.27336290147568
 20
175.4715288628469
 10
64.86132948133678
 20
173.8176763237846
 10
64.4492960611979
 20
172.1632036675344
 10
63.78094753689235
 20
171.3365874565971
 10
62.85697292751734
 20
171.3365874565971
 97
        1
330
268C
 92
        1
 93
        1
 72
     4
 94
        3
 73
     0
 74
     0
 95
       29
 96
       25
 40
0.0
 40
0.0
 40
0.0
 40
0.0
 40
1.0
 40
1.0
 40
1.0
 40
2.0
 40
2.0
 40
2.0
 40
3.0
 40
3.0
 40
3.0
 40
4.0
 40
4.0
 40
4.0
 40
5.0
 40
5.0
 40
5.0
 40
6.0
 40
6.0
 40
6.0
 40
7.0
 40
7.0
 40
7.0
 40
8.0
 40
8.0
 40
8.0
 40
8.0
 10
62.76119927300346
 20
189.4340874565971
 10
61.47273356119789
 20
189.4340874565971
 10
60.50121663411457
 20
188.2397417534719
 10
59.84733751085068
 20
185.8516704644094
 10
59.3395304361979
 20
183.9900786675344
 10
59.08597140842012
 20
181.7514556206596
 10
59.08597140842012
 20
179.1351812065971
 10
59.08597140842012
 20
176.2379937065971
 10
59.3836276584201
 20
173.8412407769094
 10
59.9789401584201
 20
171.9449224175346
 10
60.6424655490451
 20
169.9779106987846
 10
61.5602389865451
 20
168.9950249565971
 10
62.7315714518229
 20
168.9950249565971
 10
63.9904093424479
 20
168.9950249565971
 10
64.95641411675345
 20
170.1186773003469
 10
65.63027479383679
 20
172.3659819878471
 10
66.20629475911457
 20
174.2796636284719
 10
66.49430474175345
 20
176.6813774956593
 10
66.49430474175345
 20
179.5698833550344
 10
66.49430474175345
 20
182.2388677300343
 10
66.24005669487845
 20
184.4291216362844
 10
65.73293863932289
 20
186.1412651909719
 10
65.08870578342011
 20
188.3364800347219
 10
64.09789632161457
 20
189.4340874565971
 10
62.76119927300346
 20
189.4340874565971
 97
        0
 75
     0
 76
     1
 98
        0
  0
HATCH
  5
26A3
330
2686
100
AcDbEntity
  8
0
  6
Continuous
100
AcDbHatch
 10
0.0
 20
0.0
 30
0.0
210
0.0
220
0.0
230
1.0
  2
SOLID
 70
     1
 71
     1
 91
        1
 92
        1
 93
        1
 72
     4
 94
        3
 73
     0
 74
     0
 95
       59
 96
       55
 40
0.0
 40
0.0
 40
0.0
 40
0.0
 40
1.0
 40
1.0
 40
1.0
 40
2.0
 40
2.0
 40
2.0
 40
3.0
 40
3.0
 40
3.0
 40
4.0
 40
4.0
 40
4.0
 40
5.0
 40
5.0
 40
5.0
 40
6.0
 40
6.0
 40
6.0
 40
7.0
 40
7.0
 40
7.0
 40
8.0
 40
8.0
 40
8.0
 40
9.0
 40
9.0
 40
9.0
 40
10.0
 40
10.0
 40
10.0
 40
11.0
 40
11.0
 40
11.0
 40
12.0
 40
12.0
 40
12.0
 40
13.0
 40
13.0
 40
13.0
 40
14.0
 40
14.0
 40
14.0
 40
15.0
 40
15.0
 40
15.0
 40
16.0
 40
16.0
 40
16.0
 40
17.0
 40
17.0
 40
17.0
 40
18.0
 40
18.0
 40
18.0
 40
18.0
 10
49.39440104166666
 20
189.0932159288193
 10
49.39440104166666
 20
189.0932159288193
 10
51.24786241319444
 20
189.0932159288193
 10
51.24786241319444
 20
189.0932159288193
 10
51.24786241319444
 20
189.0932159288193
 10
54.04665798611111
 20
172.3887471788193
 10
54.04665798611111
 20
172.3887471788193
 10
54.04665798611111
 20
172.3887471788193
 10
56.83994140624999
 20
189.0932159288193
 10
56.83994140624999
 20
189.0932159288193
 10
56.83994140624999
 20
189.0932159288193
 10
58.69891493055553
 20
189.0932159288193
 10
58.69891493055553
 20
189.0932159288193
 10
58.69891493055553
 20
189.0932159288193
 10
58.69891493055553
 20
169.3358964843748
 10
58.69891493055553
 20
169.3358964843748
 10
58.69891493055553
 20
169.3358964843748
 10
57.46419270833333
 20
169.3358964843748
 10
57.46419270833333
 20
169.3358964843748
 10
57.46419270833333
 20
169.3358964843748
 10
57.46419270833333
 20
180.9964422743054
 10
57.46419270833333
 20
180.9964422743054
 10
57.46419270833333
 20
181.3996011284721
 10
57.47108289930555
 20
182.0677291666664
 10
57.48624131944444
 20
183.0001924913193
 10
57.50071072048609
 20
183.9326558159721
 10
57.50828993055553
 20
184.932312282986
 10
57.50828993055553
 20
185.9997957899304
 10
57.50828993055553
 20
185.9997957899304
 10
54.700537109375
 20
169.3358964843748
 10
54.700537109375
 20
169.3358964843748
 10
54.700537109375
 20
169.3358964843748
 10
53.38382161458333
 20
169.3358964843748
 10
53.38382161458333
 20
169.3358964843748
 10
53.38382161458333
 20
169.3358964843748
 10
50.58502604166665
 20
185.9997957899304
 10
50.58502604166665
 20
185.9997957899304
 10
50.58502604166665
 20
185.9997957899304
 10
50.58502604166665
 20
185.3944236111109
 10
50.58502604166665
 20
185.3944236111109
 10
50.58502604166665
 20
184.9101258680554
 10
50.59191623263888
 20
184.1729029947915
 10
50.60707465277777
 20
183.1821210937498
 10
50.62154405381942
 20
182.1913391927082
 10
50.62912326388889
 20
181.4629908854165
 10
50.62912326388889
 20
180.9964422743054
 10
50.62912326388889
 20
180.9964422743054
 10
50.62912326388889
 20
169.3358964843748
 10
50.62912326388889
 20
169.3358964843748
 10
50.62912326388889
 20
169.3358964843748
 10
49.39440104166666
 20
169.3358964843748
 10
49.39440104166666
 20
169.3358964843748
 10
49.39440104166666
 20
169.3358964843748
 10
49.39440104166666
 20
189.0932159288193
 10
49.39440104166666
 20
189.0932159288193
 97
        1
330
268B
 75
     0
 76
     1
 98
        1
 10
0.0
 20
0.0
  0
HATCH
  5
26A4
330
2686
100
AcDbEntity
  8
0
  6
Continuous
100
AcDbHatch
 10
0.0
 20
0.0
 30
0.0
210
0.0
220
0.0
230
1.0
  2
SOLID
 70
     1
 71
     1
 91
        2
 92
       16
 93
        1
 72
     4
 94
        3
 73
     0
 74
     0
 95
       32
 96
       28
 40
0.0
 40
0.0
 40
0.0
 40
0.0
 40
1.0
 40
1.0
 40
1.0
 40
2.0
 40
2.0
 40
2.0
 40
3.0
 40
3.0
 40
3.0
 40
4.0
 40
4.0
 40
4.0
 40
5.0
 40
5.0
 40
5.0
 40
6.0
 40
6.0
 40
6.0
 40
7.0
 40
7.0
 40
7.0
 40
8.0
 40
8.0
 40
8.0
 40
9.0
 40
9.0
 40
9.0
 40
9.0
 10
91.70051812065969
 20
171.6077853732635
 10
91.70051812065969
 20
171.6077853732635
 10
91.70051812065969
 20
186.7401881510414
 10
91.70051812065969
 20
186.7401881510414
 10
91.70051812065969
 20
186.7401881510414
 10
93.98668348524305
 20
186.7401881510414
 10
93.98668348524305
 20
186.7401881510414
 10
95.02159016927082
 20
186.7401881510414
 10
95.77331000434028
 20
186.0644533420137
 10
96.24322102864582
 20
184.7142515190969
 10
96.71313205295138
 20
183.3640496961804
 10
96.94808756510417
 20
181.4680620659721
 10
96.94808756510417
 20
179.0262886284719
 10
96.94808756510417
 20
178.3911232638887
 10
96.91432562934028
 20
177.7027105034721
 10
96.84749077690971
 20
176.9604164496524
 10
96.7324245876736
 20
175.7167094184024
 10
96.55052354600693
 20
174.6974021267359
 10
96.30109863281248
 20
173.901860677083
 10
95.98414984809028
 20
172.9091770833332
 10
95.57693956163193
 20
172.2378795572914
 10
95.07877875434026
 20
171.8892358940971
 10
94.79076877170138
 20
171.7016022135415
 10
94.43178982204859
 20
171.6077853732635
 10
94.00115288628471
 20
171.6077853732635
 10
94.00115288628471
 20
171.6077853732635
 10
91.70051812065969
 20
171.6077853732635
 10
91.70051812065969
 20
171.6077853732635
 97
        1
330
2690
 92
        1
 93
        1
 72
     4
 94
        3
 73
     0
 74
     0
 95
       26
 96
       22
 40
0.0
 40
0.0
 40
0.0
 40
0.0
 40
1.0
 40
1.0
 40
1.0
 40
2.0
 40
2.0
 40
2.0
 40
3.0
 40
3.0
 40
3.0
 40
4.0
 40
4.0
 40
4.0
 40
5.0
 40
5.0
 40
5.0
 40
6.0
 40
6.0
 40
6.0
 40
7.0
 40
7.0
 40
7.0
 40
7.0
 10
90.37760145399305
 20
169.3358964843748
 10
90.37760145399305
 20
169.3358964843748
 10
94.22990722656248
 20
169.3358964843748
 10
94.22990722656248
 20
169.3358964843748
 10
95.87115071614581
 20
169.3358964843748
 10
97.03008083767359
 20
170.8331625434026
 10
97.70600857204859
 20
173.8283285590274
 10
98.08221299913194
 20
175.5227367621524
 10
98.27100423177082
 20
177.4187243923609
 10
98.27100423177082
 20
179.5169253472221
 10
98.27100423177082
 20
182.233810329861
 10
97.94716525607638
 20
184.4619602864582
 10
97.30086534288195
 20
186.2013752170135
 10
96.57601725260416
 20
188.1290577256941
 10
95.5576470269097
 20
189.0932159288193
 10
94.24437662760416
 20
189.0932159288193
 10
94.24437662760416
 20
189.0932159288193
 10
90.37760145399305
 20
189.0932159288193
 10
90.37760145399305
 20
189.0932159288193
 10
90.37760145399305
 20
189.0932159288193
 10
90.37760145399305
 20
169.3358964843748
 10
90.37760145399305
 20
169.3358964843748
 97
        0
 75
     0
 76
     1
 98
        0
  0
HATCH
  5
26A5
330
2686
100
AcDbEntity
  8
0
  6
Continuous
100
AcDbHatch
 10
0.0
 20
0.0
 30
0.0
210
0.0
220
0.0
230
1.0
  2
SOLID
 70
     1
 71
     1
 91
        2
 92
       16
 93
        1
 72
     4
 94
        3
 73
     0
 74
     0
 95
       26
 96
       22
 40
0.0
 40
0.0
 40
0.0
 40
0.0
 40
1.0
 40
1.0
 40
1.0
 40
2.0
 40
2.0
 40
2.0
 40
3.0
 40
3.0
 40
3.0
 40
4.0
 40
4.0
 40
4.0
 40
5.0
 40
5.0
 40
5.0
 40
6.0
 40
6.0
 40
6.0
 40
7.0
 40
7.0
 40
7.0
 40
7.0
 10
100.5623372395832
 20
180.046229817708
 10
100.5623372395832
 20
180.046229817708
 10
100.5623372395832
 20
186.7401881510414
 10
100.5623372395832
 20
186.7401881510414
 10
100.5623372395832
 20
186.7401881510414
 10
103.6732584635416
 20
186.7401881510414
 10
103.6732584635416
 20
186.7401881510414
 10
104.1107855902777
 20
186.7401881510414
 10
104.4580512152777
 20
186.6064357638887
 10
104.7150553385415
 20
186.3401987847218
 10
105.2097710503471
 20
185.8330807291664
 10
105.4571289062497
 20
184.8822343749996
 10
105.4571289062497
 20
183.4863919270832
 10
105.4571289062497
 20
182.188169704861
 10
105.280740017361
 20
181.2905707465276
 10
104.9286512586804
 20
180.7929611545137
 10
104.5765624999999
 20
180.2947176649304
 10
104.1011393229166
 20
180.046229817708
 10
103.5023817274304
 20
180.046229817708
 10
103.5023817274304
 20
180.046229817708
 10
100.5623372395832
 20
180.046229817708
 10
100.5623372395832
 20
180.046229817708
 97
        1
330
2691
 92
        1
 93
        1
 72
     4
 94
        3
 73
     0
 74
     0
 95
       68
 96
       64
 40
0.0
 40
0.0
 40
0.0
 40
0.0
 40
1.0
 40
1.0
 40
1.0
 40
2.0
 40
2.0
 40
2.0
 40
3.0
 40
3.0
 40
3.0
 40
4.0
 40
4.0
 40
4.0
 40
5.0
 40
5.0
 40
5.0
 40
6.0
 40
6.0
 40
6.0
 40
7.0
 40
7.0
 40
7.0
 40
8.0
 40
8.0
 40
8.0
 40
9.0
 40
9.0
 40
9.0
 40
10.0
 40
10.0
 40
10.0
 40
11.0
 40
11.0
 40
11.0
 40
12.0
 40
12.0
 40
12.0
 40
13.0
 40
13.0
 40
13.0
 40
14.0
 40
14.0
 40
14.0
 40
15.0
 40
15.0
 40
15.0
 40
16.0
 40
16.0
 40
16.0
 40
17.0
 40
17.0
 40
17.0
 40
18.0
 40
18.0
 40
18.0
 40
19.0
 40
19.0
 40
19.0
 40
20.0
 40
20.0
 40
20.0
 40
21.0
 40
21.0
 40
21.0
 40
21.0
 10
99.23942057291661
 20
169.3358964843748
 10
99.23942057291661
 20
169.3358964843748
 10
100.5623372395832
 20
169.3358964843748
 10
100.5623372395832
 20
169.3358964843748
 10
100.5623372395832
 20
169.3358964843748
 10
100.5623372395832
 20
177.8149103732637
 10
100.5623372395832
 20
177.8149103732637
 10
100.5623372395832
 20
177.8149103732637
 10
103.4472601996527
 20
177.8149103732637
 10
103.4472601996527
 20
177.8149103732637
 10
103.9681586371527
 20
177.8149103732637
 10
104.3519422743053
 20
177.6938359374998
 10
104.5986111111109
 20
177.4516870659719
 10
105.0244249131943
 20
177.0117621527776
 10
105.2518012152777
 20
176.1458580729164
 10
105.280740017361
 20
174.8539748263887
 10
105.280740017361
 20
174.8539748263887
 10
105.3689344618053
 20
171.5564396701385
 10
105.3689344618053
 20
171.5564396701385
 10
105.3882269965277
 20
170.7843524305554
 10
105.4109646267359
 20
170.2639225260415
 10
105.4357693142359
 20
169.9951499565971
 10
105.4605740017358
 20
169.725743489583
 10
105.4970920138888
 20
169.5057810329859
 10
105.5467013888887
 20
169.3358964843748
 10
105.5467013888887
 20
169.3358964843748
 10
107.1769205729166
 20
169.3358964843748
 10
107.1769205729166
 20
169.3358964843748
 10
107.1769205729166
 20
169.3358964843748
 10
107.1769205729166
 20
169.7821603732635
 10
107.1769205729166
 20
169.7821603732635
 10
106.9750379774303
 20
169.9609194878471
 10
106.8337890624997
 20
170.3628105468748
 10
106.7538628472221
 20
170.9878335503471
 10
106.7028754340274
 20
171.3542263454858
 10
106.6677354600692
 20
171.9120562065971
 10
106.6477539062497
 20
172.6625909288193
 10
106.6477539062497
 20
172.6625909288193
 10
106.6036566840277
 20
175.3205234374999
 10
106.6036566840277
 20
175.3205234374999
 10
106.5836751302082
 20
176.4716814236109
 10
106.4768771701387
 20
177.3033550347219
 10
106.2839518229166
 20
177.8142764756941
 10
106.0903374565971
 20
178.3251979166665
 10
105.8002604166666
 20
178.7372313368054
 10
105.4130316840277
 20
179.0516445312498
 10
105.8443576388886
 20
179.5086846788193
 10
106.179909939236
 20
180.1134229600693
 10
106.4196885850692
 20
180.8664932725691
 10
106.6594672309027
 20
181.6189296874999
 10
106.7800455729166
 20
182.5868912760413
 10
106.7800455729166
 20
183.7697441406248
 10
106.7800455729166
 20
186.0371957465274
 10
106.3328721788193
 20
187.5921464843749
 10
105.4392144097221
 20
188.4345963541665
 10
104.9679253472221
 20
188.8732534722221
 10
104.3719238281249
 20
189.0932159288193
 10
103.6512098524303
 20
189.0932159288193
 10
103.6512098524303
 20
189.0932159288193
 10
99.23942057291661
 20
189.0932159288193
 10
99.23942057291661
 20
189.0932159288193
 10
99.23942057291661
 20
189.0932159288193
 10
99.23942057291661
 20
169.3358964843748
 10
99.23942057291661
 20
169.3358964843748
 97
        0
 75
     0
 76
     1
 98
        0
  0
HATCH
  5
26A6
330
2686
100
AcDbEntity
  8
0
  6
Continuous
100
AcDbHatch
 10
0.0
 20
0.0
 30
0.0
210
0.0
220
0.0
230
1.0
  2
SOLID
 70
     1
 71
     1
 91
        2
 92
        1
 93
        8
 72
     1
 10
35.47828233506943
 20
189.0932159288193
 11
31.83957248263888
 21
169.3358964843748
 72
     1
 10
31.83957248263888
 20
169.3358964843748
 11
33.22450086805555
 21
169.3358964843748
 72
     1
 10
33.22450086805555
 20
169.3358964843748
 11
34.27043185763887
 21
175.2590353732638
 72
     1
 10
34.27043185763887
 20
175.2590353732638
 11
38.04694552951389
 21
175.2590353732638
 72
     1
 10
38.04694552951389
 20
175.2590353732638
 11
39.05015733506942
 21
169.3358964843748
 72
     1
 10
39.05015733506942
 20
169.3358964843748
 11
40.43508572048611
 21
169.3358964843748
 72
     1
 10
40.43508572048611
 20
169.3358964843748
 11
36.952783203125
 21
189.0932159288193
 72
     1
 10
36.952783203125
 20
189.0932159288193
 11
35.47828233506943
 21
189.0932159288193
 97
        8
330
26A1
330
269A
330
269B
330
269C
330
269D
330
269E
330
269F
330
26A0
 92
       16
 93
        3
 72
     1
 10
37.67556423611111
 20
177.4497853732638
 11
34.65766059027778
 21
177.4497853732638
 72
     1
 10
34.65766059027778
 20
177.4497853732638
 11
36.19830729166666
 21
186.1658769531249
 72
     1
 10
36.19830729166666
 20
186.1658769531249
 11
37.67556423611111
 21
177.4497853732638
 97
        3
330
2699
330
2697
330
2698
 75
     0
 76
     1
 98
        1
 10
0.0
 20
0.0
  0
HATCH
  5
26A7
330
2686
100
AcDbEntity
  8
0
  6
Continuous
100
AcDbHatch
 10
0.0
 20
0.0
 30
0.0
210
0.0
220
0.0
230
1.0
  2
SOLID
 70
     1
 71
     1
 91
        1
 92
        1
 93
        1
 72
     4
 94
        3
 73
     0
 74
     0
 95
      113
 96
      109
 40
0.0
 40
0.0
 40
0.0
 40
0.0
 40
1.0
 40
1.0
 40
1.0
 40
2.0
 40
2.0
 40
2.0
 40
3.0
 40
3.0
 40
3.0
 40
4.0
 40
4.0
 40
4.0
 40
5.0
 40
5.0
 40
5.0
 40
6.0
 40
6.0
 40
6.0
 40
7.0
 40
7.0
 40
7.0
 40
8.0
 40
8.0
 40
8.0
 40
9.0
 40
9.0
 40
9.0
 40
10.0
 40
10.0
 40
10.0
 40
11.0
 40
11.0
 40
11.0
 40
12.0
 40
12.0
 40
12.0
 40
13.0
 40
13.0
 40
13.0
 40
14.0
 40
14.0
 40
14.0
 40
15.0
 40
15.0
 40
15.0
 40
16.0
 40
16.0
 40
16.0
 40
17.0
 40
17.0
 40
17.0
 40
18.0
 40
18.0
 40
18.0
 40
19.0
 40
19.0
 40
19.0
 40
20.0
 40
20.0
 40
20.0
 40
21.0
 40
21.0
 40
21.0
 40
22.0
 40
22.0
 40
22.0
 40
23.0
 40
23.0
 40
23.0
 40
24.0
 40
24.0
 40
24.0
 40
25.0
 40
25.0
 40
25.0
 40
26.0
 40
26.0
 40
26.0
 40
27.0
 40
27.0
 40
27.0
 40
28.0
 40
28.0
 40
28.0
 40
29.0
 40
29.0
 40
29.0
 40
30.0
 40
30.0
 40
30.0
 40
31.0
 40
31.0
 40
31.0
 40
32.0
 40
32.0
 40
32.0
 40
33.0
 40
33.0
 40
33.0
 40
34.0
 40
34.0
 40
34.0
 40
35.0
 40
35.0
 40
35.0
 40
36.0
 40
36.0
 40
36.0
 40
36.0
 10
193.3039632161458
 20
186.1548733181423
 10
193.3039632161458
 20
186.1860514322916
 10
193.3039632161458
 20
219.6932223849826
 10
193.3039632161458
 20
219.6932223849826
 10
193.3039632161458
 20
219.6932223849826
 10
193.2974175347219
 20
219.7488606770833
 10
193.2974175347219
 20
219.7488606770833
 10
191.5293945312499
 20
235.455740017361
 10
175.1458984374999
 20
235.2467949761284
 10
174.9808783637151
 20
235.2428331163193
 10
174.9808783637151
 20
235.2428331163193
 10
125.8827555338541
 20
235.2430053710937
 10
125.8827555338541
 20
235.2430053710937
 10
125.8827555338541
 20
235.2430053710937
 10
125.8827555338541
 20
255.5278998480901
 10
125.8827555338541
 20
255.5278998480901
 10
125.8827555338541
 20
255.5278998480901
 10
84.5626247829861
 20
255.5278998480901
 10
84.5626247829861
 20
255.5278998480901
 10
84.5626247829861
 20
255.5278998480901
 10
84.55711263020829
 20
233.7919311523436
 10
84.55711263020829
 20
233.7919311523436
 10
84.55711263020829
 20
233.7919311523436
 10
64.42052951388888
 20
233.7919311523436
 10
64.42052951388888
 20
233.7919311523436
 10
64.42052951388888
 20
233.7919311523436
 10
64.41501736111111
 20
255.5278998480901
 10
64.41501736111111
 20
255.5278998480901
 10
64.41501736111111
 20
255.5278998480901
 10
23.91757541232637
 20
255.5278998480901
 10
23.91757541232637
 20
255.5278998480901
 10
23.91757541232637
 20
255.5278998480901
 10
23.91757541232637
 20
233.2393378363715
 10
23.91757541232637
 20
233.2393378363715
 10
23.91757541232637
 20
233.2393378363715
 10
43.65624999999999
 20
233.2393378363715
 10
43.65624999999999
 20
233.2393378363715
 10
43.65624999999999
 20
233.2393378363715
 10
43.65624999999999
 20
211.5188720703125
 10
43.65624999999999
 20
211.5188720703125
 10
43.65624999999999
 20
211.5188720703125
 10
23.91757541232637
 20
211.5188720703125
 10
23.91757541232637
 20
211.5188720703125
 10
23.91757541232637
 20
211.5188720703125
 10
23.91757541232637
 20
189.2303100585936
 10
23.91757541232637
 20
189.2303100585936
 10
23.91757541232637
 20
189.2303100585936
 10
64.41501736111111
 20
189.2303100585936
 10
64.41501736111111
 20
189.2303100585936
 10
64.41501736111111
 20
189.2303100585936
 10
64.42052951388888
 20
211.069976128472
 10
64.42052951388888
 20
211.069976128472
 10
64.42052951388888
 20
211.069976128472
 10
84.55711263020829
 20
211.069976128472
 10
84.55711263020829
 20
211.069976128472
 10
84.55711263020829
 20
211.069976128472
 10
84.5626247829861
 20
189.2303100585936
 10
84.5626247829861
 20
189.2303100585936
 10
84.5626247829861
 20
189.2303100585936
 10
125.8827555338541
 20
189.2303100585936
 10
125.8827555338541
 20
189.2303100585936
 10
125.8827555338541
 20
189.2303100585936
 10
125.8827555338541
 20
211.5188720703125
 10
125.8827555338541
 20
211.5188720703125
 10
125.8827555338541
 20
211.5188720703125
 10
105.3213921440971
 20
211.5188720703125
 10
105.3213921440971
 20
211.5188720703125
 10
105.3213921440971
 20
211.5188720703125
 10
105.3213921440971
 20
233.2393378363715
 10
105.3213921440971
 20
233.2393378363715
 10
105.3213921440971
 20
233.2393378363715
 10
175.0046495225693
 20
233.243127441406
 10
175.0046495225693
 20
233.243127441406
 10
175.6268337673611
 20
233.2560465494791
 10
189.7165852864583
 20
233.3962619357638
 10
191.3037407769094
 20
219.5690266927083
 10
191.3037407769094
 20
219.4332899305555
 10
191.3037407769094
 20
186.1142211914062
 10
191.3037407769094
 20
186.1142211914062
 10
191.3037407769094
 20
186.1142211914062
 10
191.3051188151039
 20
186.0880384657115
 10
191.3051188151039
 20
186.0880384657115
 10
191.3054633246526
 20
186.0787367078991
 10
191.3109754774304
 20
185.9566080729166
 10
191.3109754774304
 20
185.7399115668401
 10
191.3109754774304
 20
184.2090833875865
 10
191.0488037109374
 20
177.9643310546874
 10
186.9866916232638
 20
173.5652886284722
 10
184.2540418836804
 20
170.6064683702255
 10
180.3224989149304
 20
169.0308539496526
 10
175.300927734375
 20
168.8825425889756
 10
175.300927734375
 20
168.8825425889756
 10
107.0094889322916
 20
168.8828870985243
 10
107.0094889322916
 20
168.8828870985243
 10
107.0094889322916
 20
168.8828870985243
 10
107.0094889322916
 20
166.8830091688368
 10
107.0094889322916
 20
166.8830091688368
 10
107.0094889322916
 20
166.8830091688368
 10
175.3305555555555
 20
166.8830091688368
 10
175.3305555555555
 20
166.8830091688368
 10
180.9467502170138
 20
167.0485460069444
 10
185.3571614583333
 20
168.8448187934026
 10
188.4687717013888
 20
172.2223904079861
 10
192.9649658203124
 20
177.1034016927083
 10
193.3136094835069
 20
183.7202243381076
 10
193.3136094835069
 20
185.6520616319443
 10
193.3136094835069
 20
185.9247409396701
 10
193.3070638020833
 20
186.0868326822916
 10
193.3039632161458
 20
186.1548733181423
 97
        1
330
2687
 75
     0
 76
     1
 98
        1
 10
0.0
 20
0.0
  0
HATCH
  5
26A8
330
2686
100
AcDbEntity
  8
0
  6
Continuous
100
AcDbHatch
 10
0.0
 20
0.0
 30
0.0
210
0.0
220
0.0
230
1.0
  2
SOLID
 70
     1
 71
     1
 91
        2
 92
        1
 93
        1
 72
     4
 94
        3
 73
     0
 74
     0
 95
       23
 96
       19
 40
0.0
 40
0.0
 40
0.0
 40
0.0
 40
1.0
 40
1.0
 40
1.0
 40
2.0
 40
2.0
 40
2.0
 40
3.0
 40
3.0
 40
3.0
 40
4.0
 40
4.0
 40
4.0
 40
5.0
 40
5.0
 40
5.0
 40
6.0
 40
6.0
 40
6.0
 40
6.0
 10
148.6593153211804
 20
211.3929538302949
 10
148.6593153211804
 20
211.3929538302949
 10
148.6593153211804
 20
189.630802408854
 10
148.6593153211804
 20
189.630802408854
 10
148.6593153211804
 20
189.630802408854
 10
161.3152180989583
 20
189.630802408854
 10
161.3152180989583
 20
189.630802408854
 10
162.8431179470483
 20
189.630802408854
 10
170.4657362196178
 20
190.1880466037324
 10
170.4657362196178
 20
201.1911648220484
 10
170.4657362196178
 20
211.1288872612845
 10
162.3356553819444
 20
211.3914035373261
 10
162.2536621093749
 20
211.3927815755205
 10
162.2536621093749
 20
211.3927815755205
 10
149.6594265407986
 20
211.3929538302949
 10
149.6594265407986
 20
211.3929538302949
 10
149.6594265407986
 20
211.3929538302949
 10
148.6593153211804
 20
211.3929538302949
 10
148.6593153211804
 20
211.3929538302949
 97
        1
330
2688
 92
       16
 93
        1
 72
     4
 94
        3
 73
     0
 74
     0
 95
       20
 96
       16
 40
0.0
 40
0.0
 40
0.0
 40
0.0
 40
1.0
 40
1.0
 40
1.0
 40
2.0
 40
2.0
 40
2.0
 40
3.0
 40
3.0
 40
3.0
 40
4.0
 40
4.0
 40
4.0
 40
5.0
 40
5.0
 40
5.0
 40
5.0
 10
162.2354031032984
 20
209.3930759006075
 10
162.467947048611
 20
209.3861857096352
 10
168.4655137803819
 20
209.1283203124997
 10
168.4655137803819
 20
201.1911648220484
 10
168.4655137803819
 20
192.3202162000866
 10
162.9926350911458
 20
191.6306803385414
 10
161.3152180989583
 20
191.6306803385414
 10
161.3152180989583
 20
191.6306803385414
 10
152.3310980902776
 20
191.6306803385414
 10
150.6595377604166
 20
191.6306803385414
 10
150.6595377604166
 20
193.3373806423609
 10
150.6595377604166
 20
207.686375596788
 10
150.6595377604166
 20
209.3930759006075
 10
152.3538357204859
 20
209.3930759006075
 10
162.2354031032984
 20
209.3930759006075
 10
162.2354031032984
 20
209.3930759006075
 97
        0
 75
     0
 76
     1
 98
        0
  0
ENDBLK
  5
26AA
330
2686
100
AcDbEntity
  8
0
100
AcDbBlockEnd
  0
BLOCK
  5
26AD
330
26AB
100
AcDbEntity
  8
0
100
AcDbBlockBegin
  2
HD logo-new
 70
     0
 10
0.0
 20
0.0
 30
0.0
  3
HD logo-new
  1

  0
INSERT
  5
26AC
330
26AB
100
AcDbEntity
  8
0
 62
     3
100
AcDbBlockReference
  2
HD_LLC_logo_OT5
 10
-27.1607188578505
 20
-68.37367811463031
 30
0.0
 41
0.2999999999999971
 42
0.3000000000000007
 43
0.3
  0
ENDBLK
  5
26AE
330
26AB
100
AcDbEntity
  8
0
100
AcDbBlockEnd
  0
BLOCK
  5
26B1
330
26AF
100
AcDbEntity
  8
0
100
AcDbBlockBegin
  2
HD Logo
 70
     0
 10
0.0
 20
0.0
 30
0.0
  3
HD Logo
  1

  0
INSERT
  5
26B0
330
26AF
100
AcDbEntity
  8
0
100
AcDbBlockReference
  2
HD logo-new
 10
0.9700256734946606
 20
7.273795608420527
 30
0.0
  0
ENDBLK
  5
26B2
330
26AF
100
AcDbEntity
  8
0
100
AcDbBlockEnd
  0
BLOCK
  5
26BD
330
26BB
100
AcDbEntity
  8
0
100
AcDbBlockBegin
  2
Harmonic Drive LLC
 70
     0
 10
0.0
 20
0.0
 30
0.0
  3
Harmonic Drive LLC
  1

  0
MTEXT
  5
26BC
330
26BB
100
AcDbEntity
  8
0
100
AcDbMText
 10
8.730232253264317
 20
-1.454758693481394
 30
0.0
 40
5.25
 41
158.5992
 71
     5
 72
     5
  1
{\fArial|b0|i0|c0|p34;Harmonic Drive LLC\P800-921-3332\Pwww.harmonicdrive.net}
 73
     1
 44
1.0
  0
ENDBLK
  5
26BE
330
26BB
100
AcDbEntity
  8
0
100
AcDbBlockEnd
  0
BLOCK
  5
296C
330
26D7
100
AcDbEntity
  8
0
100
AcDbBlockBegin
  2
A$C40874447
 70
     0
 10
0.0
 20
0.0
 30
0.0
  3
A$C40874447
  1

  0
CIRCLE
  5
26D8
330
26D7
100
AcDbEntity
  8
1
 62
     7
100
AcDbCircle
 10
119.9848100656019
 20
27.72133514499732
 30
0.0
 40
4.500000000000023
  0
CIRCLE
  5
26D9
330
26D7
100
AcDbEntity
  8
1
 62
     7
100
AcDbCircle
 10
49.9848100656
 20
27.72133514498436
 30
0.0
 40
4.500000000000023
  0
CIRCLE
  5
26DA
330
26D7
100
AcDbEntity
  8
1
  6
CENTER
 62
     3
100
AcDbCircle
 10
84.98481006558973
 20
88.34311340990323
 30
0.0
 40
70.0000000000021
  0
CIRCLE
  5
26DB
330
26D7
100
AcDbEntity
  8
1
 62
     7
100
AcDbCircle
 10
84.98481006558973
 20
88.34311340990323
 30
0.0
 40
62.00000000000212
  0
CIRCLE
  5
26DC
330
26D7
100
AcDbEntity
  8
1
 62
     7
100
AcDbCircle
 10
84.98481006558973
 20
88.34311340990323
 30
0.0
 40
77.49999999995957
  0
LINE
  5
26DD
330
26D7
100
AcDbEntity
  8
1
  6
CENTER
 62
     3
100
AcDbLine
 10
84.98481006558973
 20
145.9931134099049
 30
0.0
 11
84.98481006558973
 21
3.343113409943839
 31
0.0
  0
LINE
  5
26DE
330
26D7
100
AcDbEntity
  8
1
  6
DASHDOT
 62
     3
100
AcDbLine
 10
65.12044835397151
 20
14.2083062422174
 30
0.0
 11
68.6145054628555
 21
27.24830489711982
 31
0.0
  0
LINE
  5
26DF
330
26D7
100
AcDbEntity
  8
1
  6
DASHDOT
 62
     3
100
AcDbLine
 10
123.3598100656031
 20
21.87566366945298
 30
0.0
 11
116.6098100656008
 21
33.56700662054166
 31
0.0
  0
LINE
  5
26E0
330
26D7
100
AcDbEntity
  8
1
  6
DASHDOT
 62
     3
100
AcDbLine
 10
46.60981006560091
 20
21.8756636694388
 30
0.0
 11
53.35981006559899
 21
33.56700662052996
 31
0.0
  0
LINE
  5
26E1
330
26D7
100
AcDbEntity
  8
1
 62
     7
100
AcDbLine
 10
286.9585643239386
 20
26.74311340990552
 30
0.0
 11
286.9585643239386
 21
30.49311340991998
 31
0.0
  0
LINE
  5
26E2
330
26D7
100
AcDbEntity
  8
1
 62
     7
100
AcDbLine
 10
309.9585643239386
 20
26.34311340992143
 30
0.0
 11
309.9585643239386
 21
28.84311340990688
 31
0.0
  0
CIRCLE
  5
26E3
330
26D7
100
AcDbEntity
  8
1
 62
     7
100
AcDbCircle
 10
84.98481006560274
 20
18.34311340990129
 30
0.0
 40
4.5
  0
CIRCLE
  5
26E4
330
26D7
100
AcDbEntity
  8
1
 62
     7
100
AcDbCircle
 10
66.86747690841331
 20
20.72830556966863
 30
0.0
 40
3.199999999999898
  0
CIRCLE
  5
26E5
330
26D7
100
AcDbEntity
  8
1
 62
     3
100
AcDbCircle
 10
66.86747690841331
 20
20.72830556966863
 30
0.0
 40
4.0
  0
LINE
  5
26E6
330
26D7
100
AcDbEntity
  8
1
 62
     7
100
AcDbLine
 10
290.9585643239381
 20
22.84311340991391
 30
0.0
 11
309.9585643239386
 21
22.84311340991738
 31
0.0
  0
LINE
  5
26E7
330
26D7
100
AcDbEntity
  8
1
 62
     7
100
AcDbLine
 10
290.9585643239389
 20
13.84311340991391
 30
0.0
 11
309.9585643239386
 21
13.84311340991738
 31
0.0
  0
LINE
  5
26E8
330
26D7
100
AcDbEntity
  8
1
  6
CENTER
 62
     3
100
AcDbLine
 10
288.2585643239386
 20
18.34311340991364
 30
0.0
 11
312.6585643239386
 21
18.34311340991703
 31
0.0
  0
LINE
  5
26E9
330
26D7
100
AcDbEntity
  8
1
 62
     7
100
AcDbLine
 10
291.3585643239382
 20
10.8431134099146
 30
0.0
 11
309.5585643239384
 21
10.8431134099146
 31
0.0
  0
LINE
  5
26EA
330
26D7
100
AcDbEntity
  8
1
 62
     7
100
AcDbLine
 10
290.9585643239386
 20
15.14311340991739
 30
0.0
 11
290.9585643239386
 21
21.54311340991736
 31
0.0
  0
LINE
  5
26EB
330
26D7
100
AcDbEntity
  8
1
 62
     7
100
AcDbLine
 10
290.9585643239389
 20
13.84311340991391
 30
0.0
 11
290.9585643239386
 21
14.34311340991738
 31
0.0
  0
LINE
  5
26EC
330
26D7
100
AcDbEntity
  8
1
 62
     7
100
AcDbLine
 10
290.9585643239386
 20
14.34311340991738
 30
0.0
 11
290.9585643239386
 21
15.14311340991739
 31
0.0
  0
LINE
  5
26ED
330
26D7
100
AcDbEntity
  8
1
 62
     7
100
AcDbLine
 10
290.9585643239386
 20
11.2431134099146
 30
0.0
 11
290.9585643239389
 21
13.84311340991391
 31
0.0
  0
LINE
  5
26EE
330
26D7
100
AcDbEntity
  8
1
 62
     7
100
AcDbLine
 10
291.3585643239382
 20
10.8431134099146
 30
0.0
 11
290.9585643239386
 21
11.2431134099146
 31
0.0
  0
ARC
  5
26EF
330
26D7
100
AcDbEntity
  8
1
 62
     7
100
AcDbCircle
 10
290.6585643239385
 20
26.04311340990554
 30
0.0
 40
0.300000000000012
100
AcDbArc
 50
0.0
 51
90.0
  0
LINE
  5
26F0
330
26D7
100
AcDbEntity
  8
1
 62
     7
100
AcDbLine
 10
290.9585643239381
 20
22.84311340991391
 30
0.0
 11
290.9585643239386
 21
22.34311340991737
 31
0.0
  0
LINE
  5
26F1
330
26D7
100
AcDbEntity
  8
1
 62
     7
100
AcDbLine
 10
290.9585643239386
 20
21.54311340991736
 30
0.0
 11
290.9585643239386
 21
22.34311340991737
 31
0.0
  0
LINE
  5
26F2
330
26D7
100
AcDbEntity
  8
1
 62
     7
100
AcDbLine
 10
286.9585643239386
 20
26.74311340990552
 30
0.0
 11
287.3585643239383
 21
26.34311340990554
 31
0.0
  0
LINE
  5
26F3
330
26D7
100
AcDbEntity
  8
1
 62
     7
100
AcDbLine
 10
287.3585643239383
 20
26.34311340990554
 30
0.0
 11
290.6585643239385
 21
26.34311340990554
 31
0.0
  0
LINE
  5
26F4
330
26D7
100
AcDbEntity
  8
1
 62
     7
100
AcDbLine
 10
290.9585643239386
 20
26.04311340990554
 30
0.0
 11
290.9585643239381
 21
22.84311340991391
 31
0.0
  0
LINE
  5
26F5
330
26D7
100
AcDbEntity
  8
1
 62
     7
100
AcDbLine
 10
309.9585643239386
 20
22.84311340991738
 30
0.0
 11
309.9585643239386
 21
13.84311340991738
 31
0.0
  0
LINE
  5
26F6
330
26D7
100
AcDbEntity
  8
1
 62
     7
100
AcDbLine
 10
309.9585643239386
 20
13.84311340991738
 30
0.0
 11
309.9585643239386
 21
11.2431134099146
 31
0.0
  0
LINE
  5
26F7
330
26D7
100
AcDbEntity
  8
1
 62
     7
100
AcDbLine
 10
309.9585643239386
 20
11.2431134099146
 30
0.0
 11
309.5585643239384
 21
10.8431134099146
 31
0.0
  0
LINE
  5
26F8
330
26D7
100
AcDbEntity
  8
1
 62
     7
100
AcDbLine
 10
309.9585643239386
 20
26.34311340992143
 30
0.0
 11
309.9585643239386
 21
22.84311340991738
 31
0.0
  0
CIRCLE
  5
26F9
330
26D7
100
AcDbEntity
  8
1
 62
     7
100
AcDbCircle
 10
84.98481006558973
 20
88.34311340990323
 30
0.0
 40
57.6500000000016
  0
CIRCLE
  5
26FA
330
26D7
100
AcDbEntity
  8
1
 62
     7
100
AcDbCircle
 10
119.9848100655796
 20
148.9648916748221
 30
0.0
 40
4.500000000000023
  0
CIRCLE
  5
26FB
330
26D7
100
AcDbEntity
  8
1
 62
     7
100
AcDbCircle
 10
84.98481006558973
 20
88.34311340990323
 30
0.0
 40
55.90000000000143
  0
CIRCLE
  5
26FC
330
26D7
100
AcDbEntity
  8
1
 62
     7
100
AcDbCircle
 10
111.9848100655917
 20
88.34311340990323
 30
0.0
 40
6.750000000000007
  0
CIRCLE
  5
26FD
330
26D7
100
AcDbEntity
  8
1
 62
     7
100
AcDbCircle
 10
84.98481006558973
 20
88.34311340990323
 30
0.0
 40
35.49999999999564
  0
LINE
  5
26FE
330
26D7
100
AcDbEntity
  8
1
  6
CENTER
 62
     3
100
AcDbLine
 10
-0.0000008468419992
 20
88.34311340990323
 30
0.0
 11
169.9848100655491
 21
88.34311340990323
 31
0.0
  0
CIRCLE
  5
26FF
330
26D7
100
AcDbEntity
  8
1
 62
     7
100
AcDbCircle
 10
103.1021432227662
 20
155.957921250138
 30
0.0
 40
3.200000000000101
  0
CIRCLE
  5
2700
330
26D7
100
AcDbEntity
  8
1
 62
     3
100
AcDbCircle
 10
103.1021432227662
 20
155.957921250138
 30
0.0
 40
4.0
  0
CIRCLE
  5
2701
330
26D7
100
AcDbEntity
  8
1
 62
     7
100
AcDbCircle
 10
84.98481006557673
 20
158.3431134099054
 30
0.0
 40
4.5
  0
LINE
  5
2702
330
26D7
100
AcDbEntity
  8
1
  6
DASHDOT
 62
     3
100
AcDbLine
 10
104.8491717772081
 20
162.4779205775891
 30
0.0
 11
101.355114668324
 21
149.4379219226869
 31
0.0
  0
LINE
  5
2703
330
26D7
100
AcDbEntity
  8
1
  6
CENTER
 62
     3
100
AcDbLine
 10
84.98481006558973
 20
173.3431134098628
 30
0.0
 11
84.98481006558973
 21
145.9931134099049
 31
0.0
  0
CIRCLE
  5
2704
330
26D7
100
AcDbEntity
  8
1
 62
     7
100
AcDbCircle
 10
14.98481006558759
 20
88.34311340989041
 30
0.0
 40
4.499999999999992
  0
CIRCLE
  5
2705
330
26D7
100
AcDbEntity
  8
1
 62
     7
100
AcDbCircle
 10
57.98481006558761
 20
88.34311340990323
 30
0.0
 40
6.749999999999992
  0
CIRCLE
  5
2706
330
26D7
100
AcDbEntity
  8
1
  6
CENTER
 62
     3
100
AcDbCircle
 10
84.98481006558973
 20
88.34311340990323
 30
0.0
 40
27.0000000000021
  0
CIRCLE
  5
2707
330
26D7
100
AcDbEntity
  8
1
 62
     7
100
AcDbCircle
 10
84.98481006558973
 20
88.34311340990323
 30
0.0
 40
17.50000000000212
  0
CIRCLE
  5
2708
330
26D7
100
AcDbEntity
  8
1
 62
     7
100
AcDbCircle
 10
65.89292697355149
 20
69.2512303178649
 30
0.0
 40
6.750000000000007
  0
LINE
  5
2709
330
26D7
100
AcDbEntity
  8
1
  6
CENTER
 62
     3
100
AcDbLine
 10
58.7334708140377
 20
62.09177415835132
 30
0.0
 11
73.05238313306528
 21
76.41068647737833
 31
0.0
  0
CIRCLE
  5
270A
330
26D7
100
AcDbEntity
  8
1
 62
     7
100
AcDbCircle
 10
24.36303180068373
 20
53.34311340989103
 30
0.0
 40
4.500000000000004
  0
LINE
  5
270B
330
26D7
100
AcDbEntity
  8
1
  6
DASHDOT
 62
     3
100
AcDbLine
 10
18.5173603251394
 20
49.96811340988982
 30
0.0
 11
30.20870327622799
 21
56.71811340989201
 31
0.0
  0
CIRCLE
  5
270C
330
26D7
100
AcDbEntity
  8
1
 62
     3
100
AcDbCircle
 10
96.65665475272415
 20
60.16478766831102
 30
0.0
 40
2.999999999999951
  0
CIRCLE
  5
270D
330
26D7
100
AcDbEntity
  8
1
 62
     7
100
AcDbCircle
 10
96.65665475272415
 20
60.16478766831102
 30
0.0
 40
2.399999999999919
  0
CIRCLE
  5
270E
330
26D7
100
AcDbEntity
  8
1
 62
     7
100
AcDbCircle
 10
84.98481006558973
 20
61.34311340990102
 30
0.0
 40
6.75
  0
ARC
  5
270F
330
26D7
100
AcDbEntity
  8
1
  6
CENTER
 62
     3
100
AcDbCircle
 10
84.98481006558973
 20
88.34311340990323
 30
0.0
 40
30.49999999999789
100
AcDbArc
 50
282.7387681659484
 51
302.5257658417362
  0
LINE
  5
2710
330
26D7
100
AcDbEntity
  8
1
  6
CENTER
 62
     3
100
AcDbLine
 10
98.37873019836706
 20
56.00732977201021
 30
0.0
 11
94.93457930708123
 21
64.3222455646118
 31
0.0
  0
LINE
  5
2711
330
26D7
100
AcDbEntity
  8
1
 62
     7
100
AcDbLine
 10
96.65665475272415
 20
60.16478766831102
 30
0.0
 11
97.80470504981934
 21
57.39314907077702
 31
0.0
  0
LINE
  5
2712
330
26D7
100
AcDbEntity
  8
1
 62
     7
100
AcDbLine
 10
96.65665475272415
 20
60.16478766831102
 30
0.0
 11
93.88501615519023
 21
59.01673737121552
 31
0.0
  0
LINE
  5
2713
330
26D7
100
AcDbEntity
  8
1
  6
CENTER
 62
     3
100
AcDbLine
 10
111.2361493171418
 20
62.0917741583512
 30
0.0
 11
96.91723699811413
 21
76.41068647737833
 31
0.0
  0
CIRCLE
  5
2714
330
26D7
100
AcDbEntity
  8
1
 62
     7
100
AcDbCircle
 10
104.0766931576279
 20
69.2512303178649
 30
0.0
 40
6.749999999999992
  0
LINE
  5
2715
330
26D7
100
AcDbEntity
  8
1
 62
     7
100
AcDbLine
 10
96.65665475272415
 20
60.16478766831102
 30
0.0
 11
99.42829335025797
 21
61.31283796540632
 31
0.0
  0
CIRCLE
  5
2716
330
26D7
100
AcDbEntity
  8
1
 62
     7
100
AcDbCircle
 10
65.89292697355149
 20
107.4349965019416
 30
0.0
 40
6.75
  0
LINE
  5
2717
330
26D7
100
AcDbEntity
  8
1
  6
CENTER
 62
     3
100
AcDbLine
 10
58.7334708140377
 20
114.5944526614554
 30
0.0
 11
73.05238313306528
 21
100.2755403424277
 31
0.0
  0
CIRCLE
  5
2718
330
26D7
100
AcDbEntity
  8
1
 62
     7
100
AcDbCircle
 10
24.3630318006708
 20
123.3431134098927
 30
0.0
 40
4.5
  0
LINE
  5
2719
330
26D7
100
AcDbEntity
  8
1
  6
DASHDOT
 62
     3
100
AcDbLine
 10
18.51736032512511
 20
126.718113409892
 30
0.0
 11
30.20870327621631
 21
119.9681134098938
 31
0.0
  0
CIRCLE
  5
271A
330
26D7
100
AcDbEntity
  8
1
 62
     7
100
AcDbCircle
 10
49.9848100655774
 20
148.9648916748094
 30
0.0
 40
4.500000000000023
  0
LINE
  5
271B
330
26D7
100
AcDbEntity
  8
1
  6
DASHDOT
 62
     3
100
AcDbLine
 10
46.60981006557641
 20
154.8105631503536
 30
0.0
 11
53.35981006557851
 21
143.119220199265
 31
0.0
  0
CIRCLE
  5
271C
330
26D7
100
AcDbEntity
  8
1
 62
     7
100
AcDbCircle
 10
84.98481006558973
 20
115.3431134099055
 30
0.0
 40
6.75
  0
LINE
  5
271D
330
26D7
100
AcDbEntity
  8
1
  6
CENTER
 62
     3
100
AcDbLine
 10
84.98481006558973
 20
105.8431134099054
 30
0.0
 11
84.98481006558973
 21
105.2181134099054
 31
0.0
  0
CIRCLE
  5
271E
330
26D7
100
AcDbEntity
  8
1
 62
     7
100
AcDbCircle
 10
73.31296537845533
 20
116.5214391514955
 30
0.0
 40
2.400000000000078
  0
CIRCLE
  5
271F
330
26D7
100
AcDbEntity
  8
1
 62
     3
100
AcDbCircle
 10
73.31296537845533
 20
116.5214391514955
 30
0.0
 40
3.000000000000127
  0
ARC
  5
2720
330
26D7
100
AcDbEntity
  8
1
  6
CENTER
 62
     3
100
AcDbCircle
 10
84.98481006558973
 20
88.34311340990323
 30
0.0
 40
30.49999999999783
100
AcDbArc
 50
101.5432787415282
 51
112.5000000000004
  0
LINE
  5
2721
330
26D7
100
AcDbEntity
  8
1
 62
     7
100
AcDbLine
 10
73.31296537845533
 20
116.5214391514955
 30
0.0
 11
76.08460397598911
 21
117.6694894485909
 31
0.0
  0
LINE
  5
2722
330
26D7
100
AcDbEntity
  8
1
  6
CENTER
 62
     3
100
AcDbLine
 10
71.59088993281241
 20
120.6788970477965
 30
0.0
 11
75.03504082409826
 21
112.3639812551949
 31
0.0
  0
LINE
  5
2723
330
26D7
100
AcDbEntity
  8
1
 62
     7
100
AcDbLine
 10
73.31296537845533
 20
116.5214391514955
 30
0.0
 11
72.16491508135994
 21
119.2930777490295
 31
0.0
  0
ARC
  5
2724
330
26D7
100
AcDbEntity
  8
1
  6
CENTER
 62
     3
100
AcDbCircle
 10
84.98481006558973
 20
88.34311340990323
 30
0.0
 40
30.49999999999783
100
AcDbArc
 50
112.5000000000004
 51
123.4567212584712
  0
LINE
  5
2725
330
26D7
100
AcDbEntity
  8
1
 62
     7
100
AcDbLine
 10
73.31296537845533
 20
116.5214391514955
 30
0.0
 11
70.54132678092141
 21
115.3733888544004
 31
0.0
  0
CIRCLE
  5
2726
330
26D7
100
AcDbEntity
  8
1
 62
     7
100
AcDbCircle
 10
104.0766931576279
 20
107.4349965019416
 30
0.0
 40
6.750000000000062
  0
LINE
  5
2727
330
26D7
100
AcDbEntity
  8
1
  6
CENTER
 62
     3
100
AcDbLine
 10
111.2361493171418
 20
114.5944526614554
 30
0.0
 11
96.91723699811413
 21
100.2755403424279
 31
0.0
  0
LINE
  5
2728
330
26D7
100
AcDbEntity
  8
1
 62
     7
100
AcDbLine
 10
309.9585643239386
 20
165.4431134099151
 30
0.0
 11
309.9585643239386
 21
150.3431134099033
 31
0.0
  0
LINE
  5
2729
330
26D7
100
AcDbEntity
  8
1
 62
     7
100
AcDbLine
 10
290.9585643239386
 20
165.4431134099151
 30
0.0
 11
290.9585643239386
 21
150.6431134099053
 31
0.0
  0
LINE
  5
272A
330
26D7
100
AcDbEntity
  8
1
 62
     7
100
AcDbLine
 10
302.9585643239386
 20
162.8431134099045
 30
0.0
 11
302.9585643239386
 21
153.8431134099044
 31
0.0
  0
LINE
  5
272B
330
26D7
100
AcDbEntity
  8
1
 62
     7
100
AcDbLine
 10
301.6585643239384
 20
161.5431134099043
 30
0.0
 11
301.6585643239384
 21
155.1431134099045
 31
0.0
  0
CIRCLE
  5
272C
330
26D7
100
AcDbEntity
  8
1
 62
     7
100
AcDbCircle
 10
154.9848100655917
 20
88.34311340991581
 30
0.0
 40
4.5
  0
CIRCLE
  5
272D
330
26D7
100
AcDbEntity
  8
1
 62
     7
100
AcDbCircle
 10
145.6065883305087
 20
53.34311340991352
 30
0.0
 40
4.5
  0
LINE
  5
272E
330
26D7
100
AcDbEntity
  8
1
  6
DASHDOT
 62
     3
100
AcDbLine
 10
151.4522598060543
 20
49.96811340991452
 30
0.0
 11
139.7609168549631
 21
56.7181134099123
 31
0.0
  0
CIRCLE
  5
272F
330
26D7
100
AcDbEntity
  8
1
 62
     7
100
AcDbCircle
 10
145.6065883304958
 20
123.3431134099156
 30
0.0
 40
4.5
  0
LINE
  5
2730
330
26D7
100
AcDbEntity
  8
1
  6
DASHDOT
 62
     3
100
AcDbLine
 10
151.4522598060402
 20
126.7181134099166
 30
0.0
 11
139.7609168549515
 21
119.9681134099145
 31
0.0
  0
LINE
  5
2731
330
26D7
100
AcDbEntity
  8
1
  6
DASHDOT
 62
     3
100
AcDbLine
 10
123.3598100655786
 20
154.8105631503679
 30
0.0
 11
116.6098100655807
 21
143.1192201992766
 31
0.0
  0
LINE
  5
2732
330
26D7
100
AcDbEntity
  8
1
 62
     7
100
AcDbLine
 10
283.5585643239383
 20
71.34311340990331
 30
0.0
 11
283.5585643239383
 21
124.5931134099066
 31
0.0
  0
LINE
  5
2733
330
26D7
100
AcDbEntity
  8
1
 62
     7
100
AcDbLine
 10
311.4585643239382
 20
97.35699159856322
 30
0.0
 11
311.4585643239382
 21
72.84311340989612
 31
0.0
  0
LINE
  5
2734
330
26D7
100
AcDbEntity
  8
1
 62
     7
100
AcDbLine
 10
257.4585643239385
 20
108.5931134099068
 30
0.0
 11
257.4585643239385
 21
60.84311340990682
 31
0.0
  0
LINE
  5
2735
330
26D7
100
AcDbEntity
  8
1
 62
     7
100
AcDbLine
 10
252.9585643239385
 20
108.5931134099068
 30
0.0
 11
252.9585643239385
 21
60.84311340990682
 31
0.0
  0
ARC
  5
2736
330
26D7
100
AcDbEntity
  8
1
 62
     7
100
AcDbCircle
 10
278.4953482182094
 20
-12.6448865900932
 30
0.0
 40
44.90607755797022
100
AcDbArc
 50
75.52552293743772
 51
90.94265879188355
  0
LINE
  5
2737
330
26D7
100
AcDbEntity
  8
1
  6
CENTER
 62
     3
100
AcDbLine
 10
247.9152616043406
 20
88.3431134099068
 30
0.0
 11
312.8669644182455
 21
88.3431134099068
 31
0.0
  0
LINE
  5
2738
330
26D7
100
AcDbEntity
  8
1
 62
     7
100
AcDbLine
 10
260.2715643239385
 20
33.1321134099066
 30
0.0
 11
308.7585643239383
 21
33.1321134099066
 31
0.0
  0
LINE
  5
2739
330
26D7
100
AcDbEntity
  8
1
 62
     7
100
AcDbLine
 10
257.4585643239385
 20
60.24311340990682
 30
0.0
 11
257.4585643239385
 21
55.44311340990681
 31
0.0
  0
LINE
  5
273A
330
26D7
100
AcDbEntity
  8
1
 62
     7
100
AcDbLine
 10
252.9585643239385
 20
60.24311340990682
 30
0.0
 11
252.9585643239385
 21
55.44311340990681
 31
0.0
  0
LINE
  5
273B
330
26D7
100
AcDbEntity
  8
1
 62
     7
100
AcDbLine
 10
257.4585643239385
 20
54.84311340990682
 30
0.0
 11
257.4585643239385
 21
35.94511340990661
 31
0.0
  0
LINE
  5
273C
330
26D7
100
AcDbEntity
  8
1
 62
     7
100
AcDbLine
 10
256.5815643239385
 20
51.89311340990681
 30
0.0
 11
256.5815643239385
 21
35.71811340990683
 31
0.0
  0
LINE
  5
273D
330
26D7
100
AcDbEntity
  8
1
  6
DIVIDE
 62
     7
100
AcDbLine
 10
266.3257605274495
 20
28.84311340990688
 30
0.0
 11
254.4585643239386
 21
28.84311340990688
 31
0.0
  0
LINE
  5
273E
330
26D7
100
AcDbEntity
  8
1
 62
     7
100
AcDbLine
 10
277.7565643239383
 20
32.25511340990682
 30
0.0
 11
260.0445643239385
 21
32.25511340990684
 31
0.0
  0
ARC
  5
273F
330
26D7
100
AcDbEntity
  8
1
 62
     7
100
AcDbCircle
 10
260.2715643239385
 20
35.94511340990661
 30
0.0
 40
2.812999999999988
100
AcDbArc
 50
180.0
 51
270.0
  0
ARC
  5
2740
330
26D7
100
AcDbEntity
  8
1
 62
     7
100
AcDbCircle
 10
260.0445643239385
 20
35.71811340990683
 30
0.0
 40
3.46300000000004
100
AcDbArc
 50
180.0
 51
270.0
  0
LINE
  5
2741
330
26D7
100
AcDbEntity
  8
1
  6
DIVIDE
 62
     7
100
AcDbLine
 10
254.4585643239386
 20
28.84311340990688
 30
0.0
 11
254.4585643239386
 21
39.95143019400602
 31
0.0
  0
ARC
  5
2742
330
26D7
100
AcDbEntity
  8
1
 62
     7
100
AcDbCircle
 10
256.1315643239384
 20
51.89311340990681
 30
0.0
 40
0.4500000000000385
100
AcDbArc
 50
0.0
 51
90.0
  0
LINE
  5
2743
330
26D7
100
AcDbEntity
  8
1
 62
     7
100
AcDbLine
 10
253.4585643239385
 20
52.34311340990642
 30
0.0
 11
256.1315643239384
 21
52.34311340990682
 31
0.0
  0
LINE
  5
2744
330
26D7
100
AcDbEntity
  8
1
 62
     7
100
AcDbLine
 10
252.9585643239385
 20
52.84311340990661
 30
0.0
 11
253.4585643239385
 21
52.34311340990642
 31
0.0
  0
LINE
  5
2745
330
26D7
100
AcDbEntity
  8
1
 62
     3
100
AcDbLine
 10
257.4585643239385
 20
54.84311340990682
 30
0.0
 11
252.9585643239385
 21
54.84311340990682
 31
0.0
  0
LINE
  5
2746
330
26D7
100
AcDbEntity
  8
1
 62
     7
100
AcDbLine
 10
252.9585643239385
 20
54.84311340990682
 30
0.0
 11
252.9585643239385
 21
52.84311340990661
 31
0.0
  0
LINE
  5
2747
330
26D7
100
AcDbEntity
  8
1
  6
CENTER
 62
     3
100
AcDbLine
 10
258.3585643239384
 20
57.84311340990682
 30
0.0
 11
252.0585643239385
 21
57.84311340990682
 31
0.0
  0
LINE
  5
2748
330
26D7
100
AcDbEntity
  8
1
 62
     7
100
AcDbLine
 10
257.4585643239385
 20
55.44311340990681
 30
0.0
 11
252.9585643239385
 21
55.44311340990681
 31
0.0
  0
LINE
  5
2749
330
26D7
100
AcDbEntity
  8
1
 62
     7
100
AcDbLine
 10
257.4585643239385
 20
55.44311340990681
 30
0.0
 11
257.4585643239385
 21
54.84311340990682
 31
0.0
  0
LINE
  5
274A
330
26D7
100
AcDbEntity
  8
1
 62
     7
100
AcDbLine
 10
252.9585643239385
 20
55.44311340990681
 30
0.0
 11
252.9585643239385
 21
54.84311340990682
 31
0.0
  0
LINE
  5
274B
330
26D7
100
AcDbEntity
  8
1
 62
     3
100
AcDbLine
 10
257.4585643239385
 20
60.84311340990682
 30
0.0
 11
252.9585643239385
 21
60.84311340990682
 31
0.0
  0
LINE
  5
274C
330
26D7
100
AcDbEntity
  8
1
 62
     7
100
AcDbLine
 10
257.4585643239385
 20
60.84311340990682
 30
0.0
 11
257.4585643239385
 21
60.24311340990682
 31
0.0
  0
LINE
  5
274D
330
26D7
100
AcDbEntity
  8
1
 62
     7
100
AcDbLine
 10
252.9585643239385
 20
60.84311340990682
 30
0.0
 11
252.9585643239385
 21
60.24311340990682
 31
0.0
  0
LINE
  5
274E
330
26D7
100
AcDbEntity
  8
1
 62
     7
100
AcDbLine
 10
257.4585643239385
 20
60.24311340990682
 30
0.0
 11
252.9585643239385
 21
60.24311340990682
 31
0.0
  0
LINE
  5
274F
330
26D7
100
AcDbEntity
  8
1
 62
     7
100
AcDbLine
 10
252.9585643239385
 20
70.34311340990669
 30
0.0
 11
257.4585643239385
 21
70.34311340990669
 31
0.0
  0
LINE
  5
2750
330
26D7
100
AcDbEntity
  8
1
 62
     7
100
AcDbLine
 10
283.5585643239383
 20
71.34311340990331
 30
0.0
 11
283.5585643239383
 21
52.59265408464741
 31
0.0
  0
LINE
  5
2751
330
26D7
100
AcDbEntity
  8
1
 62
     7
100
AcDbLine
 10
283.7585643239383
 20
69.34311340989612
 30
0.0
 11
283.7585643239383
 21
52.34311340989612
 31
0.0
  0
LINE
  5
2752
330
26D7
100
AcDbEntity
  8
1
 62
     7
100
AcDbLine
 10
294.2585643239386
 20
66.59311340991182
 30
0.0
 11
294.2585643239386
 21
48.64311340989901
 31
0.0
  0
LINE
  5
2753
330
26D7
100
AcDbEntity
  8
1
 62
     7
100
AcDbLine
 10
306.2585643239383
 20
48.64311340989901
 30
0.0
 11
306.2585643239383
 21
67.09311340989602
 31
0.0
  0
LINE
  5
2754
330
26D7
100
AcDbEntity
  8
1
 62
     7
100
AcDbLine
 10
289.4585643239386
 20
69.34311340989612
 30
0.0
 11
289.4585643239386
 21
52.34311340989612
 31
0.0
  0
ARC
  5
2755
330
26D7
100
AcDbEntity
  8
1
 62
     7
100
AcDbCircle
 10
300.5050643239381
 20
41.01161340990701
 30
0.0
 40
5.499999999999968
100
AcDbArc
 50
291.1215318066514
 51
59.30637715623035
  0
LINE
  5
2756
330
26D7
100
AcDbEntity
  8
1
 62
     7
100
AcDbLine
 10
294.2585643239386
 20
48.64311340989901
 30
0.0
 11
306.2585643239383
 21
48.64311340989901
 31
0.0
  0
LINE
  5
2757
330
26D7
100
AcDbEntity
  8
1
 62
     7
100
AcDbLine
 10
288.9585643239385
 20
30.69316786283829
 30
0.0
 11
309.7585638594092
 21
30.69311340990195
 31
0.0
  0
LINE
  5
2758
330
26D7
100
AcDbEntity
  8
1
 62
     7
100
AcDbLine
 10
308.7585643239383
 20
31.69311340991997
 30
0.0
 11
288.1585643239387
 21
31.69311340991997
 31
0.0
  0
LINE
  5
2759
330
26D7
100
AcDbEntity
  8
1
 62
     7
100
AcDbLine
 10
308.4154262184625
 20
30.77497530443139
 30
0.0
 11
304.1085643239384
 21
30.72611340990681
 31
0.0
  0
LINE
  5
275A
330
26D7
100
AcDbEntity
  8
1
 62
     7
100
AcDbLine
 10
307.9485643239383
 20
33.12011340990697
 30
0.0
 11
300.5050643239381
 21
33.12011340990697
 31
0.0
  0
LINE
  5
275B
330
26D7
100
AcDbEntity
  8
1
 62
     7
100
AcDbLine
 10
308.3485643239383
 20
35.8811134099071
 30
0.0
 11
302.4869749551223
 21
35.8811134099071
 31
0.0
  0
LINE
  5
275C
330
26D7
100
AcDbEntity
  8
1
 62
     7
100
AcDbLine
 10
306.2220643239386
 20
47.99911340990701
 30
0.0
 11
305.6220643239386
 21
48.599113409907
 31
0.0
  0
LINE
  5
275D
330
26D7
100
AcDbEntity
  8
1
 62
     7
100
AcDbLine
 10
305.6220643239386
 20
45.74111340990691
 30
0.0
 11
306.2220643239386
 21
46.34111340990682
 31
0.0
  0
ARC
  5
275E
330
26D7
100
AcDbEntity
  8
1
 62
     7
100
AcDbCircle
 10
300.5050643239381
 20
41.01161340990701
 30
0.0
 40
5.500000000000023
100
AcDbArc
 50
120.693622843768
 51
248.8784681933466
  0
LINE
  5
275F
330
26D7
100
AcDbEntity
  8
1
 62
     7
100
AcDbLine
 10
291.4150643239379
 20
52.34311340989612
 30
0.0
 11
291.4150643239379
 21
41.34311340989611
 31
0.0
  0
LINE
  5
2760
330
26D7
100
AcDbEntity
  8
1
 62
     7
100
AcDbLine
 10
291.4150643239379
 20
52.34311340989612
 30
0.0
 11
291.4150643239379
 21
41.34311340989611
 31
0.0
  0
LINE
  5
2761
330
26D7
100
AcDbEntity
  8
1
 62
     7
100
AcDbLine
 10
289.7150643239378
 20
52.34311340989612
 30
0.0
 11
289.7150643239378
 21
41.34311340989611
 31
0.0
  0
LINE
  5
2762
330
26D7
100
AcDbEntity
  8
1
 62
     7
100
AcDbLine
 10
292.3615643239383
 20
35.5811134099071
 30
0.0
 11
292.3615643239383
 21
45.14478760306441
 31
0.0
  0
LINE
  5
2763
330
26D7
100
AcDbEntity
  8
1
 62
     7
100
AcDbLine
 10
292.8950643239386
 20
41.0321575173184
 30
0.0
 11
292.5070510295628
 21
44.19227220537462
 31
0.0
  0
LINE
  5
2764
330
26D7
100
AcDbEntity
  8
1
 62
     7
100
AcDbLine
 10
294.8050643239383
 20
37.03711340990699
 30
0.0
 11
294.8050643239383
 21
44.69711340990691
 31
0.0
  0
LINE
  5
2765
330
26D7
100
AcDbEntity
  8
1
 62
     7
100
AcDbLine
 10
289.7195643239383
 20
30.83583068152421
 30
0.0
 11
298.7085643239386
 21
30.72611340990681
 31
0.0
  0
LINE
  5
2766
330
26D7
100
AcDbEntity
  8
1
 62
     7
100
AcDbLine
 10
293.0615643239386
 20
33.12011340990697
 30
0.0
 11
292.3615643239383
 21
33.52425859833981
 31
0.0
  0
LINE
  5
2767
330
26D7
100
AcDbEntity
  8
1
 62
     7
100
AcDbLine
 10
292.6615643239386
 20
35.8811134099071
 30
0.0
 11
292.3615643239383
 21
35.5811134099071
 31
0.0
  0
LINE
  5
2768
330
26D7
100
AcDbEntity
  8
1
 62
     7
100
AcDbLine
 10
292.3615643239383
 20
35.5811134099071
 30
0.0
 11
292.3615643239383
 21
33.52425859833981
 31
0.0
  0
LINE
  5
2769
330
26D7
100
AcDbEntity
  8
1
 62
     7
100
AcDbLine
 10
288.9585643239385
 20
30.69316786283829
 30
0.0
 11
287.1536064779556
 21
30.69316786283829
 31
0.0
  0
LINE
  5
276A
330
26D7
100
AcDbEntity
  8
1
 62
     7
100
AcDbLine
 10
288.1585643239387
 20
31.69311340991997
 30
0.0
 11
286.9585643239386
 21
30.49311340991998
 31
0.0
  0
LINE
  5
276B
330
26D7
100
AcDbEntity
  8
1
 62
     7
100
AcDbLine
 10
288.1585643239387
 20
31.69311340991997
 30
0.0
 11
286.9585643239386
 21
30.49311340991998
 31
0.0
  0
LINE
  5
276C
330
26D7
100
AcDbEntity
  8
1
 62
     7
100
AcDbLine
 10
291.4150643239379
 20
41.34311340989611
 30
0.0
 11
289.7150643239378
 21
41.34311340989611
 31
0.0
  0
LINE
  5
276D
330
26D7
100
AcDbEntity
  8
1
 62
     7
100
AcDbLine
 10
298.7085643239386
 20
30.72611340990681
 30
0.0
 11
304.1085643239384
 21
30.72611340990681
 31
0.0
  0
LINE
  5
276E
330
26D7
100
AcDbEntity
  8
1
 62
     7
100
AcDbLine
 10
300.5050643239381
 20
33.12011340990697
 30
0.0
 11
293.0615643239386
 21
33.12011340990697
 31
0.0
  0
ARC
  5
276F
330
26D7
100
AcDbEntity
  8
1
 62
     7
100
AcDbCircle
 10
300.5050643239381
 20
41.01161340990701
 30
0.0
 40
5.500000000000016
100
AcDbArc
 50
248.8784681933466
 51
270.0
  0
ARC
  5
2770
330
26D7
100
AcDbEntity
  8
1
 62
     7
100
AcDbCircle
 10
293.3450643239385
 20
37.48711340990712
 30
0.0
 40
0.450000000000046
100
AcDbArc
 50
180.0
 51
270.0
  0
LINE
  5
2771
330
26D7
100
AcDbEntity
  8
1
 62
     7
100
AcDbLine
 10
298.5231536927546
 20
35.8811134099071
 30
0.0
 11
292.6615643239386
 21
35.8811134099071
 31
0.0
  0
LINE
  5
2772
330
26D7
100
AcDbEntity
  8
1
 62
     7
100
AcDbLine
 10
296.6533464338128
 20
37.08551238027402
 30
0.0
 11
294.8050643239383
 21
37.03711340990699
 31
0.0
  0
LINE
  5
2773
330
26D7
100
AcDbEntity
  8
1
 62
     7
100
AcDbLine
 10
294.8050643239383
 20
37.03711340990699
 30
0.0
 11
293.3450643239385
 21
37.03711340990699
 31
0.0
  0
LINE
  5
2774
330
26D7
100
AcDbEntity
  8
1
 62
     7
100
AcDbLine
 10
292.8950643239386
 20
41.0321575173184
 30
0.0
 11
292.8950643239386
 21
37.48711340990712
 31
0.0
  0
ARC
  5
2775
330
26D7
100
AcDbEntity
  8
1
 62
     7
100
AcDbCircle
 10
300.5050643239381
 20
41.01161340990701
 30
0.0
 40
5.5
100
AcDbArc
 50
270.0
 51
291.1215318066514
  0
ARC
  5
2776
330
26D7
100
AcDbEntity
  8
1
 62
     7
100
AcDbCircle
 10
292.9536967978012
 20
44.24711340990701
 30
0.0
 40
0.449999999999882
100
AcDbArc
 50
90.0
 51
187.0000000000137
  0
LINE
  5
2777
330
26D7
100
AcDbEntity
  8
1
 62
     7
100
AcDbLine
 10
294.2585643239386
 20
52.34311340989612
 30
0.0
 11
291.4150643239379
 21
52.34311340989612
 31
0.0
  0
LINE
  5
2778
330
26D7
100
AcDbEntity
  8
1
 62
     7
100
AcDbLine
 10
289.4585643239386
 20
52.34311340989612
 30
0.0
 11
283.7585643239383
 21
52.34311340989612
 31
0.0
  0
LINE
  5
2779
330
26D7
100
AcDbEntity
  8
1
 62
     7
100
AcDbLine
 10
283.7585643239383
 20
52.59265408464741
 30
0.0
 11
283.5585643239383
 21
52.59265408464741
 31
0.0
  0
LINE
  5
277A
330
26D7
100
AcDbEntity
  8
1
 62
     7
100
AcDbLine
 10
289.7150643239378
 20
52.34311340989612
 30
0.0
 11
289.4585643239386
 21
52.34311340989612
 31
0.0
  0
ARC
  5
277B
330
26D7
100
AcDbEntity
  8
1
 62
     7
100
AcDbCircle
 10
300.5050643239381
 20
41.01161340990701
 30
0.0
 40
5.500000000000011
100
AcDbArc
 50
90.0
 51
120.693622843768
  0
LINE
  5
277C
330
26D7
100
AcDbEntity
  8
1
 62
     7
100
AcDbLine
 10
300.5050643239381
 20
48.599113409907
 30
0.0
 11
295.3880643239383
 21
48.599113409907
 31
0.0
  0
LINE
  5
277D
330
26D7
100
AcDbEntity
  8
1
 62
     7
100
AcDbLine
 10
294.7880643239386
 20
46.34111340990682
 30
0.0
 11
295.3880643239383
 21
45.74111340990691
 31
0.0
  0
LINE
  5
277E
330
26D7
100
AcDbEntity
  8
1
 62
     7
100
AcDbLine
 10
295.3880643239383
 20
48.599113409907
 30
0.0
 11
294.7880643239386
 21
47.99911340990701
 31
0.0
  0
LINE
  5
277F
330
26D7
100
AcDbEntity
  8
1
 62
     7
100
AcDbLine
 10
294.7880643239386
 20
47.99911340990701
 30
0.0
 11
294.7880643239386
 21
46.34111340990682
 31
0.0
  0
LINE
  5
2780
330
26D7
100
AcDbEntity
  8
1
 62
     7
100
AcDbLine
 10
297.6976046626074
 20
45.74111340990691
 30
0.0
 11
295.3880643239383
 21
45.74111340990691
 31
0.0
  0
LINE
  5
2781
330
26D7
100
AcDbEntity
  8
1
 62
     7
100
AcDbLine
 10
294.8050643239383
 20
44.69711340990691
 30
0.0
 11
292.9536967978012
 21
44.69711340990691
 31
0.0
  0
LINE
  5
2782
330
26D7
100
AcDbEntity
  8
1
 62
     7
100
AcDbLine
 10
294.8050643239383
 20
44.69711340990691
 30
0.0
 11
296.4225296027144
 21
44.69711340990691
 31
0.0
  0
ARC
  5
2783
330
26D7
100
AcDbEntity
  8
1
 62
     7
100
AcDbCircle
 10
300.5050643239381
 20
41.01161340990701
 30
0.0
 40
5.500000000000046
100
AcDbArc
 50
59.30637715623035
 51
90.0
  0
LINE
  5
2784
330
26D7
100
AcDbEntity
  8
1
 62
     7
100
AcDbLine
 10
305.6220643239386
 20
45.74111340990691
 30
0.0
 11
303.3125239852695
 21
45.74111340990691
 31
0.0
  0
LINE
  5
2785
330
26D7
100
AcDbEntity
  8
1
 62
     7
100
AcDbLine
 10
305.6220643239386
 20
48.599113409907
 30
0.0
 11
300.5050643239381
 21
48.599113409907
 31
0.0
  0
LINE
  5
2786
330
26D7
100
AcDbEntity
  8
1
 62
     7
100
AcDbLine
 10
309.9585643239386
 20
49.58029893109531
 30
0.0
 11
309.9585643239386
 21
32.87943116142402
 31
0.0
  0
LINE
  5
2787
330
26D7
100
AcDbEntity
  8
1
 62
     7
100
AcDbLine
 10
308.6485643239386
 20
45.14478760306441
 30
0.0
 11
308.6485643239386
 21
35.5811134099071
 31
0.0
  0
LINE
  5
2788
330
26D7
100
AcDbEntity
  8
1
  6
DIVIDE
 62
     7
100
AcDbLine
 10
311.9585643239385
 20
28.84311340990688
 30
0.0
 11
311.9585643239385
 21
39.95143019400602
 31
0.0
  0
LINE
  5
2789
330
26D7
100
AcDbEntity
  8
1
 62
     7
100
AcDbLine
 10
308.6485643239386
 20
33.52425859833981
 30
0.0
 11
308.6485643239386
 21
35.5811134099071
 31
0.0
  0
ARC
  5
278A
330
26D7
100
AcDbEntity
  8
1
 62
     7
100
AcDbCircle
 10
309.7585643239383
 20
32.40095612238141
 30
0.0
 40
0.1999999999999795
100
AcDbArc
 50
314.9999999999954
 51
0.0
  0
ARC
  5
278B
330
26D7
100
AcDbEntity
  8
1
 62
     7
100
AcDbCircle
 10
309.7585643239383
 20
32.87943116142402
 30
0.0
 40
0.2000000000000988
100
AcDbArc
 50
0.0
 51
86.99999999999278
  0
LINE
  5
278C
330
26D7
100
AcDbEntity
  8
1
 62
     7
100
AcDbLine
 10
308.7585643239383
 20
31.69311340991997
 30
0.0
 11
309.9585643239386
 21
30.49311340991998
 31
0.0
  0
LINE
  5
278D
330
26D7
100
AcDbEntity
  8
1
 62
     7
100
AcDbLine
 10
308.4154262184625
 20
30.77497530443139
 30
0.0
 11
309.8999856801757
 21
32.2595347661441
 31
0.0
  0
LINE
  5
278E
330
26D7
100
AcDbEntity
  8
1
 62
     7
100
AcDbLine
 10
309.7690315151869
 20
33.07915706837485
 30
0.0
 11
308.7585643239383
 21
33.1321134099066
 31
0.0
  0
LINE
  5
278F
330
26D7
100
AcDbEntity
  8
1
 62
     7
100
AcDbLine
 10
309.9585643239386
 20
32.40095612238141
 30
0.0
 11
309.9585643239386
 21
32.87943116142402
 31
0.0
  0
LINE
  5
2790
330
26D7
100
AcDbEntity
  8
1
  6
DIVIDE
 62
     7
100
AcDbLine
 10
309.9585643239386
 20
28.84311340990688
 30
0.0
 11
311.9585643239385
 21
28.84311340990688
 31
0.0
  0
LINE
  5
2791
330
26D7
100
AcDbEntity
  8
1
 62
     7
100
AcDbLine
 10
309.9585643239386
 20
28.84311340990688
 30
0.0
 11
309.9585643239386
 21
30.49311340991998
 31
0.0
  0
LINE
  5
2792
330
26D7
100
AcDbEntity
  8
1
 62
     7
100
AcDbLine
 10
308.6485643239386
 20
33.52425859833981
 30
0.0
 11
307.9485643239383
 21
33.12011340990697
 31
0.0
  0
LINE
  5
2793
330
26D7
100
AcDbEntity
  8
1
 62
     7
100
AcDbLine
 10
308.6485643239386
 20
35.5811134099071
 30
0.0
 11
308.3485643239383
 21
35.8811134099071
 31
0.0
  0
LINE
  5
2794
330
26D7
100
AcDbEntity
  8
1
 62
     7
100
AcDbLine
 10
306.2220643239386
 20
46.34111340990682
 30
0.0
 11
306.2220643239386
 21
47.99911340990701
 31
0.0
  0
LINE
  5
2795
330
26D7
100
AcDbEntity
  8
1
 62
     7
100
AcDbLine
 10
283.5585643239383
 20
78.84311340990331
 30
0.0
 11
311.4585643239382
 21
78.84311340990331
 31
0.0
  0
LINE
  5
2796
330
26D7
100
AcDbEntity
  8
1
 62
     7
100
AcDbLine
 10
306.2585643239423
 20
72.34311340989612
 30
0.0
 11
289.4585643239386
 21
72.34311340989612
 31
0.0
  0
LINE
  5
2797
330
26D7
100
AcDbEntity
  8
1
 62
     7
100
AcDbLine
 10
294.2585643239386
 20
72.09311340989612
 30
0.0
 11
306.2585643239383
 21
72.09311340989612
 31
0.0
  0
LINE
  5
2798
330
26D7
100
AcDbEntity
  8
1
 62
     7
100
AcDbLine
 10
289.7585643239383
 20
72.09311340989612
 30
0.0
 11
293.9150643239379
 21
72.09311340989612
 31
0.0
  0
LINE
  5
2799
330
26D7
100
AcDbEntity
  8
1
 62
     7
100
AcDbLine
 10
283.5585643239383
 20
71.34311340990331
 30
0.0
 11
289.4585643239386
 21
71.34311340990331
 31
0.0
  0
LINE
  5
279A
330
26D7
100
AcDbEntity
  8
1
 62
     7
100
AcDbLine
 10
283.7585643239383
 20
69.34311340989612
 30
0.0
 11
289.4585643239386
 21
69.34311340989612
 31
0.0
  0
LINE
  5
279B
330
26D7
100
AcDbEntity
  8
1
 62
     7
100
AcDbLine
 10
289.7585643239383
 20
69.34311340989612
 30
0.0
 11
289.7585643239383
 21
72.34311340989612
 31
0.0
  0
LINE
  5
279C
330
26D7
100
AcDbEntity
  8
1
 62
     7
100
AcDbLine
 10
289.4585643239386
 20
69.34311340989612
 30
0.0
 11
289.7585643239383
 21
69.34311340989612
 31
0.0
  0
LINE
  5
279D
330
26D7
100
AcDbEntity
  8
1
 62
     7
100
AcDbLine
 10
289.4585643239386
 20
69.34311340989612
 30
0.0
 11
289.4585643239386
 21
72.34311340989612
 31
0.0
  0
LINE
  5
279E
330
26D7
100
AcDbEntity
  8
1
 62
     7
100
AcDbLine
 10
293.9150643239379
 20
66.59311340991182
 30
0.0
 11
293.9150643239379
 21
72.34311340989612
 31
0.0
  0
LINE
  5
279F
330
26D7
100
AcDbEntity
  8
1
 62
     7
100
AcDbLine
 10
299.9150643239376
 20
72.34311340989612
 30
0.0
 11
299.9150643239376
 21
66.84311340991182
 31
0.0
  0
LINE
  5
27A0
330
26D7
100
AcDbEntity
  8
1
 62
     7
100
AcDbLine
 10
294.2585643239386
 20
66.84311340991182
 30
0.0
 11
294.2585643239386
 21
72.09311340989612
 31
0.0
  0
LINE
  5
27A1
330
26D7
100
AcDbEntity
  8
1
 62
     7
100
AcDbLine
 10
294.2585643239386
 20
66.84311340991182
 30
0.0
 11
299.9150643239376
 21
66.84311340991182
 31
0.0
  0
LINE
  5
27A2
330
26D7
100
AcDbEntity
  8
1
 62
     7
100
AcDbLine
 10
293.9150643239379
 20
66.59311340991182
 30
0.0
 11
294.2585643239386
 21
66.59311340991182
 31
0.0
  0
LINE
  5
27A3
330
26D7
100
AcDbEntity
  8
1
 62
     7
100
AcDbLine
 10
294.2585643239386
 20
66.84311340991182
 30
0.0
 11
294.2585643239386
 21
66.59311340991182
 31
0.0
  0
LINE
  5
27A4
330
26D7
100
AcDbEntity
  8
1
 62
     7
100
AcDbLine
 10
294.2585643239386
 20
72.34311340989612
 30
0.0
 11
294.2585643239386
 21
72.09311340989612
 31
0.0
  0
LINE
  5
27A5
330
26D7
100
AcDbEntity
  8
1
 62
     7
100
AcDbLine
 10
306.2585643239383
 20
71.34311340989611
 30
0.0
 11
306.2585643239383
 21
67.09311340989602
 31
0.0
  0
LINE
  5
27A6
330
26D7
100
AcDbEntity
  8
1
 62
     7
100
AcDbLine
 10
307.4150643239377
 20
68.19311340989452
 30
0.0
 11
307.4150643239377
 21
67.09311340989602
 31
0.0
  0
LINE
  5
27A7
330
26D7
100
AcDbEntity
  8
1
 62
     7
100
AcDbLine
 10
307.4150643239377
 20
67.09311340989602
 30
0.0
 11
306.2585643239383
 21
67.09311340989602
 31
0.0
  0
LINE
  5
27A8
330
26D7
100
AcDbEntity
  8
1
 62
     7
100
AcDbLine
 10
310.9585643239386
 20
72.34311340989612
 30
0.0
 11
311.4585643239382
 21
72.84311340989612
 31
0.0
  0
LINE
  5
27A9
330
26D7
100
AcDbEntity
  8
1
 62
     7
100
AcDbLine
 10
306.2585643239423
 20
72.34311340989612
 30
0.0
 11
306.2585643239383
 21
72.09311340989612
 31
0.0
  0
LINE
  5
27AA
330
26D7
100
AcDbEntity
  8
1
 62
     7
100
AcDbLine
 10
307.4150643239377
 20
68.19311340989452
 30
0.0
 11
309.0585643239386
 21
68.19311340989452
 31
0.0
  0
LINE
  5
27AB
330
26D7
100
AcDbEntity
  8
1
 62
     7
100
AcDbLine
 10
307.4150643239377
 20
71.34311340989611
 30
0.0
 11
307.4150643239377
 21
68.19311340989452
 31
0.0
  0
LINE
  5
27AC
330
26D7
100
AcDbEntity
  8
1
 62
     7
100
AcDbLine
 10
309.0585643239386
 20
72.34311340989612
 30
0.0
 11
309.0585643239386
 21
68.19311340989452
 31
0.0
  0
LINE
  5
27AD
330
26D7
100
AcDbEntity
  8
1
 62
     7
100
AcDbLine
 10
307.4150643239377
 20
73.19311340989452
 30
0.0
 11
307.4150643239377
 21
72.34311340989612
 31
0.0
  0
LINE
  5
27AE
330
26D7
100
AcDbEntity
  8
1
 62
     7
100
AcDbLine
 10
309.0585643239386
 20
73.19311340989452
 30
0.0
 11
307.4150643239377
 21
73.19311340989452
 31
0.0
  0
LINE
  5
27AF
330
26D7
100
AcDbEntity
  8
1
 62
     7
100
AcDbLine
 10
307.4150643239377
 20
71.34311340989611
 30
0.0
 11
306.2585643239383
 21
71.34311340989611
 31
0.0
  0
LINE
  5
27B0
330
26D7
100
AcDbEntity
  8
1
 62
     7
100
AcDbLine
 10
306.2585643239383
 20
72.09311340989612
 30
0.0
 11
306.2585643239383
 21
71.34311340989611
 31
0.0
  0
LINE
  5
27B1
330
26D7
100
AcDbEntity
  8
1
 62
     7
100
AcDbLine
 10
307.4150643239377
 20
72.34311340989612
 30
0.0
 11
307.4150643239377
 21
71.34311340989611
 31
0.0
  0
LINE
  5
27B2
330
26D7
100
AcDbEntity
  8
1
 62
     7
100
AcDbLine
 10
310.9585643239386
 20
72.34311340989612
 30
0.0
 11
309.0585643239386
 21
72.34311340989612
 31
0.0
  0
LINE
  5
27B3
330
26D7
100
AcDbEntity
  8
1
 62
     7
100
AcDbLine
 10
309.0585643239386
 20
73.19311340989452
 30
0.0
 11
309.0585643239386
 21
72.34311340989612
 31
0.0
  0
LINE
  5
27B4
330
26D7
100
AcDbEntity
  8
1
 62
     7
100
AcDbLine
 10
306.2585643239423
 20
72.34311340989612
 30
0.0
 11
306.2585643239383
 21
72.34311340989612
 31
0.0
  0
LINE
  5
27B5
330
26D7
100
AcDbEntity
  8
1
 62
     7
100
AcDbLine
 10
306.2585643239423
 20
72.34311340989612
 30
0.0
 11
306.2585643239383
 21
72.34311340989612
 31
0.0
  0
LINE
  5
27B6
330
26D7
100
AcDbEntity
  8
1
 62
     7
100
AcDbLine
 10
307.4150643239377
 20
72.34311340989612
 30
0.0
 11
306.2585643239423
 21
72.34311340989612
 31
0.0
  0
LINE
  5
27B7
330
26D7
100
AcDbEntity
  8
1
 62
     7
100
AcDbLine
 10
306.2585643239383
 20
72.34311340989612
 30
0.0
 11
306.2585643239423
 21
72.34311340989612
 31
0.0
  0
LINE
  5
27B8
330
26D7
100
AcDbEntity
  8
1
 62
     7
100
AcDbLine
 10
306.2585643239383
 20
72.34311340989612
 30
0.0
 11
306.2585643239423
 21
72.34311340989612
 31
0.0
  0
LINE
  5
27B9
330
26D7
100
AcDbEntity
  8
1
 62
     7
100
AcDbLine
 10
306.2585643239383
 20
72.34311340989612
 30
0.0
 11
306.2585643239423
 21
72.34311340989612
 31
0.0
  0
ARC
  5
27BA
330
26D7
100
AcDbEntity
  8
1
 62
     7
100
AcDbCircle
 10
278.5953482182094
 20
188.592329515636
 30
0.0
 40
44.16583581005236
100
AcDbArc
 50
269.1712848485728
 51
284.5884207030195
  0
LINE
  5
27BB
330
26D7
100
AcDbEntity
  8
1
 62
     7
100
AcDbLine
 10
308.7585643239383
 20
143.554113409907
 30
0.0
 11
260.2715643239385
 21
143.554113409907
 31
0.0
  0
LINE
  5
27BC
330
26D7
100
AcDbEntity
  8
1
 62
     7
100
AcDbLine
 10
257.4585643239385
 20
140.7411134099071
 30
0.0
 11
257.4585643239385
 21
122.0931134099066
 31
0.0
  0
LINE
  5
27BD
330
26D7
100
AcDbEntity
  8
1
 62
     7
100
AcDbLine
 10
256.5815643239385
 20
140.9681134099067
 30
0.0
 11
256.5815643239385
 21
124.7931134099068
 31
0.0
  0
LINE
  5
27BE
330
26D7
100
AcDbEntity
  8
1
 62
     7
100
AcDbLine
 10
257.4585643239385
 20
122.0931134099066
 30
0.0
 11
257.4585643239385
 21
108.5931134099068
 31
0.0
  0
LINE
  5
27BF
330
26D7
100
AcDbEntity
  8
1
 62
     7
100
AcDbLine
 10
252.9585643239385
 20
122.0931134099066
 30
0.0
 11
252.9585643239385
 21
108.5931134099068
 31
0.0
  0
LINE
  5
27C0
330
26D7
100
AcDbEntity
  8
1
 62
     7
100
AcDbLine
 10
257.4585643239385
 20
106.3431134099068
 30
0.0
 11
252.9585643239385
 21
106.3431134099068
 31
0.0
  0
LINE
  5
27C1
330
26D7
100
AcDbEntity
  8
1
 62
     7
100
AcDbLine
 10
257.4585643239385
 20
108.5931134099068
 30
0.0
 11
252.9585643239385
 21
108.5931134099068
 31
0.0
  0
LINE
  5
27C2
330
26D7
100
AcDbEntity
  8
1
  6
CENTER
 62
     3
100
AcDbLine
 10
257.9085643239385
 20
115.3431134099068
 30
0.0
 11
252.5085643239385
 21
115.3431134099068
 31
0.0
  0
ARC
  5
27C3
330
26D7
100
AcDbEntity
  8
1
 62
     7
100
AcDbCircle
 10
256.1315643239384
 20
124.7931134099068
 30
0.0
 40
0.4500000000000028
100
AcDbArc
 50
270.0
 51
0.0
  0
LINE
  5
27C4
330
26D7
100
AcDbEntity
  8
1
 62
     7
100
AcDbLine
 10
252.9585643239385
 20
123.8431134099068
 30
0.0
 11
252.9585643239385
 21
122.0931134099066
 31
0.0
  0
LINE
  5
27C5
330
26D7
100
AcDbEntity
  8
1
 62
     7
100
AcDbLine
 10
256.1315643239384
 20
124.3431134099066
 30
0.0
 11
253.4585643239385
 21
124.3431134099066
 31
0.0
  0
LINE
  5
27C6
330
26D7
100
AcDbEntity
  8
1
 62
     7
100
AcDbLine
 10
253.4585643239385
 20
124.3431134099066
 30
0.0
 11
252.9585643239385
 21
123.8431134099068
 31
0.0
  0
LINE
  5
27C7
330
26D7
100
AcDbEntity
  8
1
 62
     7
100
AcDbLine
 10
257.4585643239385
 20
122.0931134099066
 30
0.0
 11
252.9585643239385
 21
122.0931134099066
 31
0.0
  0
ARC
  5
27C8
330
26D7
100
AcDbEntity
  8
1
 62
     7
100
AcDbCircle
 10
260.2715643239385
 20
140.7411134099071
 30
0.0
 40
2.812999999999988
100
AcDbArc
 50
90.0
 51
180.0
  0
ARC
  5
27C9
330
26D7
100
AcDbEntity
  8
1
 62
     7
100
AcDbCircle
 10
260.1445643239385
 20
140.8681134099067
 30
0.0
 40
3.564403035572726
100
AcDbArc
 50
88.39234514741932
 51
178.3923451474192
  0
LINE
  5
27CA
330
26D7
100
AcDbEntity
  8
1
  6
DIVIDE
 62
     7
100
AcDbLine
 10
254.4585643239386
 20
136.7347966258075
 30
0.0
 11
254.4585643239386
 21
147.8431134099067
 31
0.0
  0
LINE
  5
27CB
330
26D7
100
AcDbEntity
  8
1
  6
DIVIDE
 62
     7
100
AcDbLine
 10
254.4585643239386
 20
147.8431134099067
 30
0.0
 11
266.3257605274495
 21
147.8431134099067
 31
0.0
  0
LINE
  5
27CC
330
26D7
100
AcDbEntity
  8
1
 62
     7
100
AcDbLine
 10
260.2445643239385
 20
144.4311134099068
 30
0.0
 11
277.9565643239383
 21
144.4311134099068
 31
0.0
  0
LINE
  5
27CD
330
26D7
100
AcDbEntity
  8
1
 62
     7
100
AcDbLine
 10
289.6150643239378
 20
135.3431134099029
 30
0.0
 11
289.6150643239378
 21
124.3431134099034
 31
0.0
  0
LINE
  5
27CE
330
26D7
100
AcDbEntity
  8
1
 62
     7
100
AcDbLine
 10
291.4150643239379
 20
135.3431134099029
 30
0.0
 11
291.4150643239379
 21
124.3431134099034
 31
0.0
  0
LINE
  5
27CF
330
26D7
100
AcDbEntity
  8
1
 62
     7
100
AcDbLine
 10
299.9150643239376
 20
128.0431134099076
 30
0.0
 11
299.9150643239376
 21
109.8431134099119
 31
0.0
  0
LINE
  5
27D0
330
26D7
100
AcDbEntity
  8
1
 62
     7
100
AcDbLine
 10
294.2585643239386
 20
128.0431134099076
 30
0.0
 11
294.2585643239386
 21
124.3431134099034
 31
0.0
  0
LINE
  5
27D1
330
26D7
100
AcDbEntity
  8
1
 62
     7
100
AcDbLine
 10
306.2585643239383
 20
128.0431134099076
 30
0.0
 11
306.2585643239383
 21
109.5931134099033
 31
0.0
  0
LINE
  5
27D2
330
26D7
100
AcDbEntity
  8
1
 62
     7
100
AcDbLine
 10
283.5585643239383
 20
97.35699159856322
 30
0.0
 11
311.4585643239382
 21
97.35699159856322
 31
0.0
  0
LINE
  5
27D3
330
26D7
100
AcDbEntity
  8
1
 62
     7
100
AcDbLine
 10
283.5585643239383
 20
100.6431134099034
 30
0.0
 11
311.4585643239382
 21
100.6431134099034
 31
0.0
  0
LINE
  5
27D4
330
26D7
100
AcDbEntity
  8
1
 62
     7
100
AcDbLine
 10
289.4585643239386
 20
104.3431134099033
 30
0.0
 11
306.2585643239423
 21
104.3431134099033
 31
0.0
  0
LINE
  5
27D5
330
26D7
100
AcDbEntity
  8
1
 62
     7
100
AcDbLine
 10
306.2585643239383
 20
104.5931134099033
 30
0.0
 11
294.2585643239386
 21
104.5931134099033
 31
0.0
  0
LINE
  5
27D6
330
26D7
100
AcDbEntity
  8
1
 62
     7
100
AcDbLine
 10
293.9150643239379
 20
110.0931134099119
 30
0.0
 11
293.9150643239379
 21
104.3431134099033
 31
0.0
  0
LINE
  5
27D7
330
26D7
100
AcDbEntity
  8
1
 62
     7
100
AcDbLine
 10
289.4585643239386
 20
124.3431134099034
 30
0.0
 11
289.4585643239386
 21
107.3431134099032
 31
0.0
  0
LINE
  5
27D8
330
26D7
100
AcDbEntity
  8
1
 62
     7
100
AcDbLine
 10
294.2585643239386
 20
104.5931134099033
 30
0.0
 11
294.2585643239386
 21
109.8431134099119
 31
0.0
  0
LINE
  5
27D9
330
26D7
100
AcDbEntity
  8
1
 62
     7
100
AcDbLine
 10
299.9150643239376
 20
109.8431134099119
 30
0.0
 11
299.9150643239376
 21
104.3431134099033
 31
0.0
  0
LINE
  5
27DA
330
26D7
100
AcDbEntity
  8
1
 62
     7
100
AcDbLine
 10
293.9150643239379
 20
104.5931134099104
 30
0.0
 11
289.7585643239383
 21
104.5931134099104
 31
0.0
  0
LINE
  5
27DB
330
26D7
100
AcDbEntity
  8
1
 62
     7
100
AcDbLine
 10
289.4585643239386
 20
104.3431134099033
 30
0.0
 11
289.4585643239386
 21
107.3431134099032
 31
0.0
  0
LINE
  5
27DC
330
26D7
100
AcDbEntity
  8
1
 62
     7
100
AcDbLine
 10
289.7585643239383
 20
107.3431134099032
 30
0.0
 11
289.7585643239383
 21
104.3431134099033
 31
0.0
  0
LINE
  5
27DD
330
26D7
100
AcDbEntity
  8
1
 62
     7
100
AcDbLine
 10
289.7585643239383
 20
107.3431134099032
 30
0.0
 11
289.4585643239386
 21
107.3431134099032
 31
0.0
  0
LINE
  5
27DE
330
26D7
100
AcDbEntity
  8
1
 62
     7
100
AcDbLine
 10
294.2585643239386
 20
104.5931134099033
 30
0.0
 11
294.2585643239386
 21
104.3431134099033
 31
0.0
  0
LINE
  5
27DF
330
26D7
100
AcDbEntity
  8
1
 62
     7
100
AcDbLine
 10
291.4150643239379
 20
124.3431134099034
 30
0.0
 11
294.2585643239386
 21
124.3431134099034
 31
0.0
  0
LINE
  5
27E0
330
26D7
100
AcDbEntity
  8
1
 62
     7
100
AcDbLine
 10
289.4585643239386
 20
124.5931134099066
 30
0.0
 11
283.5585643239383
 21
124.5931134099066
 31
0.0
  0
LINE
  5
27E1
330
26D7
100
AcDbEntity
  8
1
 62
     7
100
AcDbLine
 10
289.4585643239386
 20
124.3431134099034
 30
0.0
 11
289.4585643239386
 21
124.5931134099066
 31
0.0
  0
LINE
  5
27E2
330
26D7
100
AcDbEntity
  8
1
 62
     7
100
AcDbLine
 10
289.6150643239378
 20
124.3431134099034
 30
0.0
 11
289.4585643239386
 21
124.3431134099034
 31
0.0
  0
LINE
  5
27E3
330
26D7
100
AcDbEntity
  8
1
 62
     7
100
AcDbLine
 10
294.2585643239386
 20
109.8431134099119
 30
0.0
 11
294.2585643239386
 21
124.3431134099034
 31
0.0
  0
LINE
  5
27E4
330
26D7
100
AcDbEntity
  8
1
 62
     7
100
AcDbLine
 10
299.7150643239377
 20
124.3431134099034
 30
0.0
 11
299.7150643239377
 21
110.0931134099119
 31
0.0
  0
LINE
  5
27E5
330
26D7
100
AcDbEntity
  8
1
 62
     7
100
AcDbLine
 10
293.9150643239379
 20
110.0931134099119
 30
0.0
 11
299.7150643239377
 21
110.0931134099119
 31
0.0
  0
LINE
  5
27E6
330
26D7
100
AcDbEntity
  8
1
 62
     7
100
AcDbLine
 10
299.9150643239376
 20
109.8431134099119
 30
0.0
 11
294.2585643239386
 21
109.8431134099119
 31
0.0
  0
LINE
  5
27E7
330
26D7
100
AcDbEntity
  8
1
 62
     7
100
AcDbLine
 10
294.2585643239386
 20
124.3431134099034
 30
0.0
 11
299.7150643239377
 21
124.3431134099034
 31
0.0
  0
LINE
  5
27E8
330
26D7
100
AcDbEntity
  8
1
 62
     7
100
AcDbLine
 10
307.4150643239377
 20
109.5931134099033
 30
0.0
 11
307.4150643239377
 21
106.9931134099047
 31
0.0
  0
LINE
  5
27E9
330
26D7
100
AcDbEntity
  8
1
 62
     7
100
AcDbLine
 10
306.2585643239383
 20
109.5931134099033
 30
0.0
 11
306.2585643239383
 21
105.3431134099032
 31
0.0
  0
LINE
  5
27EA
330
26D7
100
AcDbEntity
  8
1
 62
     7
100
AcDbLine
 10
311.4585643239382
 20
103.8431134099033
 30
0.0
 11
311.4585643239382
 21
100.6431134099034
 31
0.0
  0
LINE
  5
27EB
330
26D7
100
AcDbEntity
  8
1
 62
     7
100
AcDbLine
 10
311.4585643239382
 20
100.6431134099034
 30
0.0
 11
311.4585643239382
 21
97.35699159856322
 31
0.0
  0
LINE
  5
27EC
330
26D7
100
AcDbEntity
  8
1
 62
     7
100
AcDbLine
 10
311.4585643239382
 20
103.8431134099033
 30
0.0
 11
310.9585643239386
 21
104.3431134099033
 31
0.0
  0
LINE
  5
27ED
330
26D7
100
AcDbEntity
  8
1
 62
     7
100
AcDbLine
 10
306.2585643239423
 20
104.3431134099033
 30
0.0
 11
306.2585643239383
 21
104.3431134099033
 31
0.0
  0
LINE
  5
27EE
330
26D7
100
AcDbEntity
  8
1
 62
     7
100
AcDbLine
 10
306.2585643239423
 20
104.3431134099033
 30
0.0
 11
306.2585643239383
 21
104.3431134099033
 31
0.0
  0
LINE
  5
27EF
330
26D7
100
AcDbEntity
  8
1
 62
     7
100
AcDbLine
 10
306.2585643239423
 20
104.3431134099033
 30
0.0
 11
306.2585643239383
 21
104.3431134099033
 31
0.0
  0
LINE
  5
27F0
330
26D7
100
AcDbEntity
  8
1
 62
     7
100
AcDbLine
 10
306.2585643239423
 20
104.3431134099033
 30
0.0
 11
307.4150643239377
 21
104.3431134099033
 31
0.0
  0
LINE
  5
27F1
330
26D7
100
AcDbEntity
  8
1
 62
     7
100
AcDbLine
 10
306.2585643239383
 20
104.3431134099033
 30
0.0
 11
306.2585643239423
 21
104.3431134099033
 31
0.0
  0
LINE
  5
27F2
330
26D7
100
AcDbEntity
  8
1
 62
     7
100
AcDbLine
 10
306.2585643239383
 20
104.3431134099033
 30
0.0
 11
306.2585643239423
 21
104.3431134099033
 31
0.0
  0
LINE
  5
27F3
330
26D7
100
AcDbEntity
  8
1
 62
     7
100
AcDbLine
 10
309.0585643239386
 20
104.3431134099033
 30
0.0
 11
309.0585643239386
 21
103.4931134099044
 31
0.0
  0
LINE
  5
27F4
330
26D7
100
AcDbEntity
  8
1
 62
     7
100
AcDbLine
 10
309.0585643239386
 20
104.3431134099033
 30
0.0
 11
310.9585643239386
 21
104.3431134099033
 31
0.0
  0
LINE
  5
27F5
330
26D7
100
AcDbEntity
  8
1
 62
     7
100
AcDbLine
 10
307.4150643239377
 20
105.3431134099032
 30
0.0
 11
307.4150643239377
 21
104.3431134099033
 31
0.0
  0
LINE
  5
27F6
330
26D7
100
AcDbEntity
  8
1
 62
     7
100
AcDbLine
 10
306.2585643239383
 20
105.3431134099032
 30
0.0
 11
306.2585643239383
 21
104.5931134099033
 31
0.0
  0
LINE
  5
27F7
330
26D7
100
AcDbEntity
  8
1
 62
     7
100
AcDbLine
 10
306.2585643239383
 20
105.3431134099032
 30
0.0
 11
307.4150643239377
 21
105.3431134099032
 31
0.0
  0
LINE
  5
27F8
330
26D7
100
AcDbEntity
  8
1
 62
     7
100
AcDbLine
 10
307.4150643239377
 20
103.4931134099044
 30
0.0
 11
309.0585643239386
 21
103.4931134099044
 31
0.0
  0
LINE
  5
27F9
330
26D7
100
AcDbEntity
  8
1
 62
     7
100
AcDbLine
 10
307.4150643239377
 20
104.3431134099033
 30
0.0
 11
307.4150643239377
 21
103.4931134099044
 31
0.0
  0
LINE
  5
27FA
330
26D7
100
AcDbEntity
  8
1
 62
     7
100
AcDbLine
 10
309.0585643239386
 20
106.9931134099047
 30
0.0
 11
309.0585643239386
 21
104.3431134099033
 31
0.0
  0
LINE
  5
27FB
330
26D7
100
AcDbEntity
  8
1
 62
     7
100
AcDbLine
 10
307.4150643239377
 20
106.9931134099047
 30
0.0
 11
307.4150643239377
 21
105.3431134099032
 31
0.0
  0
LINE
  5
27FC
330
26D7
100
AcDbEntity
  8
1
 62
     7
100
AcDbLine
 10
309.0585643239386
 20
106.9931134099047
 30
0.0
 11
307.4150643239377
 21
106.9931134099047
 31
0.0
  0
LINE
  5
27FD
330
26D7
100
AcDbEntity
  8
1
 62
     7
100
AcDbLine
 10
306.2585643239383
 20
104.5931134099033
 30
0.0
 11
306.2585643239423
 21
104.3431134099033
 31
0.0
  0
LINE
  5
27FE
330
26D7
100
AcDbEntity
  8
1
 62
     7
100
AcDbLine
 10
306.2585643239383
 20
109.5931134099033
 30
0.0
 11
307.4150643239377
 21
109.5931134099033
 31
0.0
  0
ARC
  5
27FF
330
26D7
100
AcDbEntity
  8
1
 62
     7
100
AcDbCircle
 10
300.5050643239381
 20
135.662613409907
 30
0.0
 40
5.500000000000031
100
AcDbArc
 50
300.6936228437698
 51
68.87846819334682
  0
LINE
  5
2800
330
26D7
100
AcDbEntity
  8
1
 62
     7
100
AcDbLine
 10
309.9585643239386
 20
153.8431134099044
 30
0.0
 11
302.9585643239386
 21
153.8431134099044
 31
0.0
  0
LINE
  5
2801
330
26D7
100
AcDbEntity
  8
1
 62
     7
100
AcDbLine
 10
299.9150643239376
 20
128.0431134099076
 30
0.0
 11
306.2585643239383
 21
128.0431134099076
 31
0.0
  0
LINE
  5
2802
330
26D7
100
AcDbEntity
  8
1
 62
     7
100
AcDbLine
 10
308.7585643239383
 20
144.9931134099047
 30
0.0
 11
288.1585643239387
 21
144.9931134099047
 31
0.0
  0
LINE
  5
2803
330
26D7
100
AcDbEntity
  8
1
 62
     7
100
AcDbLine
 10
287.1585643239383
 20
145.993113409905
 30
0.0
 11
309.7585643239383
 21
145.9931134099045
 31
0.0
  0
LINE
  5
2804
330
26D7
100
AcDbEntity
  8
1
 62
     7
100
AcDbLine
 10
304.1085643239384
 20
145.9601134099068
 30
0.0
 11
308.4154262184625
 21
145.9112515153821
 31
0.0
  0
LINE
  5
2805
330
26D7
100
AcDbEntity
  8
1
 62
     7
100
AcDbLine
 10
306.2220643239386
 20
130.333113409907
 30
0.0
 11
305.6220643239386
 21
130.9331134099068
 31
0.0
  0
LINE
  5
2806
330
26D7
100
AcDbEntity
  8
1
 62
     7
100
AcDbLine
 10
305.6220643239386
 20
128.0751134099066
 30
0.0
 11
306.2220643239386
 21
128.6751134099071
 31
0.0
  0
LINE
  5
2807
330
26D7
100
AcDbEntity
  8
1
 62
     7
100
AcDbLine
 10
302.4869749551223
 20
140.793113409907
 30
0.0
 11
308.3485643239383
 21
140.793113409907
 31
0.0
  0
LINE
  5
2808
330
26D7
100
AcDbEntity
  8
1
 62
     7
100
AcDbLine
 10
300.5050643239381
 20
143.554113409907
 30
0.0
 11
307.9485643239383
 21
143.554113409907
 31
0.0
  0
LINE
  5
2809
330
26D7
100
AcDbEntity
  8
1
 62
     7
100
AcDbLine
 10
292.3615643239383
 20
143.1499682214742
 30
0.0
 11
292.3615643239383
 21
141.0931134099071
 31
0.0
  0
ARC
  5
280A
330
26D7
100
AcDbEntity
  8
1
 62
     7
100
AcDbCircle
 10
292.9536967978012
 20
132.4271134099066
 30
0.0
 40
0.4499999999998633
100
AcDbArc
 50
172.9999999999956
 51
270.0
  0
LINE
  5
280B
330
26D7
100
AcDbEntity
  8
1
 62
     7
100
AcDbLine
 10
292.3615643239383
 20
141.0931134099071
 30
0.0
 11
292.6615643239386
 21
140.793113409907
 31
0.0
  0
LINE
  5
280C
330
26D7
100
AcDbEntity
  8
1
 62
     7
100
AcDbLine
 10
292.3615643239383
 20
131.5294392167493
 30
0.0
 11
292.3615643239383
 21
141.0931134099071
 31
0.0
  0
LINE
  5
280D
330
26D7
100
AcDbEntity
  8
1
 62
     7
100
AcDbLine
 10
289.6150643239378
 20
135.3431134099029
 30
0.0
 11
291.4150643239379
 21
135.3431134099029
 31
0.0
  0
ARC
  5
280E
330
26D7
100
AcDbEntity
  8
1
 62
     7
100
AcDbCircle
 10
300.5050643239381
 20
135.662613409907
 30
0.0
 40
5.499999999999927
100
AcDbArc
 50
111.1215318066548
 51
239.3063771562301
  0
LINE
  5
280F
330
26D7
100
AcDbEntity
  8
1
 62
     7
100
AcDbLine
 10
294.8050643239383
 20
131.9771134099068
 30
0.0
 11
294.8050643239383
 21
139.6371134099068
 31
0.0
  0
LINE
  5
2810
330
26D7
100
AcDbEntity
  8
1
 62
     7
100
AcDbLine
 10
292.5070510295628
 20
132.4819546144394
 30
0.0
 11
292.8950643239386
 21
135.6420693024955
 31
0.0
  0
ARC
  5
2811
330
26D7
100
AcDbEntity
  8
1
 62
     7
100
AcDbCircle
 10
300.5050643239381
 20
135.662613409907
 30
0.0
 40
5.500000000000006
100
AcDbArc
 50
239.3063771562301
 51
270.0
  0
LINE
  5
2812
330
26D7
100
AcDbEntity
  8
1
 62
     7
100
AcDbLine
 10
294.2585643239386
 20
128.0431134099076
 30
0.0
 11
299.9150643239376
 21
128.0431134099076
 31
0.0
  0
LINE
  5
2813
330
26D7
100
AcDbEntity
  8
1
 62
     7
100
AcDbLine
 10
295.3880643239383
 20
128.0751134099066
 30
0.0
 11
300.5050643239381
 21
128.0751134099066
 31
0.0
  0
LINE
  5
2814
330
26D7
100
AcDbEntity
  8
1
 62
     7
100
AcDbLine
 10
295.3880643239383
 20
130.9331134099068
 30
0.0
 11
297.6976046626074
 21
130.9331134099068
 31
0.0
  0
LINE
  5
2815
330
26D7
100
AcDbEntity
  8
1
 62
     7
100
AcDbLine
 10
294.7880643239386
 20
130.333113409907
 30
0.0
 11
294.7880643239386
 21
128.6751134099071
 31
0.0
  0
LINE
  5
2816
330
26D7
100
AcDbEntity
  8
1
 62
     7
100
AcDbLine
 10
294.7880643239386
 20
128.6751134099071
 30
0.0
 11
295.3880643239383
 21
128.0751134099066
 31
0.0
  0
LINE
  5
2817
330
26D7
100
AcDbEntity
  8
1
 62
     7
100
AcDbLine
 10
295.3880643239383
 20
130.9331134099068
 30
0.0
 11
294.7880643239386
 21
130.333113409907
 31
0.0
  0
LINE
  5
2818
330
26D7
100
AcDbEntity
  8
1
 62
     7
100
AcDbLine
 10
296.4225296027144
 20
131.9771134099068
 30
0.0
 11
294.8050643239383
 21
131.9771134099068
 31
0.0
  0
LINE
  5
2819
330
26D7
100
AcDbEntity
  8
1
 62
     7
100
AcDbLine
 10
292.9536967978012
 20
131.9771134099068
 30
0.0
 11
294.8050643239383
 21
131.9771134099068
 31
0.0
  0
ARC
  5
281A
330
26D7
100
AcDbEntity
  8
1
 62
     7
100
AcDbCircle
 10
300.5050643239381
 20
135.662613409907
 30
0.0
 40
5.5
100
AcDbArc
 50
270.0
 51
300.6936228437698
  0
LINE
  5
281B
330
26D7
100
AcDbEntity
  8
1
 62
     7
100
AcDbLine
 10
300.5050643239381
 20
128.0751134099066
 30
0.0
 11
305.6220643239386
 21
128.0751134099066
 31
0.0
  0
LINE
  5
281C
330
26D7
100
AcDbEntity
  8
1
 62
     7
100
AcDbLine
 10
303.3125239852695
 20
130.9331134099068
 30
0.0
 11
305.6220643239386
 21
130.9331134099068
 31
0.0
  0
ARC
  5
281D
330
26D7
100
AcDbEntity
  8
1
 62
     7
100
AcDbCircle
 10
300.5050643239381
 20
135.662613409907
 30
0.0
 40
5.5
100
AcDbArc
 50
90.0
 51
111.1215318066548
  0
ARC
  5
281E
330
26D7
100
AcDbEntity
  8
1
 62
     7
100
AcDbCircle
 10
293.3450643239385
 20
139.1871134099069
 30
0.0
 40
0.4499999999999886
100
AcDbArc
 50
90.0
 51
180.0
  0
LINE
  5
281F
330
26D7
100
AcDbEntity
  8
1
 62
     7
100
AcDbLine
 10
292.6615643239386
 20
140.793113409907
 30
0.0
 11
298.5231536927546
 21
140.793113409907
 31
0.0
  0
LINE
  5
2820
330
26D7
100
AcDbEntity
  8
1
 62
     7
100
AcDbLine
 10
292.8950643239386
 20
139.1871134099069
 30
0.0
 11
292.8950643239386
 21
135.6420693024955
 31
0.0
  0
LINE
  5
2821
330
26D7
100
AcDbEntity
  8
1
 62
     7
100
AcDbLine
 10
293.3450643239385
 20
139.6371134099068
 30
0.0
 11
294.8050643239383
 21
139.6371134099068
 31
0.0
  0
LINE
  5
2822
330
26D7
100
AcDbEntity
  8
1
 62
     7
100
AcDbLine
 10
294.8050643239383
 20
139.6371134099068
 30
0.0
 11
296.6533464338128
 21
139.58871443954
 31
0.0
  0
ARC
  5
2823
330
26D7
100
AcDbEntity
  8
1
 62
     7
100
AcDbCircle
 10
300.5050643239381
 20
135.662613409907
 30
0.0
 40
5.499999999999886
100
AcDbArc
 50
68.87846819334682
 51
90.0
  0
LINE
  5
2824
330
26D7
100
AcDbEntity
  8
1
 62
     7
100
AcDbLine
 10
301.6585643239384
 20
155.1431134099045
 30
0.0
 11
290.9585643239386
 21
155.1431134099045
 31
0.0
  0
LINE
  5
2825
330
26D7
100
AcDbEntity
  8
1
 62
     3
100
AcDbLine
 10
302.4585643239386
 20
154.3431134099045
 30
0.0
 11
290.9585643239386
 21
154.3431134099045
 31
0.0
  0
LINE
  5
2826
330
26D7
100
AcDbEntity
  8
1
 62
     7
100
AcDbLine
 10
298.7085643239386
 20
145.9601134099068
 30
0.0
 11
289.7195643239383
 21
145.8503961382893
 31
0.0
  0
LINE
  5
2827
330
26D7
100
AcDbEntity
  8
1
 62
     7
100
AcDbLine
 10
292.3615643239383
 20
143.1499682214742
 30
0.0
 11
293.0615643239386
 21
143.554113409907
 31
0.0
  0
LINE
  5
2828
330
26D7
100
AcDbEntity
  8
1
 62
     7
100
AcDbLine
 10
286.9585643239386
 20
149.9431134099055
 30
0.0
 11
286.9585643239386
 21
146.1931134099048
 31
0.0
  0
LINE
  5
2829
330
26D7
100
AcDbEntity
  8
1
 62
     7
100
AcDbLine
 10
286.9585643239386
 20
146.1931134099048
 30
0.0
 11
288.1585643239387
 21
144.9931134099047
 31
0.0
  0
ARC
  5
282A
330
26D7
100
AcDbEntity
  8
1
 62
     7
100
AcDbCircle
 10
290.6585643239385
 20
150.6431134099053
 30
0.0
 40
0.2999999999999901
100
AcDbArc
 50
270.0
 51
0.0
  0
LINE
  5
282B
330
26D7
100
AcDbEntity
  8
1
 62
     7
100
AcDbLine
 10
286.9585643239386
 20
149.9431134099055
 30
0.0
 11
287.3585643239383
 21
150.3431134099052
 31
0.0
  0
LINE
  5
282C
330
26D7
100
AcDbEntity
  8
1
 62
     7
100
AcDbLine
 10
287.3585643239383
 20
150.3431134099052
 30
0.0
 11
290.6585643239385
 21
150.3431134099052
 31
0.0
  0
LINE
  5
282D
330
26D7
100
AcDbEntity
  8
1
 62
     7
100
AcDbLine
 10
304.1085643239384
 20
145.9601134099068
 30
0.0
 11
298.7085643239386
 21
145.9601134099068
 31
0.0
  0
LINE
  5
282E
330
26D7
100
AcDbEntity
  8
1
 62
     7
100
AcDbLine
 10
293.0615643239386
 20
143.554113409907
 30
0.0
 11
300.5050643239381
 21
143.554113409907
 31
0.0
  0
LINE
  5
282F
330
26D7
100
AcDbEntity
  8
1
 62
     7
100
AcDbLine
 10
302.9585643239386
 20
153.8431134099044
 30
0.0
 11
301.6585643239384
 21
155.1431134099045
 31
0.0
  0
LINE
  5
2830
330
26D7
100
AcDbEntity
  8
1
  6
DIVIDE
 62
     7
100
AcDbLine
 10
311.9585643239385
 20
136.7347966258075
 30
0.0
 11
311.9585643239385
 21
147.8431134099067
 31
0.0
  0
LINE
  5
2831
330
26D7
100
AcDbEntity
  8
1
  6
DIVIDE
 62
     7
100
AcDbLine
 10
311.9585643239385
 20
136.7347966258075
 30
0.0
 11
311.9585643239385
 21
147.8431134099067
 31
0.0
  0
LINE
  5
2832
330
26D7
100
AcDbEntity
  8
1
 62
     7
100
AcDbLine
 10
309.9585643239386
 20
143.8067956583897
 30
0.0
 11
309.9585643239386
 21
128.0751134099066
 31
0.0
  0
LINE
  5
2833
330
26D7
100
AcDbEntity
  8
1
 62
     7
100
AcDbLine
 10
308.6485643239386
 20
141.0931134099071
 30
0.0
 11
308.6485643239386
 21
143.1499682214742
 31
0.0
  0
LINE
  5
2834
330
26D7
100
AcDbEntity
  8
1
 62
     7
100
AcDbLine
 10
308.6485643239386
 20
141.0931134099071
 30
0.0
 11
308.6485643239386
 21
131.5294392167493
 31
0.0
  0
LINE
  5
2835
330
26D7
100
AcDbEntity
  8
1
 62
     7
100
AcDbLine
 10
306.2220643239386
 20
128.6751134099071
 30
0.0
 11
306.2220643239386
 21
130.333113409907
 31
0.0
  0
LINE
  5
2836
330
26D7
100
AcDbEntity
  8
1
 62
     7
100
AcDbLine
 10
308.3485643239383
 20
140.793113409907
 30
0.0
 11
308.6485643239386
 21
141.0931134099071
 31
0.0
  0
LINE
  5
2837
330
26D7
100
AcDbEntity
  8
1
 62
     7
100
AcDbLine
 10
309.9585643239386
 20
146.1931134099048
 30
0.0
 11
309.9585643239386
 21
150.3431134099033
 31
0.0
  0
ARC
  5
2838
330
26D7
100
AcDbEntity
  8
1
 62
     7
100
AcDbCircle
 10
309.7585643239383
 20
144.2852706974322
 30
0.0
 40
0.2000000000000988
100
AcDbArc
 50
0.0
 51
45.00000000002446
  0
ARC
  5
2839
330
26D7
100
AcDbEntity
  8
1
 62
     7
100
AcDbCircle
 10
309.7585643239383
 20
143.8067956583897
 30
0.0
 40
0.1999999999999963
100
AcDbArc
 50
273.0000000000072
 51
0.0
  0
LINE
  5
283A
330
26D7
100
AcDbEntity
  8
1
  6
DIVIDE
 62
     7
100
AcDbLine
 10
311.9585643239385
 20
147.8431134099067
 30
0.0
 11
309.9585643239386
 21
147.8431134099067
 31
0.0
  0
LINE
  5
283B
330
26D7
100
AcDbEntity
  8
1
 62
     7
100
AcDbLine
 10
309.9585643239386
 20
146.1931134099048
 30
0.0
 11
308.7585643239383
 21
144.9931134099047
 31
0.0
  0
LINE
  5
283C
330
26D7
100
AcDbEntity
  8
1
 62
     7
100
AcDbLine
 10
309.8999856801757
 20
144.4266920536695
 30
0.0
 11
308.4154262184625
 21
145.9112515153821
 31
0.0
  0
LINE
  5
283D
330
26D7
100
AcDbEntity
  8
1
 62
     7
100
AcDbLine
 10
308.7585643239383
 20
143.554113409907
 30
0.0
 11
309.7690315151869
 21
143.6070697514387
 31
0.0
  0
LINE
  5
283E
330
26D7
100
AcDbEntity
  8
1
 62
     7
100
AcDbLine
 10
309.9585643239386
 20
143.8067956583897
 30
0.0
 11
309.9585643239386
 21
144.2852706974322
 31
0.0
  0
LINE
  5
283F
330
26D7
100
AcDbEntity
  8
1
 62
     7
100
AcDbLine
 10
307.9485643239383
 20
143.554113409907
 30
0.0
 11
308.6485643239386
 21
143.1499682214742
 31
0.0
  0
LINE
  5
2840
330
26D7
100
AcDbEntity
  8
1
 62
     7
100
AcDbLine
 10
309.9585643239386
 20
162.8431134099045
 30
0.0
 11
302.9585643239386
 21
162.8431134099045
 31
0.0
  0
LINE
  5
2841
330
26D7
100
AcDbEntity
  8
1
  6
CENTER
 62
     3
100
AcDbLine
 10
312.0097234828858
 20
158.3431134099045
 30
0.0
 11
288.9585643239385
 21
158.3431134099045
 31
0.0
  0
LINE
  5
2842
330
26D7
100
AcDbEntity
  8
1
 62
     7
100
AcDbLine
 10
309.5585643239384
 20
165.843113409915
 30
0.0
 11
291.3585643239382
 21
165.843113409915
 31
0.0
  0
LINE
  5
2843
330
26D7
100
AcDbEntity
  8
1
 62
     7
100
AcDbLine
 10
301.6585643239384
 20
161.5431134099043
 30
0.0
 11
290.9585643239386
 21
161.5431134099043
 31
0.0
  0
LINE
  5
2844
330
26D7
100
AcDbEntity
  8
1
 62
     3
100
AcDbLine
 10
302.4585643239386
 20
162.3431134099045
 30
0.0
 11
290.9585643239386
 21
162.3431134099045
 31
0.0
  0
LINE
  5
2845
330
26D7
100
AcDbEntity
  8
1
 62
     7
100
AcDbLine
 10
290.9585643239386
 20
165.4431134099151
 30
0.0
 11
291.3585643239382
 21
165.843113409915
 31
0.0
  0
LINE
  5
2846
330
26D7
100
AcDbEntity
  8
1
 62
     7
100
AcDbLine
 10
301.6585643239384
 20
161.5431134099043
 30
0.0
 11
302.9585643239386
 21
162.8431134099045
 31
0.0
  0
LINE
  5
2847
330
26D7
100
AcDbEntity
  8
1
 62
     7
100
AcDbLine
 10
309.5585643239384
 20
165.843113409915
 30
0.0
 11
309.9585643239386
 21
165.4431134099151
 31
0.0
  0
CIRCLE
  5
2848
330
26D7
100
AcDbEntity
  8
1
 62
     7
100
AcDbCircle
 10
437.5412740337652
 20
27.72133514499486
 30
0.0
 40
4.500000000000023
  0
CIRCLE
  5
2849
330
26D7
100
AcDbEntity
  8
1
 62
     7
100
AcDbCircle
 10
507.5412740337656
 20
27.72133514499486
 30
0.0
 40
4.49999999999992
  0
ARC
  5
284A
330
26D7
100
AcDbEntity
  8
1
  6
CENTER
 62
     3
100
AcDbCircle
 10
472.5412740337657
 20
88.34311340990552
 30
0.0
 40
70.0
100
AcDbArc
 50
115.7926780244443
 51
244.2073219755557
  0
ARC
  5
284B
330
26D7
100
AcDbEntity
  8
1
 62
     7
100
AcDbCircle
 10
472.5412740337657
 20
88.34311340990552
 30
0.0
 40
77.50000000000952
100
AcDbArc
 50
113.1417982548073
 51
246.8582017451924
  0
ARC
  5
284C
330
26D7
100
AcDbEntity
  8
1
 62
     7
100
AcDbCircle
 10
472.5412740337657
 20
88.34311340990552
 30
0.0
 40
77.50000000000952
100
AcDbArc
 50
246.8582017451924
 51
90.0
  0
ARC
  5
284D
330
26D7
100
AcDbEntity
  8
1
  6
CENTER
 62
     3
100
AcDbCircle
 10
472.5412740337657
 20
88.34311340990552
 30
0.0
 40
70.0
100
AcDbArc
 50
244.2073219755557
 51
0.0
  0
ARC
  5
284E
330
26D7
100
AcDbEntity
  8
1
 62
     7
100
AcDbCircle
 10
472.5412740337657
 20
88.34311340990552
 30
0.0
 40
52.45599999999997
100
AcDbArc
 50
234.5043352075913
 51
0.0
  0
ARC
  5
284F
330
26D7
100
AcDbEntity
  8
1
 62
     7
100
AcDbCircle
 10
472.5412740337657
 20
88.34311340990552
 30
0.0
 40
55.21699999999996
100
AcDbArc
 50
236.5226213479673
 51
0.0
  0
ARC
  5
2850
330
26D7
100
AcDbEntity
  8
1
 62
     7
100
AcDbCircle
 10
472.5412740337657
 20
88.34311340990552
 30
0.0
 40
55.2170000000001
100
AcDbArc
 50
180.0
 51
303.4773786520324
  0
ARC
  5
2851
330
26D7
100
AcDbEntity
  8
1
 62
     7
100
AcDbCircle
 10
472.5412740337657
 20
88.34311340990552
 30
0.0
 40
52.4560000000001
100
AcDbArc
 50
180.0
 51
305.4956647924084
  0
LINE
  5
2852
330
26D7
100
AcDbEntity
  8
1
  6
DASHDOT
 62
     3
100
AcDbLine
 10
440.9162740337653
 20
33.56700662053981
 30
0.0
 11
434.1662740337651
 21
21.87566366944988
 31
0.0
  0
LINE
  5
2853
330
26D7
100
AcDbEntity
  8
1
  6
CENTER
 62
     3
100
AcDbLine
 10
472.5412740337657
 20
78.84311340990331
 30
0.0
 11
472.5412740337659
 21
0.0000004481857871
 31
0.0
  0
LINE
  5
2854
330
26D7
100
AcDbEntity
  8
1
  6
DASHDOT
 62
     3
100
AcDbLine
 10
510.9162740337657
 20
21.87566366944988
 30
0.0
 11
504.1662740337657
 21
33.56700662053981
 31
0.0
  0
LINE
  5
2855
330
26D7
100
AcDbEntity
  8
1
  6
DASHDOT
 62
     3
100
AcDbLine
 10
492.4056357453842
 20
14.20830624221955
 30
0.0
 11
488.9115786365
 21
27.24830489712195
 31
0.0
  0
CIRCLE
  5
2856
330
26D7
100
AcDbEntity
  8
1
 62
     7
100
AcDbCircle
 10
472.5412740337659
 20
18.34311340990548
 30
0.0
 40
4.5
  0
LINE
  5
2857
330
26D7
100
AcDbEntity
  8
1
  6
DASHDOT
 62
     3
100
AcDbLine
 10
472.5412740337659
 20
11.59311340990549
 30
0.0
 11
472.5412740337659
 21
25.09311340990548
 31
0.0
  0
CIRCLE
  5
2858
330
26D7
100
AcDbEntity
  8
1
 62
     3
100
AcDbCircle
 10
490.658607190942
 20
20.72830556967076
 30
0.0
 40
4.0
  0
CIRCLE
  5
2859
330
26D7
100
AcDbEntity
  8
1
 62
     7
100
AcDbCircle
 10
490.658607190942
 20
20.72830556967076
 30
0.0
 40
4.5
  0
CIRCLE
  5
285A
330
26D7
100
AcDbEntity
  8
1
 62
     7
100
AcDbCircle
 10
490.658607190942
 20
20.72830556967076
 30
0.0
 40
3.200000000000101
  0
ARC
  5
285B
330
26D7
100
AcDbEntity
  8
1
  6
CENTER
 62
     3
100
AcDbCircle
 10
472.5412740337657
 20
88.34311340990552
 30
0.0
 40
70.0
100
AcDbArc
 50
0.0
 51
115.7926780244443
  0
LINE
  5
285C
330
26D7
100
AcDbEntity
  8
1
  6
CENTER
 62
     3
100
AcDbLine
 10
559.8690412310178
 20
88.34311340990552
 30
0.0
 11
542.5412740337657
 21
88.34311340990552
 31
0.0
  0
CIRCLE
  5
285D
330
26D7
100
AcDbEntity
  8
1
 62
     7
100
AcDbCircle
 10
472.5412740337657
 20
158.3431134099054
 30
0.0
 40
4.5
  0
CIRCLE
  5
285E
330
26D7
100
AcDbEntity
  8
1
 62
     3
100
AcDbCircle
 10
454.4239408765894
 20
155.9579212501401
 30
0.0
 40
4.0
  0
CIRCLE
  5
285F
330
26D7
100
AcDbEntity
  8
1
 62
     7
100
AcDbCircle
 10
454.4239408765894
 20
155.9579212501401
 30
0.0
 40
4.5
  0
CIRCLE
  5
2860
330
26D7
100
AcDbEntity
  8
1
 62
     7
100
AcDbCircle
 10
454.4239408765894
 20
155.9579212501401
 30
0.0
 40
3.199999999999988
  0
ARC
  5
2861
330
26D7
100
AcDbEntity
  8
1
 62
     7
100
AcDbCircle
 10
472.5412740337657
 20
88.34311340990552
 30
0.0
 40
55.2170000000001
100
AcDbArc
 50
0.0
 51
123.4773786520324
  0
ARC
  5
2862
330
26D7
100
AcDbEntity
  8
1
 62
     7
100
AcDbCircle
 10
472.5412740337657
 20
88.34311340990552
 30
0.0
 40
55.21699999999992
100
AcDbArc
 50
56.52262134796732
 51
180.0
  0
LINE
  5
2863
330
26D7
100
AcDbEntity
  8
1
  6
DASHDOT
 62
     3
100
AcDbLine
 10
472.5412740337657
 20
165.0931134099053
 30
0.0
 11
472.5412740337657
 21
151.5931134099055
 31
0.0
  0
LINE
  5
2864
330
26D7
100
AcDbEntity
  8
1
  6
CENTER
 62
     3
100
AcDbLine
 10
472.5412740337657
 20
165.0931134099053
 30
0.0
 11
472.5412740337657
 21
151.5931134099055
 31
0.0
  0
LINE
  5
2865
330
26D7
100
AcDbEntity
  8
1
  6
DASHDOT
 62
     3
100
AcDbLine
 10
452.6769123221471
 20
162.4779205775914
 30
0.0
 11
456.1709694310312
 21
149.437921922689
 31
0.0
  0
CIRCLE
  5
2866
330
26D7
100
AcDbEntity
  8
1
 62
     7
100
AcDbCircle
 10
437.5412740337655
 20
148.9648916748162
 30
0.0
 40
4.500000000000111
  0
ARC
  5
2867
330
26D7
100
AcDbEntity
  8
1
 62
     7
100
AcDbCircle
 10
472.5412740337657
 20
88.34311340990552
 30
0.0
 40
56.64999999999928
100
AcDbArc
 50
122.5241073897714
 51
237.4758926102285
  0
ARC
  5
2868
330
26D7
100
AcDbEntity
  8
1
 62
     7
100
AcDbCircle
 10
472.5412740337657
 20
88.34311340990552
 30
0.0
 40
57.64999999999933
100
AcDbArc
 50
121.8925700460398
 51
238.1074299539585
  0
ARC
  5
2869
330
26D7
100
AcDbEntity
  8
1
 62
     7
100
AcDbCircle
 10
472.5412740337657
 20
88.34311340990552
 30
0.0
 40
57.64999999999935
100
AcDbArc
 50
90.0
 51
121.8925700460398
  0
ARC
  5
286A
330
26D7
100
AcDbEntity
  8
1
 62
     7
100
AcDbCircle
 10
472.5412740337657
 20
88.34311340990552
 30
0.0
 40
57.64999999999933
100
AcDbArc
 50
238.1074299539585
 51
90.0
  0
ARC
  5
286B
330
26D7
100
AcDbEntity
  8
1
 62
     7
100
AcDbCircle
 10
472.5412740337657
 20
88.34311340990552
 30
0.0
 40
56.64999999999935
100
AcDbArc
 50
90.0
 51
122.5241073897714
  0
ARC
  5
286C
330
26D7
100
AcDbEntity
  8
1
 62
     7
100
AcDbCircle
 10
472.5412740337657
 20
88.34311340990552
 30
0.0
 40
56.64999999999928
100
AcDbArc
 50
237.4758926102285
 51
90.0
  0
ARC
  5
286D
330
26D7
100
AcDbEntity
  8
1
 62
     7
100
AcDbCircle
 10
447.9517038063635
 20
128.77893893977
 30
0.0
 40
5.499999999999888
100
AcDbArc
 50
143.5948183408125
 51
272.3551886736954
  0
ARC
  5
286E
330
26D7
100
AcDbEntity
  8
1
 62
     7
100
AcDbCircle
 10
447.9517038063635
 20
128.77893893977
 30
0.0
 40
5.969999999999894
100
AcDbArc
 50
190.5776121061003
 51
252.328171432981
  0
ARC
  5
286F
330
26D7
100
AcDbEntity
  8
1
 62
     7
100
AcDbCircle
 10
442.6747215245629
 20
51.63218872167352
 30
0.0
 40
5.500000000000018
100
AcDbArc
 50
79.81872436978405
 51
208.5790947026638
  0
ARC
  5
2870
330
26D7
100
AcDbEntity
  8
1
 62
     7
100
AcDbCircle
 10
437.9540966063212
 20
120.6452821892999
 30
0.0
 40
5.499999999999928
100
AcDbArc
 50
345.9056808915239
 51
114.666051224404
  0
ARC
  5
2871
330
26D7
100
AcDbEntity
  8
1
 62
     7
100
AcDbCircle
 10
442.6747215245629
 20
51.63218872167352
 30
0.0
 40
5.499999999999976
100
AcDbArc
 50
253.1600357321189
 51
21.92040606499733
  0
ARC
  5
2872
330
26D7
100
AcDbEntity
  8
1
 62
     7
100
AcDbCircle
 10
447.9517038063635
 20
128.77893893977
 30
0.0
 40
5.499999999999888
100
AcDbArc
 50
143.5948183408125
 51
272.3551886736954
  0
ARC
  5
2873
330
26D7
100
AcDbEntity
  8
1
 62
     7
100
AcDbCircle
 10
472.5412740337657
 20
88.34311340990552
 30
0.0
 40
52.45599999999989
100
AcDbArc
 50
54.50433520759156
 51
180.0
  0
ARC
  5
2874
330
26D7
100
AcDbEntity
  8
1
 62
     7
100
AcDbCircle
 10
472.5412740337657
 20
88.34311340990552
 30
0.0
 40
42.59599999999987
100
AcDbArc
 50
44.35298561470335
 51
180.0
  0
ARC
  5
2875
330
26D7
100
AcDbEntity
  8
1
 62
     7
100
AcDbCircle
 10
472.5412740337657
 20
88.34311340990552
 30
0.0
 40
42.59599999999998
100
AcDbArc
 50
180.0
 51
315.6470143852966
  0
ARC
  5
2876
330
26D7
100
AcDbEntity
  8
1
 62
     7
100
AcDbCircle
 10
472.5412740337657
 20
88.34311340990552
 30
0.0
 40
39.73799999999988
100
AcDbArc
 50
39.96174247317443
 51
180.0
  0
ARC
  5
2877
330
26D7
100
AcDbEntity
  8
1
 62
     7
100
AcDbCircle
 10
472.5412740337657
 20
88.34311340990552
 30
0.0
 40
39.73800000000009
100
AcDbArc
 50
180.0
 51
320.0382575268255
  0
ARC
  5
2878
330
26D7
100
AcDbEntity
  8
1
 62
     7
100
AcDbCircle
 10
472.5412740337657
 20
88.34311340990552
 30
0.0
 40
51.29999999999999
100
AcDbArc
 50
126.4861604725228
 51
131.7747090926957
  0
ARC
  5
2879
330
26D7
100
AcDbEntity
  8
1
 62
     7
100
AcDbCircle
 10
447.9517038063635
 20
128.77893893977
 30
0.0
 40
5.969999999999947
100
AcDbArc
 50
172.2079542123083
 51
252.328171432981
  0
ARC
  5
287A
330
26D7
100
AcDbEntity
  8
1
 62
     7
100
AcDbCircle
 10
437.9540966063212
 20
120.6452821892999
 30
0.0
 40
5.970000000000022
100
AcDbArc
 50
5.932698132237226
 51
86.05291535291234
  0
ARC
  5
287B
330
26D7
100
AcDbEntity
  8
1
 62
     7
100
AcDbCircle
 10
472.5412740337657
 20
88.34311340990552
 30
0.0
 40
43.63999999999997
100
AcDbArc
 50
221.141309850072
 51
224.9456466716662
  0
ARC
  5
287C
330
26D7
100
AcDbEntity
  8
1
 62
     7
100
AcDbCircle
 10
442.6747215245629
 20
51.63218872167352
 30
0.0
 40
5.970000000000029
100
AcDbArc
 50
99.84574161049852
 51
179.9659588311703
  0
LINE
  5
287D
330
26D7
100
AcDbEntity
  8
1
  6
CENTER
 62
     3
100
AcDbLine
 10
542.5412740337657
 20
88.34311340990552
 30
0.0
 11
387.0831511106309
 21
88.34311340990552
 31
0.0
  0
CIRCLE
  5
287E
330
26D7
100
AcDbEntity
  8
1
 62
     7
100
AcDbCircle
 10
402.5412740337654
 20
88.34311340990552
 30
0.0
 40
4.499999999999911
  0
ARC
  5
287F
330
26D7
100
AcDbEntity
  8
1
 62
     7
100
AcDbCircle
 10
426.2056300421557
 20
97.97177095562751
 30
0.0
 40
5.500000000000007
100
AcDbArc
 50
190.5513400799446
 51
319.3117104128247
  0
ARC
  5
2880
330
26D7
100
AcDbEntity
  8
1
 62
     7
100
AcDbCircle
 10
472.5412740337657
 20
88.34311340990552
 30
0.0
 40
51.30000000000002
100
AcDbArc
 50
173.4426822116518
 51
178.7312308318265
  0
ARC
  5
2881
330
26D7
100
AcDbEntity
  8
1
 62
     7
100
AcDbCircle
 10
426.2056300421557
 20
97.97177095562751
 30
0.0
 40
5.970000000000077
100
AcDbArc
 50
219.1644759514368
 51
299.2846931721101
  0
ARC
  5
2882
330
26D7
100
AcDbEntity
  8
1
 62
     7
100
AcDbCircle
 10
472.5412740337657
 20
88.34311340990552
 30
0.0
 40
43.63999999999993
100
AcDbArc
 50
174.1847881109424
 51
177.9891249325363
  0
ARC
  5
2883
330
26D7
100
AcDbEntity
  8
1
 62
     7
100
AcDbCircle
 10
433.8777653620998
 20
61.05142882565832
 30
0.0
 40
5.499999999999968
100
AcDbArc
 50
237.5078618190759
 51
6.268232151954107
  0
CIRCLE
  5
2884
330
26D7
100
AcDbEntity
  8
1
 62
     7
100
AcDbCircle
 10
411.9194957688546
 20
53.34311340990552
 30
0.0
 40
4.500000000000006
  0
LINE
  5
2885
330
26D7
100
AcDbEntity
  8
1
  6
DASHDOT
 62
     3
100
AcDbLine
 10
417.7651672443997
 20
56.71811340990553
 30
0.0
 11
406.0738242933098
 21
49.96811340990553
 31
0.0
  0
ARC
  5
2886
330
26D7
100
AcDbEntity
  8
1
 62
     7
100
AcDbCircle
 10
472.5412740337657
 20
88.34311340990552
 30
0.0
 40
51.29999999999993
100
AcDbArc
 50
220.3992039507818
 51
225.6877525709558
  0
ARC
  5
2887
330
26D7
100
AcDbEntity
  8
1
 62
     7
100
AcDbCircle
 10
433.8777653620998
 20
61.05142882565832
 30
0.0
 40
5.96999999999999
100
AcDbArc
 50
266.1209976905708
 51
346.2412149112404
  0
LINE
  5
2888
330
26D7
100
AcDbEntity
  8
1
  6
DASHDOT
 62
     3
100
AcDbLine
 10
409.2912740337654
 20
88.34311340990561
 30
0.0
 11
395.7912740337654
 21
88.34311340990552
 31
0.0
  0
ARC
  5
2889
330
26D7
100
AcDbEntity
  8
1
 62
     7
100
AcDbCircle
 10
427.9483047640312
 20
72.49476832410753
 30
0.0
 40
5.500000000000079
100
AcDbArc
 50
48.51437654369618
 51
177.2747468765762
  0
ARC
  5
288A
330
26D7
100
AcDbEntity
  8
1
 62
     7
100
AcDbCircle
 10
472.5412740337657
 20
88.34311340990552
 30
0.0
 40
51.30000000000012
100
AcDbArc
 50
189.094856124695
 51
194.3834047448688
  0
ARC
  5
288B
330
26D7
100
AcDbEntity
  8
1
 62
     7
100
AcDbCircle
 10
427.9483047640312
 20
72.49476832410753
 30
0.0
 40
5.970000000000068
100
AcDbArc
 50
68.54139378440914
 51
148.6616110050825
  0
ARC
  5
288C
330
26D7
100
AcDbEntity
  8
1
 62
     7
100
AcDbCircle
 10
433.8777653620998
 20
61.05142882565832
 30
0.0
 40
5.500000000000079
100
AcDbArc
 50
64.16655045674005
 51
192.9269207896208
  0
ARC
  5
288D
330
26D7
100
AcDbEntity
  8
1
 62
     7
100
AcDbCircle
 10
427.9483047640312
 20
72.49476832410753
 30
0.0
 40
5.499999999999905
100
AcDbArc
 50
221.855687906032
 51
350.616058238911
  0
ARC
  5
288E
330
26D7
100
AcDbEntity
  8
1
 62
     7
100
AcDbCircle
 10
472.5412740337657
 20
88.34311340990552
 30
0.0
 40
51.3000000000001
100
AcDbArc
 50
204.7470300377396
 51
210.0355786579129
  0
ARC
  5
288F
330
26D7
100
AcDbEntity
  8
1
 62
     7
100
AcDbCircle
 10
427.9483047640312
 20
72.49476832410753
 30
0.0
 40
5.969999999999987
100
AcDbArc
 50
250.4688237775248
 51
330.5890409981992
  0
ARC
  5
2890
330
26D7
100
AcDbEntity
  8
1
 62
     7
100
AcDbCircle
 10
433.8777653620998
 20
61.05142882565832
 30
0.0
 40
5.970000000000013
100
AcDbArc
 50
84.19356769745567
 51
164.3137849181272
  0
ARC
  5
2891
330
26D7
100
AcDbEntity
  8
1
 62
     7
100
AcDbCircle
 10
472.5412740337657
 20
88.34311340990552
 30
0.0
 40
43.63999999999999
100
AcDbArc
 50
205.4891359370297
 51
209.2934727586237
  0
ARC
  5
2892
330
26D7
100
AcDbEntity
  8
1
 62
     7
100
AcDbCircle
 10
425.3261006974388
 20
85.11350707621554
 30
0.0
 40
5.500000000000046
100
AcDbArc
 50
32.86220263065411
 51
161.6225729635331
  0
ARC
  5
2893
330
26D7
100
AcDbEntity
  8
1
 62
     7
100
AcDbCircle
 10
425.3261006974388
 20
85.11350707621554
 30
0.0
 40
5.500000000000018
100
AcDbArc
 50
206.2035139929874
 51
334.9638843258679
  0
ARC
  5
2894
330
26D7
100
AcDbEntity
  8
1
 62
     7
100
AcDbCircle
 10
425.3261006974388
 20
85.11350707621554
 30
0.0
 40
5.970000000000013
100
AcDbArc
 50
52.88921987136896
 51
133.0094370920412
  0
ARC
  5
2895
330
26D7
100
AcDbEntity
  8
1
 62
     7
100
AcDbCircle
 10
425.3261006974388
 20
85.11350707621554
 30
0.0
 40
5.970000000000045
100
AcDbArc
 50
234.8166498644803
 51
314.9368670851544
  0
ARC
  5
2896
330
26D7
100
AcDbEntity
  8
1
 62
     7
100
AcDbCircle
 10
472.5412740337657
 20
88.34311340990552
 30
0.0
 40
43.63999999999999
100
AcDbArc
 50
189.8369620239859
 51
193.6412988455792
  0
CIRCLE
  5
2897
330
26D7
100
AcDbEntity
  8
1
 62
     7
100
AcDbCircle
 10
411.9194957688549
 20
123.3431134099055
 30
0.0
 40
4.500000000000006
  0
LINE
  5
2898
330
26D7
100
AcDbEntity
  8
1
  6
DASHDOT
 62
     3
100
AcDbLine
 10
417.7651672443997
 20
119.9681134099056
 30
0.0
 11
406.0738242933098
 21
126.7181134099056
 31
0.0
  0
ARC
  5
2899
330
26D7
100
AcDbEntity
  8
1
 62
     7
100
AcDbCircle
 10
430.5216621302642
 20
110.115921353051
 30
0.0
 40
5.500000000000174
100
AcDbArc
 50
174.8991661669001
 51
303.6595364997801
  0
ARC
  5
289A
330
26D7
100
AcDbEntity
  8
1
 62
     7
100
AcDbCircle
 10
426.2056300421557
 20
97.97177095562751
 30
0.0
 40
5.499999999999825
100
AcDbArc
 50
17.21002871761142
 51
145.9703990504908
  0
ARC
  5
289B
330
26D7
100
AcDbEntity
  8
1
 62
     7
100
AcDbCircle
 10
430.5216621302642
 20
110.115921353051
 30
0.0
 40
5.970000000000028
100
AcDbArc
 50
203.5123020383947
 51
283.6325192590645
  0
ARC
  5
289C
330
26D7
100
AcDbEntity
  8
1
 62
     7
100
AcDbCircle
 10
426.2056300421557
 20
97.97177095562751
 30
0.0
 40
5.96999999999995
100
AcDbArc
 50
37.23704595832588
 51
117.3572631789985
  0
ARC
  5
289D
330
26D7
100
AcDbEntity
  8
1
 62
     7
100
AcDbCircle
 10
472.5412740337657
 20
88.34311340990552
 30
0.0
 40
51.29999999999993
100
AcDbArc
 50
157.7905082986085
 51
163.079056918783
  0
ARC
  5
289E
330
26D7
100
AcDbEntity
  8
1
 62
     7
100
AcDbCircle
 10
472.5412740337657
 20
88.34311340990552
 30
0.0
 40
43.64000000000006
100
AcDbArc
 50
158.5326141978996
 51
162.336951019492
  0
ARC
  5
289F
330
26D7
100
AcDbEntity
  8
1
 62
     7
100
AcDbCircle
 10
430.5216621302642
 20
110.115921353051
 30
0.0
 40
5.499999999999857
100
AcDbArc
 50
1.557854804567372
 51
130.3182251374473
  0
ARC
  5
28A0
330
26D7
100
AcDbEntity
  8
1
 62
     7
100
AcDbCircle
 10
437.9540966063212
 20
120.6452821892999
 30
0.0
 40
5.500000000000018
100
AcDbArc
 50
159.2469922538582
 51
288.0073625867371
  0
ARC
  5
28A1
330
26D7
100
AcDbEntity
  8
1
 62
     7
100
AcDbCircle
 10
472.5412740337657
 20
88.34311340990552
 30
0.0
 40
51.30000000000006
100
AcDbArc
 50
142.1383343855665
 51
147.4268830057385
  0
ARC
  5
28A2
330
26D7
100
AcDbEntity
  8
1
 62
     7
100
AcDbCircle
 10
437.9540966063212
 20
120.6452821892999
 30
0.0
 40
5.97000000000018
100
AcDbArc
 50
187.860128125351
 51
267.9803453460241
  0
ARC
  5
28A3
330
26D7
100
AcDbEntity
  8
1
 62
     7
100
AcDbCircle
 10
430.5216621302642
 20
110.115921353051
 30
0.0
 40
5.969999999999918
100
AcDbArc
 50
21.58487204528191
 51
101.7050892659534
  0
ARC
  5
28A4
330
26D7
100
AcDbEntity
  8
1
 62
     7
100
AcDbCircle
 10
472.5412740337657
 20
88.34311340990552
 30
0.0
 40
43.63999999999998
100
AcDbArc
 50
142.8804402848552
 51
146.6847771064492
  0
LINE
  5
28A5
330
26D7
100
AcDbEntity
  8
1
  6
DASHDOT
 62
     3
100
AcDbLine
 10
440.9162740337657
 20
143.1192201992712
 30
0.0
 11
434.1662740337656
 21
154.8105631503611
 31
0.0
  0
CIRCLE
  5
28A6
330
26D7
100
AcDbEntity
  8
1
 62
     7
100
AcDbCircle
 10
472.5412740337657
 20
88.34311340990552
 30
0.0
 40
15.99999975964028
  0
CIRCLE
  5
28A7
330
26D7
100
AcDbEntity
  8
1
 62
     7
100
AcDbCircle
 10
472.5412740337657
 20
88.34311340990552
 30
0.0
 40
21.24999999999788
  0
CIRCLE
  5
28A8
330
26D7
100
AcDbEntity
  8
1
 62
     7
100
AcDbCircle
 10
542.5412740337657
 20
88.34311340990552
 30
0.0
 40
4.499999999999911
  0
ARC
  5
28A9
330
26D7
100
AcDbEntity
  8
1
 62
     7
100
AcDbCircle
 10
472.5412740337657
 20
88.34311340990323
 30
0.0
 40
9.500000000000012
100
AcDbArc
 50
108.4084801705847
 51
270.0
  0
ARC
  5
28AA
330
26D7
100
AcDbEntity
  8
1
 62
     7
100
AcDbCircle
 10
472.5412740337657
 20
88.34311340990323
 30
0.0
 40
9.5
100
AcDbArc
 50
270.0
 51
71.59151982941371
  0
ARC
  5
28AB
330
26D7
100
AcDbEntity
  8
0
 62
     7
100
AcDbCircle
 10
472.5412740337675
 20
89.27644672925342
 30
0.0
 40
17.6799997344213
100
AcDbArc
 50
90.00000000000488
 51
250.730361122028
  0
ARC
  5
28AC
330
26D7
100
AcDbEntity
  8
0
 62
     7
100
AcDbCircle
 10
472.541274033764
 20
89.27644672925342
 30
0.0
 40
17.67999973442131
100
AcDbArc
 50
289.2696388779718
 51
89.99999999999349
  0
ARC
  5
28AD
330
26D7
100
AcDbEntity
  8
1
 62
     7
100
AcDbCircle
 10
472.5412740337657
 20
88.34311340990552
 30
0.0
 40
39.738
100
AcDbArc
 50
0.0
 51
140.0382575268255
  0
ARC
  5
28AE
330
26D7
100
AcDbEntity
  8
1
 62
     7
100
AcDbCircle
 10
472.5412740337657
 20
88.34311340990552
 30
0.0
 40
42.59599999999998
100
AcDbArc
 50
0.0
 51
135.6470143852983
  0
ARC
  5
28AF
330
26D7
100
AcDbEntity
  8
1
 62
     7
100
AcDbCircle
 10
472.5412740337657
 20
88.34311340990552
 30
0.0
 40
52.4560000000001
100
AcDbArc
 50
0.0
 51
125.4956647924086
  0
ARC
  5
28B0
330
26D7
100
AcDbEntity
  8
1
 62
     7
100
AcDbCircle
 10
518.8769180253755
 20
97.97177095562751
 30
0.0
 40
5.500000000000023
100
AcDbArc
 50
220.6882895871752
 51
349.4486599200549
  0
ARC
  5
28B1
330
26D7
100
AcDbEntity
  8
1
 62
     7
100
AcDbCircle
 10
472.5412740337657
 20
88.34311340990552
 30
0.0
 40
43.64000000000002
100
AcDbArc
 50
2.010875067463703
 51
5.815211889057561
  0
ARC
  5
28B2
330
26D7
100
AcDbEntity
  8
1
 62
     7
100
AcDbCircle
 10
518.8769180253755
 20
97.97177095562751
 30
0.0
 40
5.970000000000005
100
AcDbArc
 50
240.7153068278899
 51
320.8355240485621
  0
ARC
  5
28B3
330
26D7
100
AcDbEntity
  8
1
 62
     7
100
AcDbCircle
 10
472.5412740337657
 20
88.34311340990552
 30
0.0
 40
51.29999999999999
100
AcDbArc
 50
1.268769168173467
 51
6.557317788348133
  0
LINE
  5
28B4
330
26D7
100
AcDbEntity
  8
1
  6
CENTER
 62
     3
100
AcDbLine
 10
472.5412740337657
 20
109.5931134099033
 30
0.0
 11
472.5412740337657
 21
78.84311340990331
 31
0.0
  0
ARC
  5
28B5
330
26D7
100
AcDbEntity
  8
1
 62
     7
100
AcDbCircle
 10
472.5412740337657
 20
88.34311340990552
 30
0.0
 40
39.73799999999996
100
AcDbArc
 50
219.9617424731744
 51
0.0
  0
ARC
  5
28B6
330
26D7
100
AcDbEntity
  8
1
 62
     7
100
AcDbCircle
 10
472.5412740337657
 20
88.34311340990552
 30
0.0
 40
42.59599999999994
100
AcDbArc
 50
224.3529856147016
 51
0.0
  0
ARC
  5
28B7
330
26D7
100
AcDbEntity
  8
1
 62
     7
100
AcDbCircle
 10
502.4078265429682
 20
51.63218872167352
 30
0.0
 40
5.499999999999952
100
AcDbArc
 50
158.0795939350026
 51
286.8399642678811
  0
ARC
  5
28B8
330
26D7
100
AcDbEntity
  8
1
 62
     7
100
AcDbCircle
 10
491.3958048112839
 20
44.93562996050911
 30
0.0
 40
5.500000000000016
100
AcDbArc
 50
315.7687313842921
 51
84.52910171717242
  0
ARC
  5
28B9
330
26D7
100
AcDbEntity
  8
1
 62
     7
100
AcDbCircle
 10
491.3958048112839
 20
44.93562996050911
 30
0.0
 40
5.969999999999892
100
AcDbArc
 50
344.3818672557848
 51
64.50208447645916
  0
ARC
  5
28BA
330
26D7
100
AcDbEntity
  8
1
 62
     7
100
AcDbCircle
 10
472.5412740337657
 20
88.34311340990552
 30
0.0
 40
43.63999999999998
100
AcDbArc
 50
299.4021794152905
 51
303.2065162368835
  0
ARC
  5
28BB
330
26D7
100
AcDbEntity
  8
1
 62
     7
100
AcDbCircle
 10
502.4078265429682
 20
51.63218872167352
 30
0.0
 40
5.970000000000029
100
AcDbArc
 50
178.1066111757153
 51
258.226828396388
  0
ARC
  5
28BC
330
26D7
100
AcDbEntity
  8
1
 62
     7
100
AcDbCircle
 10
502.4078265429682
 20
51.63218872167352
 30
0.0
 40
5.499999999999952
100
AcDbArc
 50
158.0795939350026
 51
276.1745788291847
  0
ARC
  5
28BD
330
26D7
100
AcDbEntity
  8
1
 62
     7
100
AcDbCircle
 10
491.3958048112839
 20
44.93562996050911
 30
0.0
 40
5.500000000000016
100
AcDbArc
 50
315.7687313842921
 51
84.52910171717242
  0
ARC
  5
28BE
330
26D7
100
AcDbEntity
  8
1
 62
     7
100
AcDbCircle
 10
491.3958048112839
 20
44.93562996050911
 30
0.0
 40
5.969999999999892
100
AcDbArc
 50
344.3818672557848
 51
64.50208447645916
  0
ARC
  5
28BF
330
26D7
100
AcDbEntity
  8
1
 62
     7
100
AcDbCircle
 10
472.5412740337657
 20
88.34311340990552
 30
0.0
 40
43.63999999999998
100
AcDbArc
 50
299.4021794152905
 51
303.2065162368835
  0
ARC
  5
28C0
330
26D7
100
AcDbEntity
  8
1
 62
     7
100
AcDbCircle
 10
502.4078265429682
 20
51.63218872167352
 30
0.0
 40
5.970000000000029
100
AcDbArc
 50
178.1066111757153
 51
258.226828396388
  0
ARC
  5
28C1
330
26D7
100
AcDbEntity
  8
1
 62
     7
100
AcDbCircle
 10
466.0971192819612
 20
41.45840567076302
 30
0.0
 40
5.500000000000016
100
AcDbArc
 50
284.4643835582063
 51
53.22475389108508
  0
ARC
  5
28C2
330
26D7
100
AcDbEntity
  8
1
 62
     7
100
AcDbCircle
 10
466.0971192819612
 20
41.45840567076302
 30
0.0
 40
5.500000000000016
100
AcDbArc
 50
284.4643835582063
 51
53.22475389108508
  0
ARC
  5
28C3
330
26D7
100
AcDbEntity
  8
1
 62
     7
100
AcDbCircle
 10
466.0971192819612
 20
41.45840567076302
 30
0.0
 40
5.500000000000031
100
AcDbArc
 50
111.1230721958726
 51
239.8834425287498
  0
ARC
  5
28C4
330
26D7
100
AcDbEntity
  8
1
 62
     7
100
AcDbCircle
 10
453.6867432562476
 20
44.93562996050911
 30
0.0
 40
5.500000000000011
100
AcDbArc
 50
95.47089828282755
 51
224.2312686157068
  0
ARC
  5
28C5
330
26D7
100
AcDbEntity
  8
1
 62
     7
100
AcDbCircle
 10
453.6867432562476
 20
44.93562996050911
 30
0.0
 40
5.500000000000023
100
AcDbArc
 50
268.8122096451623
 51
37.57257997804126
  0
ARC
  5
28C6
330
26D7
100
AcDbEntity
  8
1
 62
     7
100
AcDbCircle
 10
453.6867432562476
 20
44.93562996050911
 30
0.0
 40
5.969999999999995
100
AcDbArc
 50
297.4253455166551
 51
17.54556273732727
  0
ARC
  5
28C7
330
26D7
100
AcDbEntity
  8
1
 62
     7
100
AcDbCircle
 10
466.0971192819612
 20
41.45840567076302
 30
0.0
 40
5.969999999999972
100
AcDbArc
 50
131.1500894365839
 51
211.2703066572568
  0
ARC
  5
28C8
330
26D7
100
AcDbEntity
  8
1
 62
     7
100
AcDbCircle
 10
466.0971192819612
 20
41.45840567076302
 30
0.0
 40
5.500000000000031
100
AcDbArc
 50
111.1230721958726
 51
239.8834425287498
  0
ARC
  5
28C9
330
26D7
100
AcDbEntity
  8
1
 62
     7
100
AcDbCircle
 10
453.6867432562476
 20
44.93562996050911
 30
0.0
 40
5.500000000000011
100
AcDbArc
 50
95.47089828282755
 51
224.2312686157068
  0
ARC
  5
28CA
330
26D7
100
AcDbEntity
  8
1
 62
     7
100
AcDbCircle
 10
453.6867432562476
 20
44.93562996050911
 30
0.0
 40
5.500000000000023
100
AcDbArc
 50
268.8122096451623
 51
37.57257997804126
  0
ARC
  5
28CB
330
26D7
100
AcDbEntity
  8
1
 62
     7
100
AcDbCircle
 10
453.6867432562476
 20
44.93562996050911
 30
0.0
 40
5.969999999999995
100
AcDbArc
 50
297.4253455166551
 51
17.54556273732727
  0
ARC
  5
28CC
330
26D7
100
AcDbEntity
  8
1
 62
     7
100
AcDbCircle
 10
466.0971192819612
 20
41.45840567076302
 30
0.0
 40
5.969999999999972
100
AcDbArc
 50
131.1500894365839
 51
211.2703066572568
  0
ARC
  5
28CD
330
26D7
100
AcDbEntity
  8
1
 62
     7
100
AcDbCircle
 10
472.5412740337657
 20
88.34311340990552
 30
0.0
 40
51.29999999999993
100
AcDbArc
 50
251.7035517768693
 51
256.9921003970426
  0
ARC
  5
28CE
330
26D7
100
AcDbEntity
  8
1
 62
     7
100
AcDbCircle
 10
472.5412740337657
 20
88.34311340990552
 30
0.0
 40
51.29999999999993
100
AcDbArc
 50
251.7035517768693
 51
256.9921003970426
  0
ARC
  5
28CF
330
26D7
100
AcDbEntity
  8
1
 62
     7
100
AcDbCircle
 10
442.6747215245629
 20
51.63218872167352
 30
0.0
 40
5.499999999999983
100
AcDbArc
 50
263.8254211708136
 51
21.92040606499733
  0
ARC
  5
28D0
330
26D7
100
AcDbEntity
  8
1
 62
     7
100
AcDbCircle
 10
442.6747215245629
 20
51.63218872167352
 30
0.0
 40
5.970000000000029
100
AcDbArc
 50
281.7731716036119
 51
1.893388824284695
  0
ARC
  5
28D1
330
26D7
100
AcDbEntity
  8
1
 62
     7
100
AcDbCircle
 10
472.5412740337657
 20
88.34311340990552
 30
0.0
 40
43.63999999999999
100
AcDbArc
 50
236.7934837631163
 51
240.5978205847092
  0
ARC
  5
28D2
330
26D7
100
AcDbEntity
  8
1
 62
     7
100
AcDbCircle
 10
442.6747215245629
 20
51.63218872167352
 30
0.0
 40
5.970000000000029
100
AcDbArc
 50
281.7731716036119
 51
1.893388824284695
  0
ARC
  5
28D3
330
26D7
100
AcDbEntity
  8
1
 62
     7
100
AcDbCircle
 10
472.5412740337657
 20
88.34311340990552
 30
0.0
 40
43.63999999999999
100
AcDbArc
 50
236.7934837631163
 51
240.5978205847092
  0
ARC
  5
28D4
330
26D7
100
AcDbEntity
  8
1
 62
     7
100
AcDbCircle
 10
453.6867432562476
 20
44.93562996050911
 30
0.0
 40
5.970000000000068
100
AcDbArc
 50
115.4979155235424
 51
195.6181327442148
  0
ARC
  5
28D5
330
26D7
100
AcDbEntity
  8
1
 62
     7
100
AcDbCircle
 10
453.6867432562476
 20
44.93562996050911
 30
0.0
 40
5.970000000000068
100
AcDbArc
 50
115.4979155235424
 51
195.6181327442148
  0
ARC
  5
28D6
330
26D7
100
AcDbEntity
  8
1
 62
     7
100
AcDbCircle
 10
472.5412740337657
 20
88.34311340990552
 30
0.0
 40
51.29999999999996
100
AcDbArc
 50
236.051377863826
 51
241.3399264839987
  0
ARC
  5
28D7
330
26D7
100
AcDbEntity
  8
1
 62
     7
100
AcDbCircle
 10
472.5412740337657
 20
88.34311340990552
 30
0.0
 40
51.29999999999996
100
AcDbArc
 50
236.051377863826
 51
241.3399264839987
  0
ARC
  5
28D8
330
26D7
100
AcDbEntity
  8
1
 62
     7
100
AcDbCircle
 10
442.6747215245629
 20
51.63218872167352
 30
0.0
 40
5.500000000000018
100
AcDbArc
 50
79.81872436978405
 51
96.17457882918477
  0
ARC
  5
28D9
330
26D7
100
AcDbEntity
  8
1
 62
     7
100
AcDbCircle
 10
472.5412740337657
 20
88.34311340990552
 30
0.0
 40
43.63999999999993
100
AcDbArc
 50
252.4456576761596
 51
256.2499944977525
  0
ARC
  5
28DA
330
26D7
100
AcDbEntity
  8
1
 62
     7
100
AcDbCircle
 10
472.5412740337657
 20
88.34311340990552
 30
0.0
 40
43.63999999999993
100
AcDbArc
 50
252.4456576761596
 51
256.2499944977525
  0
ARC
  5
28DB
330
26D7
100
AcDbEntity
  8
1
 62
     7
100
AcDbCircle
 10
491.3958048112839
 20
44.93562996050911
 30
0.0
 40
5.499999999999959
100
AcDbArc
 50
142.4274200219587
 51
271.187790354836
  0
ARC
  5
28DC
330
26D7
100
AcDbEntity
  8
1
 62
     7
100
AcDbCircle
 10
478.9854287855701
 20
41.45840567076302
 30
0.0
 40
5.500000000000006
100
AcDbArc
 50
126.7752461089146
 51
255.5356164417936
  0
ARC
  5
28DD
330
26D7
100
AcDbEntity
  8
1
 62
     7
100
AcDbCircle
 10
478.9854287855701
 20
41.45840567076302
 30
0.0
 40
5.499999999999952
100
AcDbArc
 50
300.1165574712481
 51
68.87692780412902
  0
ARC
  5
28DE
330
26D7
100
AcDbEntity
  8
1
 62
     7
100
AcDbCircle
 10
466.0971192819612
 20
41.45840567076302
 30
0.0
 40
5.970000000000013
100
AcDbArc
 50
313.0775194296986
 51
33.19773665037061
  0
ARC
  5
28DF
330
26D7
100
AcDbEntity
  8
1
 62
     7
100
AcDbCircle
 10
478.9854287855701
 20
41.45840567076302
 30
0.0
 40
5.969999999999987
100
AcDbArc
 50
146.8022633496293
 51
226.9224805703013
  0
ARC
  5
28E0
330
26D7
100
AcDbEntity
  8
1
 62
     7
100
AcDbCircle
 10
478.9854287855701
 20
41.45840567076302
 30
0.0
 40
5.970000000000085
100
AcDbArc
 50
328.7296933427431
 51
48.84991056341607
  0
ARC
  5
28E1
330
26D7
100
AcDbEntity
  8
1
 62
     7
100
AcDbCircle
 10
491.3958048112839
 20
44.93562996050911
 30
0.0
 40
5.970000000000093
100
AcDbArc
 50
162.4544372626723
 51
242.574654483343
  0
ARC
  5
28E2
330
26D7
100
AcDbEntity
  8
1
 62
     7
100
AcDbCircle
 10
491.3958048112839
 20
44.93562996050911
 30
0.0
 40
5.499999999999959
100
AcDbArc
 50
142.4274200219587
 51
271.187790354836
  0
ARC
  5
28E3
330
26D7
100
AcDbEntity
  8
1
 62
     7
100
AcDbCircle
 10
478.9854287855701
 20
41.45840567076302
 30
0.0
 40
5.500000000000006
100
AcDbArc
 50
126.7752461089146
 51
255.5356164417936
  0
ARC
  5
28E4
330
26D7
100
AcDbEntity
  8
1
 62
     7
100
AcDbCircle
 10
478.9854287855701
 20
41.45840567076302
 30
0.0
 40
5.499999999999952
100
AcDbArc
 50
300.1165574712481
 51
68.87692780412902
  0
ARC
  5
28E5
330
26D7
100
AcDbEntity
  8
1
 62
     7
100
AcDbCircle
 10
466.0971192819612
 20
41.45840567076302
 30
0.0
 40
5.970000000000013
100
AcDbArc
 50
313.0775194296986
 51
33.19773665037061
  0
ARC
  5
28E6
330
26D7
100
AcDbEntity
  8
1
 62
     7
100
AcDbCircle
 10
478.9854287855701
 20
41.45840567076302
 30
0.0
 40
5.969999999999987
100
AcDbArc
 50
146.8022633496293
 51
226.9224805703013
  0
ARC
  5
28E7
330
26D7
100
AcDbEntity
  8
1
 62
     7
100
AcDbCircle
 10
478.9854287855701
 20
41.45840567076302
 30
0.0
 40
5.970000000000085
100
AcDbArc
 50
328.7296933427431
 51
48.84991056341607
  0
ARC
  5
28E8
330
26D7
100
AcDbEntity
  8
1
 62
     7
100
AcDbCircle
 10
491.3958048112839
 20
44.93562996050911
 30
0.0
 40
5.970000000000093
100
AcDbArc
 50
162.4544372626723
 51
242.574654483343
  0
ARC
  5
28E9
330
26D7
100
AcDbEntity
  8
1
 62
     7
100
AcDbCircle
 10
472.5412740337657
 20
88.34311340990552
 30
0.0
 40
51.29999999999996
100
AcDbArc
 50
267.3557256899133
 51
272.6442743100866
  0
ARC
  5
28EA
330
26D7
100
AcDbEntity
  8
1
 62
     7
100
AcDbCircle
 10
472.5412740337657
 20
88.34311340990552
 30
0.0
 40
51.29999999999996
100
AcDbArc
 50
267.3557256899133
 51
272.6442743100866
  0
ARC
  5
28EB
330
26D7
100
AcDbEntity
  8
1
 62
     7
100
AcDbCircle
 10
472.5412740337657
 20
88.34311340990552
 30
0.0
 40
51.29999999999999
100
AcDbArc
 50
283.0078996029573
 51
288.2964482231291
  0
ARC
  5
28EC
330
26D7
100
AcDbEntity
  8
1
 62
     7
100
AcDbCircle
 10
472.5412740337657
 20
88.34311340990552
 30
0.0
 40
51.29999999999999
100
AcDbArc
 50
283.0078996029573
 51
288.2964482231291
  0
ARC
  5
28ED
330
26D7
100
AcDbEntity
  8
1
 62
     7
100
AcDbCircle
 10
472.5412740337657
 20
88.34311340990552
 30
0.0
 40
43.63999999999997
100
AcDbArc
 50
268.0978315892029
 51
271.9021684107971
  0
ARC
  5
28EE
330
26D7
100
AcDbEntity
  8
1
 62
     7
100
AcDbCircle
 10
472.5412740337657
 20
88.34311340990552
 30
0.0
 40
43.63999999999997
100
AcDbArc
 50
268.0978315892029
 51
271.9021684107971
  0
ARC
  5
28EF
330
26D7
100
AcDbEntity
  8
1
 62
     7
100
AcDbCircle
 10
472.5412740337657
 20
88.34311340990552
 30
0.0
 40
43.63999999999998
100
AcDbArc
 50
283.7500055022458
 51
287.5543423238402
  0
ARC
  5
28F0
330
26D7
100
AcDbEntity
  8
1
 62
     7
100
AcDbCircle
 10
472.5412740337657
 20
88.34311340990552
 30
0.0
 40
43.63999999999998
100
AcDbArc
 50
283.7500055022458
 51
287.5543423238402
  0
CIRCLE
  5
28F1
330
26D7
100
AcDbEntity
  8
0
 62
     7
100
AcDbCircle
 10
469.7146074095654
 20
70.90311367186092
 30
0.0
 40
1.066666650639092
  0
LINE
  5
28F2
330
26D7
100
AcDbEntity
  8
0
 62
     7
100
AcDbLine
 10
472.0079407084448
 20
68.34311371034809
 30
0.0
 11
468.4879407613005
 21
68.34311371034809
 31
0.0
  0
ARC
  5
28F3
330
26D7
100
AcDbEntity
  8
0
 62
     7
100
AcDbCircle
 10
466.3546074600246
 20
71.58004434738941
 30
0.0
 40
1.066666650661602
100
AcDbArc
 50
0.0000000005455287
 51
70.73036112249567
  0
ARC
  5
28F4
330
26D7
100
AcDbEntity
  8
0
 62
     7
100
AcDbCircle
 10
468.4879407613275
 20
69.40978036101682
 30
0.0
 40
1.066666650668622
100
AcDbArc
 50
180.0
 51
269.999999998549
  0
LINE
  5
28F5
330
26D7
100
AcDbEntity
  8
0
 62
     7
100
AcDbLine
 10
467.4212741106861
 20
69.40978036101682
 30
0.0
 11
467.4212741106861
 21
71.58004434739962
 31
0.0
  0
CIRCLE
  5
28F6
330
26D7
100
AcDbEntity
  8
0
 62
     7
100
AcDbCircle
 10
475.367940657974
 20
70.90311367186092
 30
0.0
 40
1.066666650644293
  0
LINE
  5
28F7
330
26D7
100
AcDbEntity
  8
0
 62
     7
100
AcDbLine
 10
473.0746073590885
 20
68.34311371034809
 30
0.0
 11
476.5946073062364
 21
68.34311371034809
 31
0.0
  0
LINE
  5
28F8
330
26D7
100
AcDbEntity
  8
0
 62
     7
100
AcDbLine
 10
472.0079407084448
 20
72.40600799935501
 30
0.0
 11
472.0079407084448
 21
68.34311371034809
 31
0.0
  0
LINE
  5
28F9
330
26D7
100
AcDbEntity
  8
0
 62
     7
100
AcDbLine
 10
473.0746073590885
 20
72.40600799935501
 30
0.0
 11
473.0746073590885
 21
68.34311371034809
 31
0.0
  0
ARC
  5
28FA
330
26D7
100
AcDbEntity
  8
0
 62
     7
100
AcDbCircle
 10
478.7279406075141
 20
71.58004434739962
 30
0.0
 40
1.066666650650649
100
AcDbArc
 50
109.2696388774974
 51
180.0
  0
ARC
  5
28FB
330
26D7
100
AcDbEntity
  8
0
 62
     7
100
AcDbCircle
 10
476.5946073062214
 20
69.40978036101552
 30
0.0
 40
1.066666650667289
100
AcDbArc
 50
270.000000000793
 51
0.0000000000765369
  0
LINE
  5
28FC
330
26D7
100
AcDbEntity
  8
0
 62
     7
100
AcDbLine
 10
477.6612739568644
 20
69.40978036101682
 30
0.0
 11
477.6612739568644
 21
71.58004434739962
 31
0.0
  0
ARC
  5
28FD
330
26D7
100
AcDbEntity
  8
1
 62
     7
100
AcDbCircle
 10
511.2047827054314
 20
61.05142882565832
 30
0.0
 40
5.500000000000076
100
AcDbArc
 50
173.7317678480459
 51
302.4921381809237
  0
ARC
  5
28FE
330
26D7
100
AcDbEntity
  8
1
 62
     7
100
AcDbCircle
 10
502.4078265429682
 20
51.63218872167352
 30
0.0
 40
5.499999999999983
100
AcDbArc
 50
331.4209052973358
 51
100.1812756302159
  0
ARC
  5
28FF
330
26D7
100
AcDbEntity
  8
1
 62
     7
100
AcDbCircle
 10
511.2047827054314
 20
61.05142882565832
 30
0.0
 40
5.970000000000287
100
AcDbArc
 50
193.758785088758
 51
273.8790023094291
  0
ARC
  5
2900
330
26D7
100
AcDbEntity
  8
1
 62
     7
100
AcDbCircle
 10
472.5412740337657
 20
88.34311340990552
 30
0.0
 40
51.29999999999993
100
AcDbArc
 50
314.3122474290442
 51
319.6007960492178
  0
ARC
  5
2901
330
26D7
100
AcDbEntity
  8
1
 62
     7
100
AcDbCircle
 10
472.5412740337657
 20
88.34311340990552
 30
0.0
 40
51.29999999999993
100
AcDbArc
 50
298.660073516001
 51
303.9486221361739
  0
ARC
  5
2902
330
26D7
100
AcDbEntity
  8
1
 62
     7
100
AcDbCircle
 10
472.5412740337657
 20
88.34311340990552
 30
0.0
 40
51.29999999999993
100
AcDbArc
 50
298.660073516001
 51
303.9486221361739
  0
ARC
  5
2903
330
26D7
100
AcDbEntity
  8
1
 62
     7
100
AcDbCircle
 10
502.4078265429682
 20
51.63218872167352
 30
0.0
 40
5.500000000000011
100
AcDbArc
 50
83.82542117081527
 51
100.1812756302159
  0
ARC
  5
2904
330
26D7
100
AcDbEntity
  8
1
 62
     7
100
AcDbCircle
 10
502.4078265429682
 20
51.63218872167352
 30
0.0
 40
5.969999999999965
100
AcDbArc
 50
0.0340411688296905
 51
80.15425838950147
  0
ARC
  5
2905
330
26D7
100
AcDbEntity
  8
1
 62
     7
100
AcDbCircle
 10
472.5412740337657
 20
88.34311340990552
 30
0.0
 40
43.63999999999998
100
AcDbArc
 50
315.0543533283336
 51
318.8586901499256
  0
CIRCLE
  5
2906
330
26D7
100
AcDbEntity
  8
1
 62
     7
100
AcDbCircle
 10
533.1630522986765
 20
53.34311340990552
 30
0.0
 40
4.500000000000006
  0
LINE
  5
2907
330
26D7
100
AcDbEntity
  8
1
  6
DASHDOT
 62
     3
100
AcDbLine
 10
539.0087237742213
 20
49.96811340990553
 30
0.0
 11
527.3173808231312
 21
56.71811340990553
 31
0.0
  0
ARC
  5
2908
330
26D7
100
AcDbEntity
  8
1
 62
     7
100
AcDbCircle
 10
519.7564473700926
 20
85.11350707621554
 30
0.0
 40
5.500000000000068
100
AcDbArc
 50
205.036115674132
 51
333.7964860070115
  0
ARC
  5
2909
330
26D7
100
AcDbEntity
  8
1
 62
     7
100
AcDbCircle
 10
519.7564473700926
 20
85.11350707621554
 30
0.0
 40
5.499999999999968
100
AcDbArc
 50
18.37742703646649
 51
147.1377973693455
  0
ARC
  5
290A
330
26D7
100
AcDbEntity
  8
1
 62
     7
100
AcDbCircle
 10
517.1342433034998
 20
72.49476832410753
 30
0.0
 40
5.500000000000056
100
AcDbArc
 50
2.725253123423735
 51
131.4856234563017
  0
ARC
  5
290B
330
26D7
100
AcDbEntity
  8
1
 62
     7
100
AcDbCircle
 10
519.7564473700926
 20
85.11350707621554
 30
0.0
 40
5.970000000000132
100
AcDbArc
 50
225.0631329148455
 51
305.183350135518
  0
ARC
  5
290C
330
26D7
100
AcDbEntity
  8
1
 62
     7
100
AcDbCircle
 10
472.5412740337657
 20
88.34311340990552
 30
0.0
 40
51.29999999999993
100
AcDbArc
 50
345.6165952551307
 51
350.9051438753049
  0
ARC
  5
290D
330
26D7
100
AcDbEntity
  8
1
 62
     7
100
AcDbCircle
 10
519.7564473700926
 20
85.11350707621554
 30
0.0
 40
5.969999999999965
100
AcDbArc
 50
46.99056290795907
 51
127.1107801286328
  0
ARC
  5
290E
330
26D7
100
AcDbEntity
  8
1
 62
     7
100
AcDbCircle
 10
517.1342433034998
 20
72.49476832410753
 30
0.0
 40
5.969999999999926
100
AcDbArc
 50
31.3383889949174
 51
111.4586062155891
  0
ARC
  5
290F
330
26D7
100
AcDbEntity
  8
1
 62
     7
100
AcDbCircle
 10
511.2047827054314
 20
61.05142882565832
 30
0.0
 40
5.499999999999895
100
AcDbArc
 50
347.0730792103783
 51
115.8334495432601
  0
ARC
  5
2910
330
26D7
100
AcDbEntity
  8
1
 62
     7
100
AcDbCircle
 10
517.1342433034998
 20
72.49476832410753
 30
0.0
 40
5.500000000000094
100
AcDbArc
 50
189.3839417610889
 51
318.1443120939675
  0
ARC
  5
2911
330
26D7
100
AcDbEntity
  8
1
 62
     7
100
AcDbCircle
 10
511.2047827054314
 20
61.05142882565832
 30
0.0
 40
5.969999999999862
100
AcDbArc
 50
15.6862150818728
 51
95.8064323025443
  0
ARC
  5
2912
330
26D7
100
AcDbEntity
  8
1
 62
     7
100
AcDbCircle
 10
472.5412740337657
 20
88.34311340990552
 30
0.0
 40
43.64000000000006
100
AcDbArc
 50
330.7065272413763
 51
334.5108640629699
  0
ARC
  5
2913
330
26D7
100
AcDbEntity
  8
1
 62
     7
100
AcDbCircle
 10
517.1342433034998
 20
72.49476832410753
 30
0.0
 40
5.970000000000061
100
AcDbArc
 50
209.4109590018029
 51
289.5311762224754
  0
ARC
  5
2914
330
26D7
100
AcDbEntity
  8
1
 62
     7
100
AcDbCircle
 10
472.5412740337657
 20
88.34311340990552
 30
0.0
 40
51.29999999999993
100
AcDbArc
 50
329.964421342087
 51
335.2529699622603
  0
ARC
  5
2915
330
26D7
100
AcDbEntity
  8
1
 62
     7
100
AcDbCircle
 10
472.5412740337657
 20
88.34311340990552
 30
0.0
 40
43.63999999999997
100
AcDbArc
 50
346.3587011544207
 51
350.1630379760135
  0
LINE
  5
2916
330
26D7
100
AcDbEntity
  8
1
  6
DASHDOT
 62
     3
100
AcDbLine
 10
549.2912740337657
 20
88.34311340990552
 30
0.0
 11
535.7912740337657
 21
88.34311340990561
 31
0.0
  0
ARC
  5
2917
330
26D7
100
AcDbEntity
  8
1
 62
     7
100
AcDbCircle
 10
497.1308442611676
 20
128.77893893977
 30
0.0
 40
5.500000000000046
100
AcDbArc
 50
80.98612268863945
 51
209.7464930215187
  0
ARC
  5
2918
330
26D7
100
AcDbEntity
  8
1
 62
     7
100
AcDbCircle
 10
497.1308442611676
 20
128.77893893977
 30
0.0
 40
5.500000000000046
100
AcDbArc
 50
80.98612268863945
 51
209.7464930215187
  0
LINE
  5
2919
330
26D7
100
AcDbEntity
  8
1
  6
CENTER
 62
     3
100
AcDbLine
 10
472.5412740337657
 20
151.5931134099055
 30
0.0
 11
472.5412740337657
 21
109.5931134099033
 31
0.0
  0
ARC
  5
291A
330
26D7
100
AcDbEntity
  8
1
 62
     7
100
AcDbCircle
 10
437.9540966063212
 20
120.6452821892999
 30
0.0
 40
5.499999999999928
100
AcDbArc
 50
345.9056808915239
 51
41.34572467069634
  0
ARC
  5
291B
330
26D7
100
AcDbEntity
  8
1
 62
     7
100
AcDbCircle
 10
437.9540966063212
 20
120.6452821892999
 30
0.0
 40
5.970000000000022
100
AcDbArc
 50
5.932698132237226
 51
46.24041261333917
  0
ARC
  5
291C
330
26D7
100
AcDbEntity
  8
1
 62
     7
100
AcDbCircle
 10
472.5412740337657
 20
88.34311340990552
 30
0.0
 40
43.63999999999995
100
AcDbArc
 50
127.2282663718119
 51
131.0326031934049
  0
ARC
  5
291D
330
26D7
100
AcDbEntity
  8
1
 62
     7
100
AcDbCircle
 10
472.5412740337657
 20
88.34311340990552
 30
0.0
 40
43.63999999999995
100
AcDbArc
 50
127.2282663718119
 51
131.0326031934049
  0
LINE
  5
291E
330
26D7
100
AcDbEntity
  8
1
 62
     7
100
AcDbLine
 10
469.5412740337657
 20
100.6431134099034
 30
0.0
 11
469.5412740337657
 21
97.35699159856322
 31
0.0
  0
LINE
  5
291F
330
26D7
100
AcDbEntity
  8
1
 62
     7
100
AcDbLine
 10
475.5412740337657
 20
100.6431134099034
 30
0.0
 11
475.5412740337657
 21
97.35699159856322
 31
0.0
  0
LINE
  5
2920
330
26D7
100
AcDbEntity
  8
1
 62
     7
100
AcDbLine
 10
469.5412740337657
 20
100.6431134099034
 30
0.0
 11
475.5412740337657
 21
100.6431134099034
 31
0.0
  0
ARC
  5
2921
330
26D7
100
AcDbEntity
  8
1
 62
     7
100
AcDbCircle
 10
472.5412740337657
 20
135.6686134099054
 30
0.0
 40
5.500000000000046
100
AcDbArc
 50
112.2904705147282
 51
241.0508408476078
  0
ARC
  5
2922
330
26D7
100
AcDbEntity
  8
1
 62
     7
100
AcDbCircle
 10
472.5412740337657
 20
135.6686134099054
 30
0.0
 40
5.500000000000046
100
AcDbArc
 50
112.2904705147282
 51
241.0508408476078
  0
ARC
  5
2923
330
26D7
100
AcDbEntity
  8
1
 62
     7
100
AcDbCircle
 10
447.9517038063635
 20
128.77893893977
 30
0.0
 40
5.500000000000158
100
AcDbArc
 50
330.2535069784811
 51
99.01387731135722
  0
ARC
  5
2924
330
26D7
100
AcDbEntity
  8
1
 62
     7
100
AcDbCircle
 10
459.7730069403742
 20
133.9136554922837
 30
0.0
 40
5.500000000000132
100
AcDbArc
 50
127.9426444277721
 51
256.7030147606487
  0
ARC
  5
2925
330
26D7
100
AcDbEntity
  8
1
 62
     7
100
AcDbCircle
 10
459.7730069403742
 20
133.9136554922837
 30
0.0
 40
5.969999999999997
100
AcDbArc
 50
156.5557802992634
 51
236.6759975199346
  0
ARC
  5
2926
330
26D7
100
AcDbEntity
  8
1
 62
     7
100
AcDbCircle
 10
472.5412740337657
 20
88.34311340990552
 30
0.0
 40
43.63999999999999
100
AcDbArc
 50
111.576092458769
 51
115.3804292803618
  0
ARC
  5
2927
330
26D7
100
AcDbEntity
  8
1
 62
     7
100
AcDbCircle
 10
447.9517038063635
 20
128.77893893977
 30
0.0
 40
5.500000000000158
100
AcDbArc
 50
330.2535069784811
 51
99.01387731135722
  0
ARC
  5
2928
330
26D7
100
AcDbEntity
  8
1
 62
     7
100
AcDbCircle
 10
459.7730069403742
 20
133.9136554922837
 30
0.0
 40
5.500000000000132
100
AcDbArc
 50
127.9426444277721
 51
256.7030147606487
  0
ARC
  5
2929
330
26D7
100
AcDbEntity
  8
1
 62
     7
100
AcDbCircle
 10
459.7730069403742
 20
133.9136554922837
 30
0.0
 40
5.969999999999997
100
AcDbArc
 50
156.5557802992634
 51
236.6759975199346
  0
ARC
  5
292A
330
26D7
100
AcDbEntity
  8
1
 62
     7
100
AcDbCircle
 10
472.5412740337657
 20
88.34311340990552
 30
0.0
 40
43.63999999999999
100
AcDbArc
 50
111.576092458769
 51
115.3804292803618
  0
ARC
  5
292B
330
26D7
100
AcDbEntity
  8
1
 62
     7
100
AcDbCircle
 10
447.9517038063635
 20
128.77893893977
 30
0.0
 40
5.970000000000238
100
AcDbArc
 50
350.2805242191938
 51
70.40074143986439
  0
ARC
  5
292C
330
26D7
100
AcDbEntity
  8
1
 62
     7
100
AcDbCircle
 10
447.9517038063635
 20
128.77893893977
 30
0.0
 40
5.970000000000238
100
AcDbArc
 50
350.2805242191938
 51
70.40074143986439
  0
ARC
  5
292D
330
26D7
100
AcDbEntity
  8
1
 62
     7
100
AcDbCircle
 10
472.5412740337657
 20
88.34311340990552
 30
0.0
 40
51.29999999999993
100
AcDbArc
 50
110.8339865594782
 51
116.1225351796516
  0
ARC
  5
292E
330
26D7
100
AcDbEntity
  8
1
 62
     7
100
AcDbCircle
 10
472.5412740337657
 20
88.34311340990552
 30
0.0
 40
51.29999999999993
100
AcDbArc
 50
110.8339865594782
 51
116.1225351796516
  0
ARC
  5
292F
330
26D7
100
AcDbEntity
  8
1
 62
     7
100
AcDbCircle
 10
459.7730069403742
 20
133.9136554922837
 30
0.0
 40
5.499999999999894
100
AcDbArc
 50
314.601333065435
 51
83.36170339831818
  0
ARC
  5
2930
330
26D7
100
AcDbEntity
  8
1
 62
     7
100
AcDbCircle
 10
459.7730069403742
 20
133.9136554922837
 30
0.0
 40
5.96999999999991
100
AcDbArc
 50
334.6283503061493
 51
54.74856752682508
  0
ARC
  5
2931
330
26D7
100
AcDbEntity
  8
1
 62
     7
100
AcDbCircle
 10
472.5412740337657
 20
135.6686134099054
 30
0.0
 40
5.969999999999891
100
AcDbArc
 50
140.9036063862185
 51
221.0238236068933
  0
ARC
  5
2932
330
26D7
100
AcDbEntity
  8
1
 62
     7
100
AcDbCircle
 10
459.7730069403742
 20
133.9136554922837
 30
0.0
 40
5.499999999999894
100
AcDbArc
 50
314.601333065435
 51
83.36170339831818
  0
ARC
  5
2933
330
26D7
100
AcDbEntity
  8
1
 62
     7
100
AcDbCircle
 10
472.5412740337657
 20
135.6686134099054
 30
0.0
 40
5.969999999999891
100
AcDbArc
 50
140.9036063862185
 51
221.0238236068933
  0
ARC
  5
2934
330
26D7
100
AcDbEntity
  8
1
 62
     7
100
AcDbCircle
 10
459.7730069403742
 20
133.9136554922837
 30
0.0
 40
5.96999999999991
100
AcDbArc
 50
334.6283503061493
 51
54.74856752682508
  0
ARC
  5
2935
330
26D7
100
AcDbEntity
  8
1
 62
     7
100
AcDbCircle
 10
472.5412740337657
 20
88.34311340990552
 30
0.0
 40
43.63999999999998
100
AcDbArc
 50
95.92391854572431
 51
99.72825536731892
  0
ARC
  5
2936
330
26D7
100
AcDbEntity
  8
1
 62
     7
100
AcDbCircle
 10
472.5412740337657
 20
88.34311340990552
 30
0.0
 40
43.63999999999998
100
AcDbArc
 50
95.92391854572431
 51
99.72825536731892
  0
ARC
  5
2937
330
26D7
100
AcDbEntity
  8
1
 62
     7
100
AcDbCircle
 10
472.5412740337657
 20
88.34311340990552
 30
0.0
 40
51.29999999999999
100
AcDbArc
 50
95.18181264643587
 51
100.4703612666078
  0
ARC
  5
2938
330
26D7
100
AcDbEntity
  8
1
 62
     7
100
AcDbCircle
 10
472.5412740337657
 20
88.34311340990552
 30
0.0
 40
51.29999999999999
100
AcDbArc
 50
95.18181264643587
 51
100.4703612666078
  0
ARC
  5
2939
330
26D7
100
AcDbEntity
  8
1
 62
     7
100
AcDbCircle
 10
485.3095411271572
 20
133.9136554922837
 30
0.0
 40
5.500000000000023
100
AcDbArc
 50
96.63829660168509
 51
225.3986669345629
  0
ARC
  5
293A
330
26D7
100
AcDbEntity
  8
1
 62
     7
100
AcDbCircle
 10
485.3095411271572
 20
133.9136554922837
 30
0.0
 40
5.500000000000023
100
AcDbArc
 50
96.63829660168509
 51
225.3986669345629
  0
ARC
  5
293B
330
26D7
100
AcDbEntity
  8
1
 62
     7
100
AcDbCircle
 10
472.5412740337657
 20
135.6686134099054
 30
0.0
 40
5.500000000000079
100
AcDbArc
 50
298.9491591523939
 51
67.70952948527344
  0
ARC
  5
293C
330
26D7
100
AcDbEntity
  8
1
 62
     7
100
AcDbCircle
 10
485.3095411271572
 20
133.9136554922837
 30
0.0
 40
5.970000000000005
100
AcDbArc
 50
125.2514324731782
 51
205.3716496938491
  0
ARC
  5
293D
330
26D7
100
AcDbEntity
  8
1
 62
     7
100
AcDbCircle
 10
472.5412740337657
 20
135.6686134099054
 30
0.0
 40
5.970000000000077
100
AcDbArc
 50
318.9761763931066
 51
39.09639361377911
  0
ARC
  5
293E
330
26D7
100
AcDbEntity
  8
1
 62
     7
100
AcDbCircle
 10
472.5412740337657
 20
135.6686134099054
 30
0.0
 40
5.500000000000079
100
AcDbArc
 50
298.9491591523939
 51
67.70952948527344
  0
ARC
  5
293F
330
26D7
100
AcDbEntity
  8
1
 62
     7
100
AcDbCircle
 10
472.5412740337657
 20
135.6686134099054
 30
0.0
 40
5.970000000000077
100
AcDbArc
 50
318.9761763931066
 51
39.09639361377911
  0
ARC
  5
2940
330
26D7
100
AcDbEntity
  8
1
 62
     7
100
AcDbCircle
 10
485.3095411271572
 20
133.9136554922837
 30
0.0
 40
5.970000000000005
100
AcDbArc
 50
125.2514324731782
 51
205.3716496938491
  0
ARC
  5
2941
330
26D7
100
AcDbEntity
  8
1
 62
     7
100
AcDbCircle
 10
472.5412740337657
 20
88.34311340990552
 30
0.0
 40
43.63999999999993
100
AcDbArc
 50
80.27174463268108
 51
84.07608145427408
  0
ARC
  5
2942
330
26D7
100
AcDbEntity
  8
1
 62
     7
100
AcDbCircle
 10
472.5412740337657
 20
88.34311340990552
 30
0.0
 40
43.63999999999993
100
AcDbArc
 50
80.27174463268108
 51
84.07608145427408
  0
ARC
  5
2943
330
26D7
100
AcDbEntity
  8
1
 62
     7
100
AcDbCircle
 10
472.5412740337657
 20
88.34311340990552
 30
0.0
 40
51.29999999999993
100
AcDbArc
 50
79.52963873339051
 51
84.8181873535641
  0
ARC
  5
2944
330
26D7
100
AcDbEntity
  8
1
 62
     7
100
AcDbCircle
 10
472.5412740337657
 20
88.34311340990552
 30
0.0
 40
51.29999999999993
100
AcDbArc
 50
79.52963873339051
 51
84.8181873535641
  0
ARC
  5
2945
330
26D7
100
AcDbEntity
  8
1
 62
     7
100
AcDbCircle
 10
485.3095411271572
 20
133.9136554922837
 30
0.0
 40
5.500000000000007
100
AcDbArc
 50
283.2969852393495
 51
52.05735557222983
  0
ARC
  5
2946
330
26D7
100
AcDbEntity
  8
1
 62
     7
100
AcDbCircle
 10
497.1308442611676
 20
128.77893893977
 30
0.0
 40
5.969999999999963
100
AcDbArc
 50
109.5992585601322
 51
189.7194757808057
  0
ARC
  5
2947
330
26D7
100
AcDbEntity
  8
1
 62
     7
100
AcDbCircle
 10
485.3095411271572
 20
133.9136554922837
 30
0.0
 40
5.969999999999981
100
AcDbArc
 50
303.3240024800617
 51
23.44421970073621
  0
ARC
  5
2948
330
26D7
100
AcDbEntity
  8
1
 62
     7
100
AcDbCircle
 10
485.3095411271572
 20
133.9136554922837
 30
0.0
 40
5.500000000000007
100
AcDbArc
 50
283.2969852393495
 51
52.05735557222983
  0
ARC
  5
2949
330
26D7
100
AcDbEntity
  8
1
 62
     7
100
AcDbCircle
 10
497.1308442611676
 20
128.77893893977
 30
0.0
 40
5.969999999999963
100
AcDbArc
 50
109.5992585601322
 51
189.7194757808057
  0
ARC
  5
294A
330
26D7
100
AcDbEntity
  8
1
 62
     7
100
AcDbCircle
 10
485.3095411271572
 20
133.9136554922837
 30
0.0
 40
5.969999999999981
100
AcDbArc
 50
303.3240024800617
 51
23.44421970073621
  0
ARC
  5
294B
330
26D7
100
AcDbEntity
  8
1
 62
     7
100
AcDbCircle
 10
472.5412740337657
 20
88.34311340990552
 30
0.0
 40
43.63999999999998
100
AcDbArc
 50
64.61957071963812
 51
68.42390754123091
  0
ARC
  5
294C
330
26D7
100
AcDbEntity
  8
1
 62
     7
100
AcDbCircle
 10
472.5412740337657
 20
88.34311340990552
 30
0.0
 40
43.63999999999998
100
AcDbArc
 50
64.61957071963812
 51
68.42390754123091
  0
ARC
  5
294D
330
26D7
100
AcDbEntity
  8
1
 62
     7
100
AcDbCircle
 10
472.5412740337657
 20
88.34311340990552
 30
0.0
 40
51.30000000000004
100
AcDbArc
 50
63.87746482034835
 51
69.16601344052174
  0
ARC
  5
294E
330
26D7
100
AcDbEntity
  8
1
 62
     7
100
AcDbCircle
 10
472.5412740337657
 20
88.34311340990552
 30
0.0
 40
51.30000000000004
100
AcDbArc
 50
63.87746482034835
 51
69.16601344052174
  0
CIRCLE
  5
294F
330
26D7
100
AcDbEntity
  8
1
 62
     7
100
AcDbCircle
 10
533.1630522986763
 20
123.3431134099055
 30
0.0
 40
4.500000000000006
  0
ARC
  5
2950
330
26D7
100
AcDbEntity
  8
1
 62
     7
100
AcDbCircle
 10
497.1308442611676
 20
128.77893893977
 30
0.0
 40
5.500000000000007
100
AcDbArc
 50
267.6448113263061
 51
36.40518165918546
  0
ARC
  5
2951
330
26D7
100
AcDbEntity
  8
1
 62
     7
100
AcDbCircle
 10
507.12845146121
 20
120.6452821892999
 30
0.0
 40
5.499999999999976
100
AcDbArc
 50
65.33394877559924
 51
194.094319108476
  0
ARC
  5
2952
330
26D7
100
AcDbEntity
  8
1
 62
     7
100
AcDbCircle
 10
507.12845146121
 20
120.6452821892999
 30
0.0
 40
5.96999999999999
100
AcDbArc
 50
93.94708464709088
 51
174.0673018677623
  0
ARC
  5
2953
330
26D7
100
AcDbEntity
  8
1
 62
     7
100
AcDbCircle
 10
497.1308442611676
 20
128.77893893977
 30
0.0
 40
5.969999999999997
100
AcDbArc
 50
287.6718285670189
 51
7.792045787693329
  0
ARC
  5
2954
330
26D7
100
AcDbEntity
  8
1
 62
     7
100
AcDbCircle
 10
497.1308442611676
 20
128.77893893977
 30
0.0
 40
5.500000000000007
100
AcDbArc
 50
267.6448113263061
 51
36.40518165918546
  0
ARC
  5
2955
330
26D7
100
AcDbEntity
  8
1
 62
     7
100
AcDbCircle
 10
497.1308442611676
 20
128.77893893977
 30
0.0
 40
5.969999999999997
100
AcDbArc
 50
287.6718285670189
 51
349.4223878938997
  0
LINE
  5
2956
330
26D7
100
AcDbEntity
  8
1
  6
DASHDOT
 62
     3
100
AcDbLine
 10
539.0087237742213
 20
126.7181134099056
 30
0.0
 11
527.3173808231312
 21
119.9681134099056
 31
0.0
  0
ARC
  5
2957
330
26D7
100
AcDbEntity
  8
1
 62
     7
100
AcDbCircle
 10
518.8769180253755
 20
97.97177095562751
 30
0.0
 40
5.500000000000174
100
AcDbArc
 50
34.02960094950914
 51
162.7899712823885
  0
ARC
  5
2958
330
26D7
100
AcDbEntity
  8
1
 62
     7
100
AcDbCircle
 10
514.560885937267
 20
110.115921353051
 30
0.0
 40
5.499999999999976
100
AcDbArc
 50
236.3404635002198
 51
5.100833833099403
  0
ARC
  5
2959
330
26D7
100
AcDbEntity
  8
1
 62
     7
100
AcDbCircle
 10
518.8769180253755
 20
97.97177095562751
 30
0.0
 40
5.970000000000052
100
AcDbArc
 50
62.64273682100307
 51
142.7629540416741
  0
ARC
  5
295A
330
26D7
100
AcDbEntity
  8
1
 62
     7
100
AcDbCircle
 10
514.560885937267
 20
110.115921353051
 30
0.0
 40
5.969999999999963
100
AcDbArc
 50
256.3674807409355
 51
336.4876979616052
  0
ARC
  5
295B
330
26D7
100
AcDbEntity
  8
1
 62
     7
100
AcDbCircle
 10
472.5412740337657
 20
88.34311340990552
 30
0.0
 40
43.63999999999999
100
AcDbArc
 50
17.66304898050797
 51
21.46738580210035
  0
ARC
  5
295C
330
26D7
100
AcDbEntity
  8
1
 62
     7
100
AcDbCircle
 10
472.5412740337657
 20
88.34311340990552
 30
0.0
 40
51.30000000000004
100
AcDbArc
 50
16.92094308121694
 51
22.20949170139143
  0
ARC
  5
295D
330
26D7
100
AcDbEntity
  8
1
 62
     7
100
AcDbCircle
 10
507.12845146121
 20
120.6452821892999
 30
0.0
 40
5.500000000000063
100
AcDbArc
 50
251.9926374132612
 51
20.75300774614178
  0
ARC
  5
295E
330
26D7
100
AcDbEntity
  8
1
 62
     7
100
AcDbCircle
 10
514.560885937267
 20
110.115921353051
 30
0.0
 40
5.500000000000125
100
AcDbArc
 50
49.68177486255292
 51
178.4421451954322
  0
ARC
  5
295F
330
26D7
100
AcDbEntity
  8
1
 62
     7
100
AcDbCircle
 10
514.560885937267
 20
110.115921353051
 30
0.0
 40
5.970000000000013
100
AcDbArc
 50
78.29491073404664
 51
158.415127954718
  0
ARC
  5
2960
330
26D7
100
AcDbEntity
  8
1
 62
     7
100
AcDbCircle
 10
507.12845146121
 20
120.6452821892999
 30
0.0
 40
5.969999999999997
100
AcDbArc
 50
272.0196546539742
 51
352.1398718746489
  0
ARC
  5
2961
330
26D7
100
AcDbEntity
  8
1
 62
     7
100
AcDbCircle
 10
472.5412740337657
 20
88.34311340990552
 30
0.0
 40
43.63999999999997
100
AcDbArc
 50
33.31522289355076
 51
37.11955971514438
  0
ARC
  5
2962
330
26D7
100
AcDbEntity
  8
1
 62
     7
100
AcDbCircle
 10
507.12845146121
 20
120.6452821892999
 30
0.0
 40
5.500000000000238
100
AcDbArc
 50
138.6542753293045
 51
194.094319108476
  0
ARC
  5
2963
330
26D7
100
AcDbEntity
  8
1
 62
     7
100
AcDbCircle
 10
507.12845146121
 20
120.6452821892999
 30
0.0
 40
5.970000000000207
100
AcDbArc
 50
133.7595873866628
 51
174.0673018677623
  0
ARC
  5
2964
330
26D7
100
AcDbEntity
  8
1
 62
     7
100
AcDbCircle
 10
472.5412740337657
 20
88.34311340990552
 30
0.0
 40
43.64000000000006
100
AcDbArc
 50
48.96739680659477
 51
52.7717336281881
  0
ARC
  5
2965
330
26D7
100
AcDbEntity
  8
1
 62
     7
100
AcDbCircle
 10
472.5412740337657
 20
88.34311340990552
 30
0.0
 40
43.64000000000006
100
AcDbArc
 50
48.96739680659477
 51
52.7717336281881
  0
ARC
  5
2966
330
26D7
100
AcDbEntity
  8
1
 62
     7
100
AcDbCircle
 10
472.5412740337657
 20
88.34311340990552
 30
0.0
 40
51.2999999999999
100
AcDbArc
 50
32.57311699426145
 51
37.8616656144335
  0
ARC
  5
2967
330
26D7
100
AcDbEntity
  8
1
 62
     7
100
AcDbCircle
 10
472.5412740337657
 20
88.34311340990552
 30
0.0
 40
51.29999999999993
100
AcDbArc
 50
48.22529090730575
 51
53.51383952747718
  0
CIRCLE
  5
2968
330
26D7
100
AcDbEntity
  8
1
 62
     7
100
AcDbCircle
 10
507.5412740337656
 20
148.9648916748162
 30
0.0
 40
4.500000000000028
  0
LINE
  5
2969
330
26D7
100
AcDbEntity
  8
1
  6
DASHDOT
 62
     3
100
AcDbLine
 10
510.9162740337657
 20
154.8105631503611
 30
0.0
 11
504.1662740337657
 21
143.1192201992712
 31
0.0
  0
ARC
  5
296A
330
26D7
100
AcDbEntity
  8
1
 62
     7
100
AcDbCircle
 10
472.5412740337657
 20
88.34311340990552
 30
0.0
 40
77.50000000000956
100
AcDbArc
 50
90.0
 51
113.1417982548073
  0
LINE
  5
296B
330
26D7
100
AcDbEntity
  8
1
  6
CENTER
 62
     3
100
AcDbLine
 10
472.5412740337657
 20
172.6006312168756
 30
0.0
 11
472.5412740337657
 21
165.0931134099053
 31
0.0
  0
ENDBLK
  5
296D
330
26D7
100
AcDbEntity
  8
0
100
AcDbBlockEnd
  0
BLOCK
  5
2989
330
2987
100
AcDbEntity
  8
0
100
AcDbBlockBegin
  2
HD LLC
 70
     0
 10
0.0
 20
0.0
 30
0.0
  3
HD LLC
  1

  0
MTEXT
  5
2988
330
2987
100
AcDbEntity
  8
0
100
AcDbMText
 10
-2.314970886968865
 20
1.247205085865914
 30
0.0
 40
5.675387507387601
 41
236.1828726592229
 71
     5
 72
     5
  1
Harmonic Drive LLC\P800-921-3332\Pwww.harmonicdrive.net
 73
     1
 44
1.0
  0
ENDBLK
  5
298A
330
2987
100
AcDbEntity
  8
0
100
AcDbBlockEnd
  0
BLOCK
  5
299A
330
2997
100
AcDbEntity
  8
0
100
AcDbBlockBegin
  2
NTC
 70
     0
 10
0.0
 20
0.0
 30
0.0
  3
NTC
  1

  0
LWPOLYLINE
  5
2998
330
2997
100
AcDbEntity
  8
0
100
AcDbPolyline
 90
        8
 70
     1
 43
0.0
 10
4.581008201925953
 20
-10.78862239032818
 10
319.3921777697513
 20
-10.78862239032818
 42
-0.4142135623730951
 10
324.9046777697513
 20
-16.30112239032816
 10
324.9046777697513
 20
-117.4075202476924
 42
-0.4142135623730951
 10
319.3921777697513
 20
-122.9200202476925
 10
4.581008201925838
 20
-122.9200202476925
 42
-0.4142135623730951
 10
-0.9314917980741483
 20
-117.4075202476924
 10
-0.9314917980740915
 20
-16.30112239032816
 42
-0.4142135623730951
  0
MTEXT
  5
2999
330
2997
100
AcDbEntity
  8
0
  6
Continuous
370
    30
100
AcDbMText
 10
21.65307678143926
 20
-17.4535155144544
 30
0.0
 40
8.75
 41
294.5432999999998
 71
     1
 72
     5
  3
{\fTxt|b1|i0|c0|p2;Notice:\P\Ftxt.shx;\H0.5714x;All specifications and dimensions shown in the drawing are subject to change without notice. This drawing is the property of Harmonic Drive LLC.   This data is believed to be accurate, however, Harmonic
  1
 Drive LLC assumes no liability for any errors or omissions in the specifications, models, or drawings.\P\PHarmonic Drive LLC\PTel: 800-921-3332\Pwww.harmonicdrive.net}
 73
     1
 44
1.0
  0
ENDBLK
  5
299B
330
2997
100
AcDbEntity
  8
0
100
AcDbBlockEnd
  0
ENDSEC
  0
SECTION
  2
ENTITIES
  0
TEXT
  5
263E
330
237E
100
AcDbEntity
  8
1
 62
     3
100
AcDbText
 10
-121.2925589164403
 20
-84.9721202044622
 30
0.0
 40
3.9
  1
 
 41
0.9
100
AcDbText
  0
INSERT
  5
296E
330
237E
100
AcDbEntity
  8
AM_0
100
AcDbBlockReference
  2
A$C40874447
 10
219.1604724050541
 20
311.5894679121686
 30
0.0
  0
TEXT
  5
2977
330
237E
100
AcDbEntity
  8
1
 62
     0
100
AcDbText
 10
400.1061979755415
 20
246.5174200751709
 30
0.0
 40
8.315475314329887
  1
REMARKS:  M.H.C = MINIMUM HOUSING CLEARANCE
 41
0.9
 72
     1
 11
508.641860647004
 21
250.6751577323359
 31
0.0
100
AcDbText
 73
     2
  0
TEXT
  5
297F
330
237E
100
AcDbEntity
  8
1
 62
     0
100
AcDbText
 10
625.5393506949991
 20
223.553914987643
 30
0.0
 40
9.911999999999999
  1
CSF-45-XXX-2A-GR.dxf
 41
0.9
100
AcDbText
  0
TEXT
  5
2980
330
237E
100
AcDbEntity
  8
1
 62
     0
100
AcDbText
 10
674.5811817749118
 20
204.755122085149
 30
0.0
 40
8.4
  1
2002/3
 41
0.9
 72
     1
 11
690.5177663125125
 21
208.955122085149
 31
0.0
100
AcDbText
 73
     2
  0
INSERT
  5
2990
330
237E
100
AcDbEntity
  8
AM_0
100
AcDbBlockReference
  2
HD LLC
 10
744.6029590029366
 20
99.93283482719602
 30
0.0
 41
2.12003926108963
 42
2.12003926108963
 43
2.12003926108963
  0
INSERT
  5
2996
330
237E
100
AcDbEntity
  8
AM_0
100
AcDbBlockReference
  2
HD logo-new
 10
571.8317126639549
 20
112.9588146385043
 30
0.0
 41
1.679999999999999
 42
1.679999999999999
 43
1.679999999999999
  0
INSERT
  5
29A3
330
237E
100
AcDbEntity
  8
AM_0
100
AcDbBlockReference
  2
NTC
 10
152.5777022530168
 20
170.1370570510329
 30
0.0
 41
1.062
 42
1.062
 43
1.062
  0
ENDSEC
  0
SECTION
  2
OBJECTS
  0
DICTIONARY
  5
236C
330
0
100
AcDbDictionary
281
     1
  3
ACAD_GROUP
350
236D
  3
ACAD_LAYOUT
350
2379
  3
ACAD_MLINESTYLE
350
2376
  3
ACAD_PLOTSETTINGS
350
2378
  3
ACAD_PLOTSTYLENAME
350
236E
  3
AcDbVariableDictionary
350
26CD
  0
DICTIONARY
  5
236D
102
{ACAD_REACTORS
330
236C
102
}
330
236C
100
AcDbDictionary
281
     1
  0
DICTIONARY
  5
2379
102
{ACAD_REACTORS
330
236C
102
}
330
236C
100
AcDbDictionary
281
     1
  3
Layout1
350
237D
  3
Model
350
2381
  0
DICTIONARY
  5
2376
102
{ACAD_REACTORS
330
236C
102
}
330
236C
100
AcDbDictionary
281
     1
  3
Standard
350
2377
  0
DICTIONARY
  5
2378
102
{ACAD_REACTORS
330
236C
102
}
330
236C
100
AcDbDictionary
281
     1
  0
ACDBDICTIONARYWDFLT
  5
236E
102
{ACAD_REACTORS
330
236C
102
}
330
236C
100
AcDbDictionary
281
     1
  3
Normal
350
236F
100
AcDbDictionaryWithDefault
340
236F
  0
DICTIONARY
  5
26CD
102
{ACAD_REACTORS
330
236C
102
}
330
236C
100
AcDbDictionary
281
     1
  3
DIMASSOC
350
26CE
  0
LAYOUT
  5
237D
102
{ACAD_REACTORS
330
2379
102
}
330
2379
100
AcDbPlotSettings
  1

  2
\\SERVER9\HP LaserJet 5100 PCL 5e
  4

  6

 40
0.0
 41
0.0
 42
0.0
 43
0.0
 44
0.0
 45
0.0
 46
0.0
 47
0.0
 48
0.0
 49
0.0
140
0.0
141
0.0
142
1.0
143
1.0
 70
   688
 72
     0
 73
     0
 74
     5
  7

 75
    16
147
1.0
148
0.0
149
0.0
100
AcDbLayout
  1
Layout1
 70
     1
 71
     1
 10
0.0
 20
0.0
 11
420.0
 21
297.0
 12
0.0
 22
0.0
 32
0.0
 14
1.000000000000000E+20
 24
1.000000000000000E+20
 34
1.000000000000000E+20
 15
-1.000000000000000E+20
 25
-1.000000000000000E+20
 35
-1.000000000000000E+20
146
0.0
 13
0.0
 23
0.0
 33
0.0
 16
1.0
 26
0.0
 36
0.0
 17
0.0
 27
1.0
 37
0.0
 76
     0
330
237A
  0
LAYOUT
  5
2381
102
{ACAD_REACTORS
330
2379
102
}
330
2379
100
AcDbPlotSettings
  1

  2
\\SERVER9\HP LaserJet 5100 PCL 5e
  4

  6

 40
0.0
 41
0.0
 42
0.0
 43
0.0
 44
0.0
 45
0.0
 46
0.0
 47
0.0
 48
0.0
 49
0.0
140
0.0
141
0.0
142
1.0
143
1.0
 70
  1712
 72
     0
 73
     0
 74
     0
  7

 75
     0
147
1.0
148
0.0
149
0.0
100
AcDbLayout
  1
Model
 70
     1
 71
     0
 10
0.0
 20
0.0
 11
12.0
 21
9.0
 12
0.0
 22
0.0
 32
0.0
 14
0.0
 24
0.0
 34
0.0
 15
0.0
 25
0.0
 35
0.0
146
0.0
 13
0.0
 23
0.0
 33
0.0
 16
1.0
 26
0.0
 36
0.0
 17
0.0
 27
1.0
 37
0.0
 76
     0
330
237E
  0
MLINESTYLE
  5
2377
102
{ACAD_REACTORS
330
2376
102
}
330
2376
100
AcDbMlineStyle
  2
STANDARD
 70
     0
  3

 62
   256
 51
90.0
 52
90.0
 71
     2
 49
0.5
 62
   256
  6
BYLAYER
 49
-0.5
 62
   256
  6
BYLAYER
  0
ACDBPLACEHOLDER
  5
236F
102
{ACAD_REACTORS
330
236E
102
}
330
236E
  0
DICTIONARYVAR
  5
26CE
102
{ACAD_REACTORS
330
26CD
102
}
330
26CD
100
DictionaryVariables
280
     0
  1
1
  0
ENDSEC
  0
EOF
