  0
SECTION
  2
HEADER
  9
$ACADVER
  1
AC1015
  9
$ACADMAINTVER
 70
    13
  9
$DWGCODEPAGE
  3
ANSI_1252
  9
$INSBASE
 10
0.0
 20
0.0
 30
0.0
  9
$EXTMIN
 10
-182.6773719663423
 20
-142.5868842887213
 30
0.0
  9
$EXTMAX
 10
705.8905156626819
 20
644.753485744173
 30
0.0
  9
$LIMMIN
 10
0.0
 20
0.0
  9
$LIMMAX
 10
420.0
 20
297.0
  9
$ORTHOMODE
 70
     1
  9
$REGENMODE
 70
     1
  9
$FILLMODE
 70
     1
  9
$QTEXTMODE
 70
     0
  9
$MIRRTEXT
 70
     1
  9
$LTSCALE
 40
1.0
  9
$ATTMODE
 70
     1
  9
$TEXTSIZE
 40
2.5
  9
$TRACEWID
 40
1.0
  9
$TEXTSTYLE
  7
STANDARD
  9
$CLAYER
  8
AM_0
  9
$CELTYPE
  6
ByLayer
  9
$CECOLOR
 62
   256
  9
$CELTSCALE
 40
1.0
  9
$DISPSILH
 70
     0
  9
$DIMSCALE
 40
1.0
  9
$DIMASZ
 40
2.5
  9
$DIMEXO
 40
0.625
  9
$DIMDLI
 40
3.75
  9
$DIMRND
 40
0.0
  9
$DIMDLE
 40
0.0
  9
$DIMEXE
 40
1.25
  9
$DIMTP
 40
0.0
  9
$DIMTM
 40
0.0
  9
$DIMTXT
 40
2.5
  9
$DIMCEN
 40
2.5
  9
$DIMTSZ
 40
0.0
  9
$DIMTOL
 70
     0
  9
$DIMLIM
 70
     0
  9
$DIMTIH
 70
     0
  9
$DIMTOH
 70
     0
  9
$DIMSE1
 70
     0
  9
$DIMSE2
 70
     0
  9
$DIMTAD
 70
     1
  9
$DIMZIN
 70
     8
  9
$DIMBLK
  1

  9
$DIMASO
 70
     1
  9
$DIMSHO
 70
     1
  9
$DIMPOST
  1

  9
$DIMAPOST
  1

  9
$DIMALT
 70
     0
  9
$DIMALTD
 70
     3
  9
$DIMALTF
 40
0.03937007874016
  9
$DIMLFAC
 40
1.0
  9
$DIMTOFL
 70
     1
  9
$DIMTVP
 40
0.0
  9
$DIMTIX
 70
     0
  9
$DIMSOXD
 70
     0
  9
$DIMSAH
 70
     0
  9
$DIMBLK1
  1

  9
$DIMBLK2
  1

  9
$DIMSTYLE
  2
ISO-25
  9
$DIMCLRD
 70
     0
  9
$DIMCLRE
 70
     0
  9
$DIMCLRT
 70
     0
  9
$DIMTFAC
 40
1.0
  9
$DIMGAP
 40
0.625
  9
$DIMJUST
 70
     0
  9
$DIMSD1
 70
     0
  9
$DIMSD2
 70
     0
  9
$DIMTOLJ
 70
     1
  9
$DIMTZIN
 70
     0
  9
$DIMALTZ
 70
     0
  9
$DIMALTTZ
 70
     0
  9
$DIMUPT
 70
     0
  9
$DIMDEC
 70
     4
  9
$DIMTDEC
 70
     4
  9
$DIMALTU
 70
     2
  9
$DIMALTTD
 70
     2
  9
$DIMTXSTY
  7
STANDARD
  9
$DIMAUNIT
 70
     0
  9
$DIMADEC
 70
     0
  9
$DIMALTRND
 40
0.0
  9
$DIMAZIN
 70
     0
  9
$DIMDSEP
 70
    46
  9
$DIMATFIT
 70
     3
  9
$DIMFRAC
 70
     0
  9
$DIMLDRBLK
  1

  9
$DIMLUNIT
 70
     2
  9
$DIMLWD
 70
    -2
  9
$DIMLWE
 70
    -2
  9
$DIMTMOVE
 70
     0
  9
$LUNITS
 70
     2
  9
$LUPREC
 70
     2
  9
$SKETCHINC
 40
1.0
  9
$FILLETRAD
 40
2.5
  9
$AUNITS
 70
     0
  9
$AUPREC
 70
     0
  9
$MENU
  1
.
  9
$ELEVATION
 40
0.0
  9
$PELEVATION
 40
0.0
  9
$THICKNESS
 40
0.0
  9
$LIMCHECK
 70
     0
  9
$CHAMFERA
 40
2.5
  9
$CHAMFERB
 40
2.5
  9
$CHAMFERC
 40
0.0
  9
$CHAMFERD
 40
0.0
  9
$SKPOLY
 70
     0
  9
$TDCREATE
 40
2452802.730012291
  9
$TDUCREATE
 40
2452802.896678958
  9
$TDUPDATE
 40
2453865.518380891
  9
$TDUUPDATE
 40
2453865.685047558
  9
$TDINDWG
 40
0.1217193056
  9
$TDUSRTIMER
 40
0.1217191204
  9
$USRTIMER
 70
     1
  9
$ANGBASE
 50
0.0
  9
$ANGDIR
 70
     0
  9
$PDMODE
 70
     0
  9
$PDSIZE
 40
0.0
  9
$PLINEWID
 40
0.0
  9
$SPLFRAME
 70
     0
  9
$SPLINETYPE
 70
     6
  9
$SPLINESEGS
 70
     8
  9
$HANDSEED
  5
2C87
  9
$SURFTAB1
 70
     6
  9
$SURFTAB2
 70
     6
  9
$SURFTYPE
 70
     6
  9
$SURFU
 70
     6
  9
$SURFV
 70
     6
  9
$UCSBASE
  2

  9
$UCSNAME
  2

  9
$UCSORG
 10
0.0
 20
0.0
 30
0.0
  9
$UCSXDIR
 10
1.0
 20
0.0
 30
0.0
  9
$UCSYDIR
 10
0.0
 20
1.0
 30
0.0
  9
$UCSORTHOREF
  2

  9
$UCSORTHOVIEW
 70
     0
  9
$UCSORGTOP
 10
0.0
 20
0.0
 30
0.0
  9
$UCSORGBOTTOM
 10
0.0
 20
0.0
 30
0.0
  9
$UCSORGLEFT
 10
0.0
 20
0.0
 30
0.0
  9
$UCSORGRIGHT
 10
0.0
 20
0.0
 30
0.0
  9
$UCSORGFRONT
 10
0.0
 20
0.0
 30
0.0
  9
$UCSORGBACK
 10
0.0
 20
0.0
 30
0.0
  9
$PUCSBASE
  2

  9
$PUCSNAME
  2

  9
$PUCSORG
 10
0.0
 20
0.0
 30
0.0
  9
$PUCSXDIR
 10
1.0
 20
0.0
 30
0.0
  9
$PUCSYDIR
 10
0.0
 20
1.0
 30
0.0
  9
$PUCSORTHOREF
  2

  9
$PUCSORTHOVIEW
 70
     0
  9
$PUCSORGTOP
 10
0.0
 20
0.0
 30
0.0
  9
$PUCSORGBOTTOM
 10
0.0
 20
0.0
 30
0.0
  9
$PUCSORGLEFT
 10
0.0
 20
0.0
 30
0.0
  9
$PUCSORGRIGHT
 10
0.0
 20
0.0
 30
0.0
  9
$PUCSORGFRONT
 10
0.0
 20
0.0
 30
0.0
  9
$PUCSORGBACK
 10
0.0
 20
0.0
 30
0.0
  9
$USERI1
 70
     0
  9
$USERI2
 70
     0
  9
$USERI3
 70
     0
  9
$USERI4
 70
     0
  9
$USERI5
 70
     0
  9
$USERR1
 40
0.0
  9
$USERR2
 40
0.0
  9
$USERR3
 40
0.0
  9
$USERR4
 40
0.0
  9
$USERR5
 40
0.0
  9
$WORLDVIEW
 70
     1
  9
$SHADEDGE
 70
     3
  9
$SHADEDIF
 70
    70
  9
$TILEMODE
 70
     1
  9
$MAXACTVP
 70
    64
  9
$PINSBASE
 10
0.0
 20
0.0
 30
0.0
  9
$PLIMCHECK
 70
     0
  9
$PEXTMIN
 10
1.000000000000000E+20
 20
1.000000000000000E+20
 30
1.000000000000000E+20
  9
$PEXTMAX
 10
-1.000000000000000E+20
 20
-1.000000000000000E+20
 30
-1.000000000000000E+20
  9
$PLIMMIN
 10
0.0
 20
0.0
  9
$PLIMMAX
 10
420.0
 20
297.0
  9
$UNITMODE
 70
     0
  9
$VISRETAIN
 70
     1
  9
$PLINEGEN
 70
     0
  9
$PSLTSCALE
 70
     1
  9
$TREEDEPTH
 70
  3020
  9
$CMLSTYLE
  2
Standard
  9
$CMLJUST
 70
     0
  9
$CMLSCALE
 40
1.0
  9
$PROXYGRAPHICS
 70
     1
  9
$MEASUREMENT
 70
     0
  9
$CELWEIGHT
370
    -1
  9
$ENDCAPS
280
     0
  9
$JOINSTYLE
280
     0
  9
$LWDISPLAY
290
     0
  9
$INSUNITS
 70
     0
  9
$HYPERLINKBASE
  1

  9
$STYLESHEET
  1

  9
$XEDIT
290
     1
  9
$CEPSNTYPE
380
     0
  9
$PSTYLEMODE
290
     1
  9
$FINGERPRINTGUID
  2
{45C15723-FCDF-47F9-A794-6F34007C4B78}
  9
$VERSIONGUID
  2
{76B72CA1-663F-4290-B4CD-A1F06526E823}
  9
$EXTNAMES
290
     1
  9
$PSVPSCALE
 40
0.0
  9
$OLESTARTUP
290
     0
  0
ENDSEC
  0
SECTION
  2
CLASSES
  0
CLASS
  1
ACDBDICTIONARYWDFLT
  2
AcDbDictionaryWithDefault
  3
AutoCAD 2000
 90
        0
280
     0
281
     0
  0
CLASS
  1
ACDBPLACEHOLDER
  2
AcDbPlaceHolder
  3
AutoCAD 2000
 90
        0
280
     0
281
     0
  0
CLASS
  1
LAYOUT
  2
AcDbLayout
  3
AutoCAD 2000
 90
        0
280
     0
281
     0
  0
CLASS
  1
DICTIONARYVAR
  2
AcDbDictionaryVar
  3
AutoCAD 2000
 90
        0
280
     0
281
     0
  0
ENDSEC
  0
SECTION
  2
TABLES
  0
TABLE
  2
VPORT
  5
243F
330
0
100
AcDbSymbolTable
 70
     7
  0
VPORT
  5
2C86
330
243F
100
AcDbSymbolTableRecord
100
AcDbViewportTableRecord
  2
*Active
 70
     0
 10
0.0
 20
0.0
 11
1.0
 21
1.0
 12
359.4830668212452
 22
429.9584298375086
 13
0.0
 23
0.0
 14
2.5
 24
2.5
 15
10.0
 25
10.0
 16
0.0
 26
0.0
 36
1.0
 17
0.0
 27
0.0
 37
0.0
 40
677.0983870464991
 41
1.182835820895522
 42
50.0
 43
0.0
 44
0.0
 50
0.0
 51
0.0
 71
     0
 72
   100
 73
     1
 74
     3
 75
     0
 76
     0
 77
     0
 78
     0
281
     0
 65
     1
110
0.0
120
0.0
130
0.0
111
1.0
121
0.0
131
0.0
112
0.0
122
1.0
132
0.0
 79
     0
146
0.0
  0
ENDTAB
  0
TABLE
  2
LTYPE
  5
243C
330
0
100
AcDbSymbolTable
 70
     5
  0
LTYPE
  5
244A
330
243C
100
AcDbSymbolTableRecord
100
AcDbLinetypeTableRecord
  2
ByBlock
 70
     0
  3

 72
    65
 73
     0
 40
0.0
  0
LTYPE
  5
244B
330
243C
100
AcDbSymbolTableRecord
100
AcDbLinetypeTableRecord
  2
ByLayer
 70
     0
  3

 72
    65
 73
     0
 40
0.0
  0
LTYPE
  5
244C
330
243C
100
AcDbSymbolTableRecord
100
AcDbLinetypeTableRecord
  2
CONTINUOUS
 70
     0
  3
Solid line
 72
    65
 73
     0
 40
0.0
  0
LTYPE
  5
245B
330
243C
100
AcDbSymbolTableRecord
100
AcDbLinetypeTableRecord
  2
CENTER
 70
     0
  3
Center ____ _ ____ _ ____ _ ____ _ ____ _ ____
 72
    65
 73
     4
 40
50.8
 49
31.75
 74
     0
 49
-6.349999999999997
 74
     0
 49
6.349999999999997
 74
     0
 49
-6.349999999999997
 74
     0
  0
LTYPE
  5
245C
330
243C
100
AcDbSymbolTableRecord
100
AcDbLinetypeTableRecord
  2
DASHDOT
 70
     0
  3
__ . __ . __ .
 72
    65
 73
     4
 40
15.10526308671707
 49
7.552631543358534
 74
     0
 49
-3.776315771679267
 74
     0
 49
0.0
 74
     0
 49
-3.776315771679267
 74
     0
  0
LTYPE
  5
245D
330
243C
100
AcDbSymbolTableRecord
100
AcDbLinetypeTableRecord
  2
DIVIDE
 70
     0
  3
__ . . __ . . 
 72
    65
 73
     6
 40
18.88157885839632
 49
7.552631543358534
 74
     0
 49
-3.776315771679267
 74
     0
 49
0.0
 74
     0
 49
-3.776315771679267
 74
     0
 49
0.0
 74
     0
 49
-3.776315771679267
 74
     0
  0
LTYPE
  5
245E
330
243C
100
AcDbSymbolTableRecord
100
AcDbLinetypeTableRecord
  2
PHANTOM
 70
     0
  3
_____ _ _ _____ _ _ 
 72
    65
 73
     6
 40
37.76315771679264
 49
18.88157885839632
 74
     0
 49
-3.776315771679267
 74
     0
 49
3.776315771679267
 74
     0
 49
-3.776315771679267
 74
     0
 49
3.776315771679267
 74
     0
 49
-3.776315771679267
 74
     0
  0
ENDTAB
  0
TABLE
  2
LAYER
  5
2439
330
0
100
AcDbSymbolTable
 70
     5
  0
LAYER
  5
2447
330
2439
100
AcDbSymbolTableRecord
100
AcDbLayerTableRecord
  2
0
 70
     0
 62
     7
  6
CONTINUOUS
370
    -3
390
2446
  0
LAYER
  5
2459
330
2439
100
AcDbSymbolTableRecord
100
AcDbLayerTableRecord
  2
AM_0
 70
     0
 62
     7
  6
CONTINUOUS
370
    -3
390
2446
  0
LAYER
  5
245F
330
2439
100
AcDbSymbolTableRecord
100
AcDbLayerTableRecord
  2
1
 70
     0
 62
     7
  6
CONTINUOUS
370
    -3
390
2446
  0
LAYER
  5
2460
330
2439
100
AcDbSymbolTableRecord
100
AcDbLayerTableRecord
  2
2
 70
     0
 62
     7
  6
CONTINUOUS
370
    -3
390
2446
  0
LAYER
  5
2761
330
2439
100
AcDbSymbolTableRecord
100
AcDbLayerTableRecord
  2
LAYER_1
 70
     0
 62
     5
  6
CONTINUOUS
370
    -3
390
2446
  0
ENDTAB
  0
TABLE
  2
STYLE
  5
243A
330
0
100
AcDbSymbolTable
 70
     1
  0
STYLE
  5
2448
330
243A
100
AcDbSymbolTableRecord
100
AcDbTextStyleTableRecord
  2
STANDARD
 70
     0
 40
0.0
 41
1.0
 50
0.0
 71
     0
 42
2.5
  3
ISOCP.SHX
  4

  0
ENDTAB
  0
TABLE
  2
VIEW
  5
243D
330
0
100
AcDbSymbolTable
 70
     0
  0
ENDTAB
  0
TABLE
  2
UCS
  5
243E
330
0
100
AcDbSymbolTable
 70
     0
  0
ENDTAB
  0
TABLE
  2
APPID
  5
2440
330
0
100
AcDbSymbolTable
 70
    13
  0
APPID
  5
2449
330
2440
100
AcDbSymbolTableRecord
100
AcDbRegAppTableRecord
  2
ACAD
 70
     0
  0
APPID
  5
2461
330
2440
100
AcDbSymbolTableRecord
100
AcDbRegAppTableRecord
  2
GENIUS_GENDIM_13
 70
     0
  0
APPID
  5
2462
330
2440
100
AcDbSymbolTableRecord
100
AcDbRegAppTableRecord
  2
GENIUS_GENDTOL_13
 70
     0
  0
APPID
  5
2463
330
2440
100
AcDbSymbolTableRecord
100
AcDbRegAppTableRecord
  2
GENIUS_GE3DTOL_13
 70
     0
  0
APPID
  5
2464
330
2440
100
AcDbSymbolTableRecord
100
AcDbRegAppTableRecord
  2
MCAD_NO_VIS
 70
     0
  0
APPID
  5
2465
330
2440
100
AcDbSymbolTableRecord
100
AcDbRegAppTableRecord
  2
ACAD_TEMP_GRAPHIC
 70
     0
  0
APPID
  5
2466
330
2440
100
AcDbSymbolTableRecord
100
AcDbRegAppTableRecord
  2
AD_DRAW
 70
     0
  0
APPID
  5
2467
330
2440
100
AcDbSymbolTableRecord
100
AcDbRegAppTableRecord
  2
ACATTRIBSERVICES
 70
     0
  0
APPID
  5
2468
330
2440
100
AcDbSymbolTableRecord
100
AcDbRegAppTableRecord
  2
ASURF_PCURVE_APPNAME
 70
     0
  0
APPID
  5
2469
330
2440
100
AcDbSymbolTableRecord
100
AcDbRegAppTableRecord
  2
DESIGNERASSEMBLIES
 70
     0
  0
APPID
  5
246A
330
2440
100
AcDbSymbolTableRecord
100
AcDbRegAppTableRecord
  2
ACADM_DIM_EDIT
 70
     0
  0
APPID
  5
246B
330
2440
100
AcDbSymbolTableRecord
100
AcDbRegAppTableRecord
  2
G3V_ENTHND
 70
     0
  0
APPID
  5
246C
330
2440
100
AcDbSymbolTableRecord
100
AcDbRegAppTableRecord
  2
GENIUS_GENDIMSH_14
 70
     0
  0
ENDTAB
  0
TABLE
  2
DIMSTYLE
  5
2441
330
0
100
AcDbSymbolTable
 70
     2
100
AcDbDimStyleTable
 71
     0
  0
DIMSTYLE
105
246D
330
2441
100
AcDbSymbolTableRecord
100
AcDbDimStyleTableRecord
  2
ISO-25
 70
     0
 41
2.5
 42
0.625
 43
3.75
 44
1.25
 73
     0
 74
     0
 77
     1
 78
     8
140
2.5
141
2.5
143
0.03937007874016
147
0.625
171
     3
172
     1
271
     2
272
     2
274
     3
279
     2
284
     8
285
     8
286
     8
340
2448
  0
DIMSTYLE
105
2762
330
2441
100
AcDbSymbolTableRecord
100
AcDbDimStyleTableRecord
  2
Standard
 70
     0
340
2448
  0
ENDTAB
  0
TABLE
  2
BLOCK_RECORD
  5
2438
330
0
100
AcDbSymbolTable
 70
    27
  0
BLOCK_RECORD
  5
2455
330
2438
100
AcDbSymbolTableRecord
100
AcDbBlockTableRecord
  2
*Model_Space
340
2458
  0
BLOCK_RECORD
  5
2451
330
2438
100
AcDbSymbolTableRecord
100
AcDbBlockTableRecord
  2
*Paper_Space
340
2454
  0
BLOCK_RECORD
  5
246F
330
2438
100
AcDbSymbolTableRecord
100
AcDbBlockTableRecord
  2
$MODEL_SPACE
340
0
  0
BLOCK_RECORD
  5
2472
330
2438
100
AcDbSymbolTableRecord
100
AcDbBlockTableRecord
  2
$PAPER_SPACE
340
0
  0
BLOCK_RECORD
  5
26F5
330
2438
100
AcDbSymbolTableRecord
100
AcDbBlockTableRecord
  2
AI9-BLK14
340
0
310
2800000020000000200000000100080000000000000400000000000000000000000000000000000000000000000080000080000000808000800000008000800080800000C0C0C000C0DCC000F0CAA6000020400000206000002080000020A0000020C0000020E00000400000004020000040400000406000004080000040A0
310
000040C0000040E00000600000006020000060400000606000006080000060A0000060C0000060E00000800000008020000080400000806000008080000080A0000080C0000080E00000A0000000A0200000A0400000A0600000A0800000A0A00000A0C00000A0E00000C0000000C0200000C0400000C0600000C0800000C0
310
A00000C0C00000C0E00000E0000000E0200000E0400000E0600000E0800000E0A00000E0C00000E0E00040000000400020004000400040006000400080004000A0004000C0004000E00040200000402020004020400040206000402080004020A0004020C0004020E000404000004040200040404000404060004040800040
310
40A0004040C0004040E00040600000406020004060400040606000406080004060A0004060C0004060E00040800000408020004080400040806000408080004080A0004080C0004080E00040A0000040A0200040A0400040A0600040A0800040A0A00040A0C00040A0E00040C0000040C0200040C0400040C0600040C08000
310
40C0A00040C0C00040C0E00040E0000040E0200040E0400040E0600040E0800040E0A00040E0C00040E0E00080000000800020008000400080006000800080008000A0008000C0008000E00080200000802020008020400080206000802080008020A0008020C0008020E00080400000804020008040400080406000804080
310
008040A0008040C0008040E00080600000806020008060400080606000806080008060A0008060C0008060E00080800000808020008080400080806000808080008080A0008080C0008080E00080A0000080A0200080A0400080A0600080A0800080A0A00080A0C00080A0E00080C0000080C0200080C0400080C0600080C0
310
800080C0A00080C0C00080C0E00080E0000080E0200080E0400080E0600080E0800080E0A00080E0C00080E0E000C0000000C0002000C0004000C0006000C0008000C000A000C000C000C000E000C0200000C0202000C0204000C0206000C0208000C020A000C020C000C020E000C0400000C0402000C0404000C0406000C0
310
408000C040A000C040C000C040E000C0600000C0602000C0604000C0606000C0608000C060A000C060C000C060E000C0800000C0802000C0804000C0806000C0808000C080A000C080C000C080E000C0A00000C0A02000C0A04000C0A06000C0A08000C0A0A000C0A0C000C0A0E000C0C00000C0C02000C0C04000C0C06000
310
C0C08000C0C0A000F0FBFF00A4A0A000808080000000FF0000FF000000FFFF00FF000000FF00FF00FFFF0000FFFFFF00FF00FFFFFFFF00FFFFFFFFFFFFFFFFFFFFFFFFFFFFFFFFFFFFFFFFFFFFFFFFFFFF00FFFFFFFF00FFFFFFFFFFFFFFFFFFFFFFFFFFFFFFFFFFFFFFFFFFFFFFFFFFFF00FFFFFFFF00FFFFFFFFFFFFFFFF
310
FFFFFFFFFFFFFFFFFFFFFFFFFFFFFFFFFFFF00FFFFFFFF00FFFFFFFFFFFFFFFFFFFFFFFFFFFFFFFFFFFFFFFFFFFFFFFFFFFF00FFFFFFFF00FFFFFFFFFFFFFFFFFFFFFFFFFFFFFFFFFFFFFFFFFFFFFFFFFFFF00FFFFFFFF00FFFFFFFFFFFFFFFFFFFFFFFFFFFFFFFFFFFFFFFFFFFFFFFFFFFF00FFFFFFFF00FFFFFFFFFFFFFF
310
FFFFFFFFFFFFFFFFFFFFFFFFFFFFFFFFFFFFFF00FFFFFFFF00FFFFFFFFFFFFFFFFFFFFFFFFFFFFFFFFFFFFFFFFFFFFFFFFFFFF00FFFFFFFF00FFFFFFFFFFFFFFFFFFFFFFFFFFFFFFFFFFFFFFFFFFFFFFFFFFFF00FFFFFFFF00FFFFFFFFFFFFFFFFFFFFFFFFFFFFFFFFFFFFFFFFFFFFFFFFFFFF00FFFFFFFF00FFFFFFFFFFFF
310
FFFFFFFFFFFFFFFFFFFFFFFFFFFFFFFFFFFFFFFF00FFFFFFFF00FFFFFFFFFFFFFFFFFFFFFFFFFFFFFFFFFFFFFFFFFFFFFFFFFFFF00FFFFFFFF00FFFFFFFFFFFFFFFFFFFFFFFFFFFFFFFFFFFFFFFFFFFFFFFFFFFF00FFFFFFFF0000000000000000000000000000000000000000000000000000FF00FFFFFFFFFFFFFFFFFFFF
310
FFFFFFFFFFFFFFFFFFFFFFFFFFFFFFFFFFFFFFFFFF00FFFFFFFFFFFFFFFFFFFFFFFFFFFFFFFFFFFFFFFFFFFFFFFFFFFFFFFFFFFFFF00FFFFFFFFFFFFFFFFFFFFFFFFFFFFFFFFFFFFFFFFFFFFFFFFFFFFFFFFFFFFFF00FFFFFFFFFFFFFFFFFFFFFFFFFFFFFFFFFFFFFFFFFFFFFFFFFFFFFFFFFF00FF00000000000000000000
310
0000000000000000000000000000000000000000FFFFFFFFFFFFFFFFFFFFFFFFFFFFFFFFFFFFFFFFFFFFFFFFFFFFFFFFFFFFFFFFFFFFFFFFFFFFFFFFFFFFFFFFFFFFFFFFFFFFFFFFFFFFFFFFFFFFFFFFFFFFFFFFFFFFFFFFFFFFFFFFFFFFFFFFFFFFFFFFFFFFFFFFFFFFFFFFFFFFFFFFFFFFFFFFFFFFFFFFFFFFFFFFFFFFFF
310
FFFFFFFFFFFFFFFFFFFFFFFFFFFFFFFFFFFFFFFFFFFFFFFFFFFFFFFFFFFFFFFFFFFFFFFFFFFFFFFFFFFFFFFFFFFFFFFFFFFFFFFFFFFFFFFFFFFFFFFFFFFFFFFFFFFFFFFFFFFFFFFFFFFFFFFFFFFFFFFFFFFFFFFFFFFFFFFFFFFFFFFFFFFFFFFFFFFFFFFFFFFFFFFFFFFFFFFFFFFFFFFFFFFFFFFFFFFFFFFFFFFFFFFFFFFFFF
310
FFFFFFFFFFFFFFFFFFFFFFFFFFFFFFFFFFFFFFFFFFFFFFFFFFFFFFFFFFFFFFFFFFFFFFFFFFFFFFFFFFFFFFFFFFFFFFFFFFFFFFFFFFFFFFFFFFFFFFFFFFFFFFFFFFFFFFFFFFFFFFFFFFFFFFFFFFFFFFFFFFFFFFFFFFFFFFFFFFFFFFFFFFFFFFFFFFFFFFFFFFFFFFFFFFFFFFFFFFFFFFFFFFFFFFFFFFFFFFFFFFFFFFFFFFFFFF
310
FFFFFFFFFFFFFFFFFFFFFFFFFFFFFFFFFFFFFFFFFFFFFFFFFFFFFFFFFFFFFFFFFFFFFFFFFFFFFFFFFFFFFFFFFFFFFFFFFFFFFFFFFFFFFFFF
102
{BLKREFS
331
2736
102
}
  0
BLOCK_RECORD
  5
26FA
330
2438
100
AcDbSymbolTableRecord
100
AcDbBlockTableRecord
  2
AI9-BLK13
340
0
310
2800000020000000200000000100080000000000000400000000000000000000000000000000000000000000000080000080000000808000800000008000800080800000C0C0C000C0DCC000F0CAA6000020400000206000002080000020A0000020C0000020E00000400000004020000040400000406000004080000040A0
310
000040C0000040E00000600000006020000060400000606000006080000060A0000060C0000060E00000800000008020000080400000806000008080000080A0000080C0000080E00000A0000000A0200000A0400000A0600000A0800000A0A00000A0C00000A0E00000C0000000C0200000C0400000C0600000C0800000C0
310
A00000C0C00000C0E00000E0000000E0200000E0400000E0600000E0800000E0A00000E0C00000E0E00040000000400020004000400040006000400080004000A0004000C0004000E00040200000402020004020400040206000402080004020A0004020C0004020E000404000004040200040404000404060004040800040
310
40A0004040C0004040E00040600000406020004060400040606000406080004060A0004060C0004060E00040800000408020004080400040806000408080004080A0004080C0004080E00040A0000040A0200040A0400040A0600040A0800040A0A00040A0C00040A0E00040C0000040C0200040C0400040C0600040C08000
310
40C0A00040C0C00040C0E00040E0000040E0200040E0400040E0600040E0800040E0A00040E0C00040E0E00080000000800020008000400080006000800080008000A0008000C0008000E00080200000802020008020400080206000802080008020A0008020C0008020E00080400000804020008040400080406000804080
310
008040A0008040C0008040E00080600000806020008060400080606000806080008060A0008060C0008060E00080800000808020008080400080806000808080008080A0008080C0008080E00080A0000080A0200080A0400080A0600080A0800080A0A00080A0C00080A0E00080C0000080C0200080C0400080C0600080C0
310
800080C0A00080C0C00080C0E00080E0000080E0200080E0400080E0600080E0800080E0A00080E0C00080E0E000C0000000C0002000C0004000C0006000C0008000C000A000C000C000C000E000C0200000C0202000C0204000C0206000C0208000C020A000C020C000C020E000C0400000C0402000C0404000C0406000C0
310
408000C040A000C040C000C040E000C0600000C0602000C0604000C0606000C0608000C060A000C060C000C060E000C0800000C0802000C0804000C0806000C0808000C080A000C080C000C080E000C0A00000C0A02000C0A04000C0A06000C0A08000C0A0A000C0A0C000C0A0E000C0C00000C0C02000C0C04000C0C06000
310
C0C08000C0C0A000F0FBFF00A4A0A000808080000000FF0000FF000000FFFF00FF000000FF00FF00FFFF0000FFFFFF00FFFFFFFFFFFFFFFFFFFFFFFFFFFFFFFFFFFFFFFFFFFFFFFFFFFFFFFFFFFFFFFFFFFFFFFFFFFFFFFFFFFFFF0000FFFFFFFFFFFF0000FFFFFFFFFFFFFFFFFFFFFFFFFFFFFFFFFFFFFFFFFFFF0000FFFF
310
FFFFFFFF0000FFFFFFFFFFFFFFFFFFFFFFFFFFFFFFFFFFFFFFFFFFFF0000FFFFFFFFFFFF0000FFFFFFFFFFFFFFFFFFFFFFFFFFFFFFFFFFFFFFFFFFFF0000FFFFFFFFFFFF0000FFFFFFFFFFFFFFFFFFFFFFFFFFFFFFFFFFFFFFFFFFFF0000FFFFFFFFFFFF0000FFFFFFFFFFFFFFFFFFFFFFFFFFFFFFFFFFFFFFFFFFFF0000FF
310
FFFFFFFFFF0000FFFFFFFFFFFFFFFFFFFFFFFFFFFFFFFFFFFFFFFFFFFF0000FFFFFFFFFFFF0000FFFFFFFFFFFFFFFFFFFFFFFFFFFFFFFFFFFFFFFFFFFF0000FFFFFFFFFFFF0000FFFFFFFFFFFFFFFFFFFFFFFFFFFFFFFFFFFFFFFFFFFF0000FFFFFFFFFFFF0000FFFFFFFFFFFFFFFFFFFFFFFFFFFFFFFFFFFFFFFFFFFF0000
310
FFFFFFFFFFFF0000FFFFFFFFFFFFFFFFFFFFFFFFFFFFFFFFFFFFFFFFFFFF0000FFFFFFFFFFFF0000FFFFFFFFFFFFFFFFFFFFFFFFFFFFFFFFFFFFFFFFFFFF0000FFFFFFFFFFFF0000FFFFFFFFFFFFFFFFFFFFFFFFFFFFFFFFFFFFFFFFFFFF0000FFFFFFFFFFFF0000FFFFFFFFFFFFFFFFFFFFFFFFFFFFFFFFFFFFFFFFFFFF00
310
00FFFFFFFFFFFF0000FFFFFFFFFFFFFFFFFFFFFFFFFFFFFFFFFFFFFFFFFFFF00000000000000000000FFFFFFFFFFFFFFFFFFFFFFFFFFFFFFFFFFFFFFFFFFFF00FFFFFFFFFFFFFFFF00FFFFFFFFFFFFFFFFFFFFFFFFFFFFFFFFFFFFFFFFFFFF00FFFFFFFFFFFFFFFF00FFFFFFFFFFFFFFFFFFFFFFFFFFFFFFFFFFFFFFFFFFFF
310
00000000000000000000FFFFFFFFFFFFFFFFFFFFFFFFFFFFFFFFFFFFFFFFFFFF0000FFFFFFFFFFFF0000FFFFFFFFFFFFFFFFFFFFFFFFFFFFFFFFFFFFFFFFFFFF0000FFFFFFFFFFFF0000FFFFFFFFFFFFFFFFFFFFFFFFFFFFFFFFFFFFFFFFFFFF0000FFFFFFFFFFFF0000FFFFFFFFFFFFFFFFFFFFFFFFFFFFFFFFFFFFFFFFFF
310
FF0000FFFFFFFFFFFF0000FFFFFFFFFFFFFFFFFFFFFFFFFFFFFFFFFFFFFFFFFFFF0000FFFFFFFFFFFF0000FFFFFFFFFFFFFFFFFFFFFFFFFFFFFFFFFFFFFFFFFFFF0000FFFFFFFFFFFF0000FFFFFFFFFFFFFFFFFFFFFFFFFFFFFFFFFFFFFFFFFFFF0000FFFFFFFFFFFF0000FFFFFFFFFFFFFFFFFFFFFFFFFFFFFFFFFFFFFFFF
310
FFFF0000FFFFFFFFFFFF0000FFFFFFFFFFFFFFFFFFFFFFFFFFFFFFFFFFFFFFFFFFFF0000FFFFFFFFFFFF0000FFFFFFFFFFFFFFFFFFFFFFFFFFFFFFFFFFFFFFFFFFFF0000FFFFFFFFFFFF0000FFFFFFFFFFFFFFFFFFFFFFFFFFFFFFFFFFFFFFFFFFFF0000FFFFFFFFFFFF0000FFFFFFFFFFFFFFFFFFFFFFFFFFFFFFFFFFFFFF
310
FFFFFF0000FFFFFFFFFFFF0000FFFFFFFFFFFFFFFFFFFFFFFFFFFFFFFFFFFFFFFFFFFFFFFFFFFFFFFFFFFFFFFFFFFFFFFFFFFFFFFFFFFFFF
102
{BLKREFS
331
2737
102
}
  0
BLOCK_RECORD
  5
26FF
330
2438
100
AcDbSymbolTableRecord
100
AcDbBlockTableRecord
  2
AI9-BLK11
340
0
310
2800000020000000200000000100080000000000000400000000000000000000000000000000000000000000000080000080000000808000800000008000800080800000C0C0C000C0DCC000F0CAA6000020400000206000002080000020A0000020C0000020E00000400000004020000040400000406000004080000040A0
310
000040C0000040E00000600000006020000060400000606000006080000060A0000060C0000060E00000800000008020000080400000806000008080000080A0000080C0000080E00000A0000000A0200000A0400000A0600000A0800000A0A00000A0C00000A0E00000C0000000C0200000C0400000C0600000C0800000C0
310
A00000C0C00000C0E00000E0000000E0200000E0400000E0600000E0800000E0A00000E0C00000E0E00040000000400020004000400040006000400080004000A0004000C0004000E00040200000402020004020400040206000402080004020A0004020C0004020E000404000004040200040404000404060004040800040
310
40A0004040C0004040E00040600000406020004060400040606000406080004060A0004060C0004060E00040800000408020004080400040806000408080004080A0004080C0004080E00040A0000040A0200040A0400040A0600040A0800040A0A00040A0C00040A0E00040C0000040C0200040C0400040C0600040C08000
310
40C0A00040C0C00040C0E00040E0000040E0200040E0400040E0600040E0800040E0A00040E0C00040E0E00080000000800020008000400080006000800080008000A0008000C0008000E00080200000802020008020400080206000802080008020A0008020C0008020E00080400000804020008040400080406000804080
310
008040A0008040C0008040E00080600000806020008060400080606000806080008060A0008060C0008060E00080800000808020008080400080806000808080008080A0008080C0008080E00080A0000080A0200080A0400080A0600080A0800080A0A00080A0C00080A0E00080C0000080C0200080C0400080C0600080C0
310
800080C0A00080C0C00080C0E00080E0000080E0200080E0400080E0600080E0800080E0A00080E0C00080E0E000C0000000C0002000C0004000C0006000C0008000C000A000C000C000C000E000C0200000C0202000C0204000C0206000C0208000C020A000C020C000C020E000C0400000C0402000C0404000C0406000C0
310
408000C040A000C040C000C040E000C0600000C0602000C0604000C0606000C0608000C060A000C060C000C060E000C0800000C0802000C0804000C0806000C0808000C080A000C080C000C080E000C0A00000C0A02000C0A04000C0A06000C0A08000C0A0A000C0A0C000C0A0E000C0C00000C0C02000C0C04000C0C06000
310
C0C08000C0C0A000F0FBFF00A4A0A000808080000000FF0000FF000000FFFF00FF000000FF00FF00FFFF0000FFFFFF00FFFFFFFFFFFFFFFFFFFFFFFFFFFFFFFFFFFFFFFFFFFFFFFFFFFFFFFFFFFFFFFFFFFFFFFFFFFFFFFFFFFFFFFFFFFF00000000FFFFFFFFFFFFFFFFFFFFFF000000FFFFFFFFFFFFFFFFFFFFFFFFFFFF00
310
FFFF00FFFFFFFFFFFFFFFFFFFFFF00FFFFFFFFFFFFFFFFFFFFFFFFFFFFFFFF00FFFF00FFFFFFFFFFFFFFFFFFFFFF00FFFFFFFFFFFFFFFFFFFFFFFFFFFFFFFF00FFFF00FFFFFFFFFFFFFFFFFFFFFF00FFFFFFFFFFFFFFFFFFFFFFFFFFFFFFFF00FFFF00FFFFFFFFFFFFFFFFFFFFFF00FFFFFFFFFFFFFFFFFFFFFFFFFFFFFFFF
310
00FFFF00FFFFFFFFFFFFFFFFFFFFFF00FFFFFFFFFFFFFFFFFFFFFFFFFFFFFFFF00FFFF00FFFFFFFFFFFFFFFFFFFFFF00FFFFFFFFFFFFFFFFFFFFFFFFFFFFFFFF00FFFF00FFFFFFFFFFFFFFFFFFFFFF00FFFFFFFFFFFFFFFFFFFFFFFFFFFFFFFF00FFFF00FFFFFFFFFFFFFFFFFFFFFF00FFFFFFFFFFFFFFFFFFFFFFFFFFFFFF
310
FF00FFFF00FFFFFFFFFFFFFFFFFFFFFF00FFFFFFFFFFFFFFFFFFFFFFFFFFFFFFFF00FFFF00FFFFFFFFFFFFFFFFFFFFFF00FFFFFFFFFFFFFFFFFFFFFFFFFFFFFFFF00FFFF00FFFFFFFFFFFFFFFFFFFFFF00FFFFFFFFFFFFFFFFFFFFFFFFFFFFFFFF00FFFF00FFFFFFFFFFFFFFFFFFFFFF00FFFFFFFFFFFFFFFFFFFFFFFFFFFF
310
FFFF00FFFF00FFFFFFFFFFFFFFFFFFFFFF00FFFFFFFFFFFFFFFFFFFFFFFFFFFFFFFF00FFFF00FFFFFFFFFFFFFFFFFFFFFF00FFFFFFFFFFFFFFFFFFFFFFFFFFFFFFFF00FFFF00FFFFFFFFFFFFFFFFFFFFFF00FFFFFFFFFFFFFFFFFFFFFFFFFFFFFFFF00FFFF00FFFFFFFFFFFFFFFFFFFF00FFFFFFFFFFFFFFFFFFFFFFFFFFFF
310
FFFFFF00FFFF00FFFFFFFFFFFFFFFFFFFF00FFFFFFFFFFFFFFFFFFFFFFFFFFFFFFFFFF00FFFF00FFFFFFFFFFFFFFFFFFFF00FFFFFFFFFFFFFFFFFFFFFFFFFFFFFFFFFF00FFFF00FFFFFFFFFFFFFFFFFFFF00FFFFFFFFFFFFFFFFFFFFFFFFFFFFFFFFFF00FFFF00FFFFFFFFFFFFFFFFFFFF00FFFFFFFFFFFFFFFFFFFFFFFFFF
310
FFFFFFFF00FFFF00FFFFFFFFFFFFFFFFFF0000FFFF00FFFFFFFFFFFFFFFFFFFFFFFFFFFF00FFFF00FFFFFFFFFFFFFFFF0000FFFFFF00FFFFFFFFFFFFFFFFFFFFFFFFFFFF00FFFF00000000000000000000FFFFFFFF00FFFFFFFFFFFFFFFFFFFFFFFFFFFF00FFFFFFFFFFFFFFFFFFFFFFFFFFFFFF00FFFFFFFFFFFFFFFFFFFF
310
FFFFFFFFFF00FFFFFFFFFFFFFFFFFFFFFFFFFFFF00FFFFFFFFFFFFFFFFFFFFFFFFFFFFFFFF00FFFFFFFFFFFFFFFFFFFFFFFFFFFF00FFFFFFFFFFFFFFFFFFFFFFFFFFFFFFFF00FFFFFFFFFFFFFFFFFFFFFFFFFFFFFF00FFFFFFFFFFFFFFFFFFFFFFFFFFFFFF00FFFFFFFFFFFFFFFFFFFFFFFFFFFFFF00FFFFFFFFFFFFFFFFFF
310
FFFFFFFFFFFF00FFFF00000000000000000000FFFFFFFF00FFFFFFFFFFFFFFFFFFFFFFFFFFFF00FFFF00FFFFFFFFFFFFFFFFFF0000FFFF00
102
{BLKREFS
331
2738
102
}
  0
BLOCK_RECORD
  5
2704
330
2438
100
AcDbSymbolTableRecord
100
AcDbBlockTableRecord
  2
AI9-BLK10
340
0
310
2800000020000000200000000100080000000000000400000000000000000000000000000000000000000000000080000080000000808000800000008000800080800000C0C0C000C0DCC000F0CAA6000020400000206000002080000020A0000020C0000020E00000400000004020000040400000406000004080000040A0
310
000040C0000040E00000600000006020000060400000606000006080000060A0000060C0000060E00000800000008020000080400000806000008080000080A0000080C0000080E00000A0000000A0200000A0400000A0600000A0800000A0A00000A0C00000A0E00000C0000000C0200000C0400000C0600000C0800000C0
310
A00000C0C00000C0E00000E0000000E0200000E0400000E0600000E0800000E0A00000E0C00000E0E00040000000400020004000400040006000400080004000A0004000C0004000E00040200000402020004020400040206000402080004020A0004020C0004020E000404000004040200040404000404060004040800040
310
40A0004040C0004040E00040600000406020004060400040606000406080004060A0004060C0004060E00040800000408020004080400040806000408080004080A0004080C0004080E00040A0000040A0200040A0400040A0600040A0800040A0A00040A0C00040A0E00040C0000040C0200040C0400040C0600040C08000
310
40C0A00040C0C00040C0E00040E0000040E0200040E0400040E0600040E0800040E0A00040E0C00040E0E00080000000800020008000400080006000800080008000A0008000C0008000E00080200000802020008020400080206000802080008020A0008020C0008020E00080400000804020008040400080406000804080
310
008040A0008040C0008040E00080600000806020008060400080606000806080008060A0008060C0008060E00080800000808020008080400080806000808080008080A0008080C0008080E00080A0000080A0200080A0400080A0600080A0800080A0A00080A0C00080A0E00080C0000080C0200080C0400080C0600080C0
310
800080C0A00080C0C00080C0E00080E0000080E0200080E0400080E0600080E0800080E0A00080E0C00080E0E000C0000000C0002000C0004000C0006000C0008000C000A000C000C000C000E000C0200000C0202000C0204000C0206000C0208000C020A000C020C000C020E000C0400000C0402000C0404000C0406000C0
310
408000C040A000C040C000C040E000C0600000C0602000C0604000C0606000C0608000C060A000C060C000C060E000C0800000C0802000C0804000C0806000C0808000C080A000C080C000C080E000C0A00000C0A02000C0A04000C0A06000C0A08000C0A0A000C0A0C000C0A0E000C0C00000C0C02000C0C04000C0C06000
310
C0C08000C0C0A000F0FBFF00A4A0A000808080000000FF0000FF000000FFFF00FF000000FF00FF00FFFF0000FFFFFF00FFFFFFFFFFFFFFFFFFFFFFFFFFFFFFFF00FFFFFFFFFFFFFFFFFFFFFFFF00FFFFFFFFFFFFFFFFFFFFFFFFFFFFFFFFFFFF00FFFFFFFFFFFFFFFFFFFFFF00FFFFFFFFFFFFFFFFFFFFFFFFFFFFFFFFFFFF
310
FF00FFFFFFFFFFFFFFFFFFFFFF00FFFFFFFFFFFFFFFFFFFFFFFFFFFFFFFFFFFFFF00FFFFFFFFFFFFFFFFFFFFFF00FFFFFFFFFFFFFFFFFFFFFFFFFFFFFFFFFFFFFF00FFFFFFFFFFFFFFFFFFFFFF00FFFFFFFFFFFFFFFFFFFFFFFFFFFFFFFFFFFFFF00FFFFFFFFFFFFFFFFFFFFFF00FFFFFFFFFFFFFFFFFFFFFFFFFFFFFFFFFF
310
FFFF00FFFFFFFFFFFFFFFFFFFFFF00FFFFFFFFFFFFFFFFFFFFFFFFFFFFFFFFFFFFFF00FFFFFFFFFFFFFFFFFFFF00FFFFFFFFFFFFFFFFFFFFFFFFFFFFFFFFFFFFFFFF00FFFFFFFFFFFFFFFFFFFF00FFFFFFFFFFFFFFFFFFFFFFFFFFFFFFFFFFFFFFFF00FFFFFFFFFFFFFFFFFFFF00FFFFFFFFFFFFFFFFFFFFFFFFFFFFFFFFFF
310
FFFFFF00FFFFFFFFFFFFFFFFFFFF00FFFFFFFFFFFFFFFFFFFFFFFFFFFFFFFFFFFFFFFF00FFFFFFFFFFFFFFFFFFFF00FFFFFFFFFFFFFFFFFFFFFFFFFFFFFFFFFFFFFFFF00FFFFFFFFFFFFFFFFFFFF00FFFFFFFFFFFFFFFFFFFFFFFFFFFFFFFFFFFFFFFF00FFFFFFFFFFFFFFFFFF00FFFFFFFFFFFFFFFFFFFFFFFFFFFFFFFFFF
310
FFFFFFFF00FFFFFFFFFFFFFFFFFF00FFFFFFFFFFFFFFFFFFFFFFFFFFFFFFFFFFFFFFFFFF00FFFFFFFFFFFFFFFFFF00FFFFFFFFFFFFFFFFFFFFFFFFFFFFFFFFFFFFFFFFFF0000000000000000000000FFFFFFFFFFFFFFFFFFFFFFFFFFFFFFFFFFFFFFFFFFFFFFFFFFFFFFFFFFFFFFFFFFFFFFFFFFFFFFFFFFFFFFFFFFFFFFFF
310
FFFFFFFFFFFFFFFFFFFFFFFFFFFFFFFFFFFFFFFFFFFFFFFFFFFFFFFFFFFFFFFFFFFFFFFFFFFFFFFFFFFFFFFFFFFFFFFFFFFFFFFFFFFFFFFFFFFFFFFFFFFFFFFFFFFFFFFFFFFFFFFFFFFFFFFFFFFFFFFFFFFFFFFFFFFFFFFFFFFFFFFFFFFFFFFFFFFFFFFFFFFFFFFFFFFFFFFFFFFFFFFFFFFFFFFFFFFFFFFFFFFFFFFFFFFFFF
310
FFFFFFFFFFFFFFFFFFFFFFFFFFFFFFFFFFFFFFFFFFFFFFFFFFFFFFFFFFFFFFFFFFFFFFFFFFFFFFFFFFFFFFFFFFFFFFFFFFFFFFFFFFFFFFFFFFFFFFFFFFFFFFFFFFFFFFFFFFFFFFFFFFFFFFFFFFFFFFFFFFFFFFFFFFFFFFFFFFFFFFFFFFFFFFFFFFFFFFFFFFFFFFFFFFFFFFFFFFFFFFFFFFFFFFFFFFFFFFFFFFFFFFFFFFFFFF
310
FFFFFFFFFFFFFFFFFFFFFFFFFFFFFFFFFFFFFFFFFFFFFFFFFFFFFFFFFFFFFFFFFFFFFFFFFFFFFFFFFFFFFFFFFFFFFFFFFFFFFFFFFFFFFFFFFFFFFFFFFFFFFFFFFFFFFFFFFFFFFFFFFFFFFFFFFFFFFFFFFFFFFFFFFFFFFFFFFFFFFFFFFFFFFFFFFFFFFFFFFFFFFFFFFFFFFFFFFFFFFFFFFFFFFFFFFFFFFFFFFFFFFFFFFFFFFF
310
FFFFFFFFFFFFFFFFFFFFFFFFFFFFFFFFFFFFFFFFFFFFFFFFFFFFFFFFFFFFFFFFFFFFFFFFFFFFFFFFFFFFFFFFFFFFFFFFFFFFFFFFFFFFFFFF
102
{BLKREFS
331
2739
102
}
  0
BLOCK_RECORD
  5
2708
330
2438
100
AcDbSymbolTableRecord
100
AcDbBlockTableRecord
  2
AI9-BLK9
340
0
310
2800000020000000200000000100080000000000000400000000000000000000000000000000000000000000000080000080000000808000800000008000800080800000C0C0C000C0DCC000F0CAA6000020400000206000002080000020A0000020C0000020E00000400000004020000040400000406000004080000040A0
310
000040C0000040E00000600000006020000060400000606000006080000060A0000060C0000060E00000800000008020000080400000806000008080000080A0000080C0000080E00000A0000000A0200000A0400000A0600000A0800000A0A00000A0C00000A0E00000C0000000C0200000C0400000C0600000C0800000C0
310
A00000C0C00000C0E00000E0000000E0200000E0400000E0600000E0800000E0A00000E0C00000E0E00040000000400020004000400040006000400080004000A0004000C0004000E00040200000402020004020400040206000402080004020A0004020C0004020E000404000004040200040404000404060004040800040
310
40A0004040C0004040E00040600000406020004060400040606000406080004060A0004060C0004060E00040800000408020004080400040806000408080004080A0004080C0004080E00040A0000040A0200040A0400040A0600040A0800040A0A00040A0C00040A0E00040C0000040C0200040C0400040C0600040C08000
310
40C0A00040C0C00040C0E00040E0000040E0200040E0400040E0600040E0800040E0A00040E0C00040E0E00080000000800020008000400080006000800080008000A0008000C0008000E00080200000802020008020400080206000802080008020A0008020C0008020E00080400000804020008040400080406000804080
310
008040A0008040C0008040E00080600000806020008060400080606000806080008060A0008060C0008060E00080800000808020008080400080806000808080008080A0008080C0008080E00080A0000080A0200080A0400080A0600080A0800080A0A00080A0C00080A0E00080C0000080C0200080C0400080C0600080C0
310
800080C0A00080C0C00080C0E00080E0000080E0200080E0400080E0600080E0800080E0A00080E0C00080E0E000C0000000C0002000C0004000C0006000C0008000C000A000C000C000C000E000C0200000C0202000C0204000C0206000C0208000C020A000C020C000C020E000C0400000C0402000C0404000C0406000C0
310
408000C040A000C040C000C040E000C0600000C0602000C0604000C0606000C0608000C060A000C060C000C060E000C0800000C0802000C0804000C0806000C0808000C080A000C080C000C080E000C0A00000C0A02000C0A04000C0A06000C0A08000C0A0A000C0A0C000C0A0E000C0C00000C0C02000C0C04000C0C06000
310
C0C08000C0C0A000F0FBFF00A4A0A000808080000000FF0000FF000000FFFF00FF000000FF00FF00FFFF0000FFFFFF00FFFFFFFFFFFFFFFFFFFFFFFFFFFFFFFFFFFFFFFFFFFFFFFFFFFFFFFFFFFFFFFFFFFFFFFFFFFFFFFFFFFFFFFFFFFFFF0000FFFFFFFFFFFFFFFFFFFFFFFFFFFFFFFFFFFFFFFFFFFFFFFFFFFFFFFF0000
310
FF0000FFFFFFFFFFFFFFFFFFFFFFFFFFFFFFFFFFFFFFFFFFFFFFFFFFFFFF00FFFFFF0000FFFFFFFFFFFFFFFFFFFFFFFFFFFFFFFFFFFFFFFFFFFFFFFFFFFF00FFFFFFFF0000FFFFFFFFFFFFFFFFFFFFFFFFFFFFFFFFFFFFFFFFFFFFFFFF00FF00000000FF00FFFFFFFFFFFFFFFFFFFFFFFFFFFFFFFFFFFFFFFFFFFFFFFF0000
310
00FFFF00FF00FFFFFFFFFFFFFFFFFFFFFFFFFFFFFFFFFFFFFFFFFFFFFFFF0000FFFFFFFF0000FFFFFFFFFFFFFFFFFFFFFFFFFFFFFFFFFFFFFFFFFFFFFFFF0000FFFFFFFF0000FFFFFFFFFFFFFFFFFFFFFFFFFFFFFFFFFFFFFFFFFFFFFF00FF00FFFFFFFF00FF00FFFFFFFFFFFFFFFFFFFFFFFFFFFFFFFFFFFFFFFFFFFF0000
310
FFFFFFFFFF00FF00FFFFFFFFFFFFFFFFFFFFFFFFFFFFFFFFFFFFFFFFFFFF0000FFFFFFFFFFFF0000FFFFFFFFFFFFFFFFFFFFFFFFFFFFFFFFFFFFFFFFFFFF0000FFFFFFFFFFFF0000FFFFFFFFFFFFFFFFFFFFFFFFFFFFFFFFFFFFFFFFFFFF0000FFFFFFFFFFFF0000FFFFFFFFFFFFFFFFFFFFFFFFFFFFFFFFFFFFFFFFFFFF00
310
00FFFFFFFFFFFF0000FFFFFFFFFFFFFFFFFFFFFFFFFFFFFFFFFFFFFFFFFFFF0000FFFFFFFFFFFF0000FFFFFFFFFFFFFFFFFFFFFFFFFFFFFFFFFFFFFFFFFFFF0000FFFFFFFFFFFF0000FFFFFFFFFFFFFFFFFFFFFFFFFFFFFFFFFFFFFFFFFFFF0000FFFFFFFFFFFF0000FFFFFFFFFFFFFFFFFFFFFFFFFFFFFFFFFFFFFFFFFFFF
310
0000FFFFFFFFFFFF0000FFFFFFFFFFFFFFFFFFFFFFFFFFFFFFFFFFFFFFFFFFFF0000FFFFFFFFFFFF0000FFFFFFFFFFFFFFFFFFFFFFFFFFFFFFFFFFFFFFFFFFFF0000FFFFFFFFFFFF0000FFFFFFFFFFFFFFFFFFFFFFFFFFFFFFFFFFFFFFFFFFFF00FF00FFFFFFFF00FF00FFFFFFFFFFFFFFFFFFFFFFFFFFFFFFFFFFFFFFFFFF
310
FF00FF00FFFFFFFF00FF00FFFFFFFFFFFFFFFFFFFFFFFFFFFFFFFFFFFFFFFFFFFF00FF00FFFFFFFF00FF00FFFFFFFFFFFFFFFFFFFFFFFFFFFFFFFFFFFFFFFFFFFFFF0000FFFFFFFF0000FFFFFFFFFFFFFFFFFFFFFFFFFFFFFFFFFFFFFFFFFFFFFFFF00FF00FFFF00FF00FFFFFFFFFFFFFFFFFFFFFFFFFFFFFFFFFFFFFFFFFF
310
FFFFFF00FF00000000FF00FFFFFFFFFFFFFFFFFFFFFFFFFFFFFFFFFFFFFFFFFFFFFFFFFF00FFFFFFFF0000FFFFFFFFFFFFFFFFFFFFFFFFFFFFFFFFFFFFFFFFFFFFFFFFFF00FFFFFFFF00FFFFFFFFFFFFFFFFFFFFFFFFFFFFFFFFFFFFFFFFFFFFFFFFFFFFFF00000000FFFFFFFFFFFFFFFFFFFFFFFFFFFFFFFFFFFFFFFFFFFF
310
FFFFFFFFFFFFFF0000FFFFFFFFFFFFFFFFFFFFFFFFFFFFFFFFFFFFFFFFFFFFFFFFFFFFFFFFFFFFFFFFFFFFFFFFFFFFFFFFFFFFFFFFFFFFFF
102
{BLKREFS
331
273A
102
}
  0
BLOCK_RECORD
  5
270D
330
2438
100
AcDbSymbolTableRecord
100
AcDbBlockTableRecord
  2
AI9-BLK8
340
0
310
2800000020000000200000000100080000000000000400000000000000000000000000000000000000000000000080000080000000808000800000008000800080800000C0C0C000C0DCC000F0CAA6000020400000206000002080000020A0000020C0000020E00000400000004020000040400000406000004080000040A0
310
000040C0000040E00000600000006020000060400000606000006080000060A0000060C0000060E00000800000008020000080400000806000008080000080A0000080C0000080E00000A0000000A0200000A0400000A0600000A0800000A0A00000A0C00000A0E00000C0000000C0200000C0400000C0600000C0800000C0
310
A00000C0C00000C0E00000E0000000E0200000E0400000E0600000E0800000E0A00000E0C00000E0E00040000000400020004000400040006000400080004000A0004000C0004000E00040200000402020004020400040206000402080004020A0004020C0004020E000404000004040200040404000404060004040800040
310
40A0004040C0004040E00040600000406020004060400040606000406080004060A0004060C0004060E00040800000408020004080400040806000408080004080A0004080C0004080E00040A0000040A0200040A0400040A0600040A0800040A0A00040A0C00040A0E00040C0000040C0200040C0400040C0600040C08000
310
40C0A00040C0C00040C0E00040E0000040E0200040E0400040E0600040E0800040E0A00040E0C00040E0E00080000000800020008000400080006000800080008000A0008000C0008000E00080200000802020008020400080206000802080008020A0008020C0008020E00080400000804020008040400080406000804080
310
008040A0008040C0008040E00080600000806020008060400080606000806080008060A0008060C0008060E00080800000808020008080400080806000808080008080A0008080C0008080E00080A0000080A0200080A0400080A0600080A0800080A0A00080A0C00080A0E00080C0000080C0200080C0400080C0600080C0
310
800080C0A00080C0C00080C0E00080E0000080E0200080E0400080E0600080E0800080E0A00080E0C00080E0E000C0000000C0002000C0004000C0006000C0008000C000A000C000C000C000E000C0200000C0202000C0204000C0206000C0208000C020A000C020C000C020E000C0400000C0402000C0404000C0406000C0
310
408000C040A000C040C000C040E000C0600000C0602000C0604000C0606000C0608000C060A000C060C000C060E000C0800000C0802000C0804000C0806000C0808000C080A000C080C000C080E000C0A00000C0A02000C0A04000C0A06000C0A08000C0A0A000C0A0C000C0A0E000C0C00000C0C02000C0C04000C0C06000
310
C0C08000C0C0A000F0FBFF00A4A0A000808080000000FF0000FF000000FFFF00FF000000FF00FF00FFFF0000FFFFFF00FFFFFFFFFFFFFFFFFFFFFFFFFFFFFFFFFFFFFFFFFFFFFFFFFFFFFFFFFFFFFFFFFFFFFFFFFFFFFFFFFFFFFF0000FFFFFFFFFFFF0000FFFFFFFFFFFFFFFFFFFFFFFFFFFFFFFFFFFFFFFFFFFF0000FFFF
310
FFFFFFFF0000FFFFFFFFFFFFFFFFFFFFFFFFFFFFFFFFFFFFFFFFFFFF0000FFFFFFFFFF00FF00FFFFFFFFFFFFFFFFFFFFFFFFFFFFFFFFFFFFFFFFFFFF0000FFFFFFFFFF00FF00FFFFFFFFFFFFFFFFFFFFFFFFFFFFFFFFFFFFFFFFFFFF0000FFFFFFFFFF00FF00FFFFFFFFFFFFFFFFFFFFFFFFFFFFFFFFFFFFFFFFFFFF0000FF
310
FFFFFF00FFFF00FFFFFFFFFFFFFFFFFFFFFFFFFFFFFFFFFFFFFFFFFFFF0000FFFFFFFF00FF0000FFFFFFFFFFFFFFFFFFFFFFFFFFFFFFFFFFFFFFFFFFFF0000FFFFFFFF00FF0000FFFFFFFFFFFFFFFFFFFFFFFFFFFFFFFFFFFFFFFFFFFF0000FFFFFFFF00000000FFFFFFFFFFFFFFFFFFFFFFFFFFFFFFFFFFFFFFFFFFFF0000
310
FFFFFF00FF000000FFFFFFFFFFFFFFFFFFFFFFFFFFFFFFFFFFFFFFFFFFFF0000FFFFFF00FF000000FFFFFFFFFFFFFFFFFFFFFFFFFFFFFFFFFFFFFFFFFFFF0000FFFFFF00FF000000FFFFFFFFFFFFFFFFFFFFFFFFFFFFFFFFFFFFFFFFFFFF0000FFFF00FF00FF0000FFFFFFFFFFFFFFFFFFFFFFFFFFFFFFFFFFFFFFFFFFFF00
310
00FFFF00FF00FF0000FFFFFFFFFFFFFFFFFFFFFFFFFFFFFFFFFFFFFFFFFFFF0000FFFF00FF00FF0000FFFFFFFFFFFFFFFFFFFFFFFFFFFFFFFFFFFFFFFFFFFF0000FF00FFFF00FF0000FFFFFFFFFFFFFFFFFFFFFFFFFFFFFFFFFFFFFFFFFFFF0000FF00FF00FFFF0000FFFFFFFFFFFFFFFFFFFFFFFFFFFFFFFFFFFFFFFFFFFF
310
0000FF00FF00FFFF0000FFFFFFFFFFFFFFFFFFFFFFFFFFFFFFFFFFFFFFFFFFFF0000FF00FF00FFFF0000FFFFFFFFFFFFFFFFFFFFFFFFFFFFFFFFFFFFFFFFFFFF000000FFFF00FFFF0000FFFFFFFFFFFFFFFFFFFFFFFFFFFFFFFFFFFFFFFFFFFF000000FF00FFFFFF0000FFFFFFFFFFFFFFFFFFFFFFFFFFFFFFFFFFFFFFFFFF
310
FF000000FF00FFFFFF0000FFFFFFFFFFFFFFFFFFFFFFFFFFFFFFFFFFFFFFFFFFFF0000FFFF00FFFFFF0000FFFFFFFFFFFFFFFFFFFFFFFFFFFFFFFFFFFFFFFFFFFF0000FFFF00FFFFFF0000FFFFFFFFFFFFFFFFFFFFFFFFFFFFFFFFFFFFFFFFFFFF00FFFF00FFFFFFFF0000FFFFFFFFFFFFFFFFFFFFFFFFFFFFFFFFFFFFFFFF
310
FFFF00FFFF00FFFFFFFF0000FFFFFFFFFFFFFFFFFFFFFFFFFFFFFFFFFFFFFFFFFFFF00FFFF00FFFFFFFF0000FFFFFFFFFFFFFFFFFFFFFFFFFFFFFFFFFFFFFFFFFFFF00FFFF00FFFFFFFF0000FFFFFFFFFFFFFFFFFFFFFFFFFFFFFFFFFFFFFFFFFFFF00FF00FFFFFFFFFF0000FFFFFFFFFFFFFFFFFFFFFFFFFFFFFFFFFFFFFF
310
FFFFFF000000FFFFFFFFFF0000FFFFFFFFFFFFFFFFFFFFFFFFFFFFFFFFFFFFFFFFFFFFFFFFFFFFFFFFFFFFFFFFFFFFFFFFFFFFFFFFFFFFFF
102
{BLKREFS
331
273B
102
}
  0
BLOCK_RECORD
  5
2712
330
2438
100
AcDbSymbolTableRecord
100
AcDbBlockTableRecord
  2
AI9-BLK7
340
0
310
2800000020000000200000000100080000000000000400000000000000000000000000000000000000000000000080000080000000808000800000008000800080800000C0C0C000C0DCC000F0CAA6000020400000206000002080000020A0000020C0000020E00000400000004020000040400000406000004080000040A0
310
000040C0000040E00000600000006020000060400000606000006080000060A0000060C0000060E00000800000008020000080400000806000008080000080A0000080C0000080E00000A0000000A0200000A0400000A0600000A0800000A0A00000A0C00000A0E00000C0000000C0200000C0400000C0600000C0800000C0
310
A00000C0C00000C0E00000E0000000E0200000E0400000E0600000E0800000E0A00000E0C00000E0E00040000000400020004000400040006000400080004000A0004000C0004000E00040200000402020004020400040206000402080004020A0004020C0004020E000404000004040200040404000404060004040800040
310
40A0004040C0004040E00040600000406020004060400040606000406080004060A0004060C0004060E00040800000408020004080400040806000408080004080A0004080C0004080E00040A0000040A0200040A0400040A0600040A0800040A0A00040A0C00040A0E00040C0000040C0200040C0400040C0600040C08000
310
40C0A00040C0C00040C0E00040E0000040E0200040E0400040E0600040E0800040E0A00040E0C00040E0E00080000000800020008000400080006000800080008000A0008000C0008000E00080200000802020008020400080206000802080008020A0008020C0008020E00080400000804020008040400080406000804080
310
008040A0008040C0008040E00080600000806020008060400080606000806080008060A0008060C0008060E00080800000808020008080400080806000808080008080A0008080C0008080E00080A0000080A0200080A0400080A0600080A0800080A0A00080A0C00080A0E00080C0000080C0200080C0400080C0600080C0
310
800080C0A00080C0C00080C0E00080E0000080E0200080E0400080E0600080E0800080E0A00080E0C00080E0E000C0000000C0002000C0004000C0006000C0008000C000A000C000C000C000E000C0200000C0202000C0204000C0206000C0208000C020A000C020C000C020E000C0400000C0402000C0404000C0406000C0
310
408000C040A000C040C000C040E000C0600000C0602000C0604000C0606000C0608000C060A000C060C000C060E000C0800000C0802000C0804000C0806000C0808000C080A000C080C000C080E000C0A00000C0A02000C0A04000C0A06000C0A08000C0A0A000C0A0C000C0A0E000C0C00000C0C02000C0C04000C0C06000
310
C0C08000C0C0A000F0FBFF00A4A0A000808080000000FF0000FF000000FFFF00FF000000FF00FF00FFFF0000FFFFFF00FFFFFFFFFFFFFFFFFFFFFFFFFFFFFFFFFFFFFFFFFFFFFFFFFFFFFFFFFFFFFFFFFFFFFFFFFFFFFFFFFFFFFFFFFFFFFF0000FFFFFFFFFFFFFFFFFFFFFFFFFFFFFFFFFFFFFFFFFFFFFFFFFFFFFFFFFFFF
310
0000FFFFFFFFFFFFFFFFFFFFFFFFFFFFFFFFFFFFFFFFFFFFFFFFFFFFFFFFFFFF0000FFFFFFFFFFFFFFFFFFFFFFFFFFFFFFFFFFFFFFFFFFFFFFFFFFFFFFFFFFFF0000FFFFFFFFFFFFFFFFFFFFFFFFFFFFFFFFFFFFFFFFFFFFFFFFFFFFFFFFFFFF0000FFFFFFFFFFFFFFFFFFFFFFFFFFFFFFFFFFFFFFFFFFFFFFFFFFFFFFFFFF
310
FF0000FFFFFFFFFFFFFFFFFFFFFFFFFFFFFFFFFFFFFFFFFFFFFFFFFFFFFFFFFFFF0000FFFFFFFFFFFFFFFFFFFFFFFFFFFFFFFFFFFFFFFFFFFFFFFFFFFFFFFFFFFF0000FFFFFFFFFFFFFFFFFFFFFFFFFFFFFFFFFFFFFFFFFFFFFFFFFFFFFFFFFFFF0000FFFFFFFFFFFFFFFFFFFFFFFFFFFFFFFFFFFFFFFFFFFFFFFFFFFFFFFF
310
FFFF0000FFFFFFFFFFFFFFFFFFFFFFFFFFFFFFFFFFFFFFFFFFFFFFFFFFFFFFFFFFFF0000FFFFFFFFFFFFFFFFFFFFFFFFFFFFFFFFFFFFFFFFFFFFFFFFFFFFFFFFFFFF0000FFFFFFFFFFFFFFFFFFFFFFFFFFFFFFFFFFFFFFFFFFFFFFFFFFFFFFFFFFFF0000FFFFFFFFFFFFFFFFFFFFFFFFFFFFFFFFFFFFFFFFFFFFFFFFFFFFFF
310
FFFFFF0000FFFFFFFFFFFFFFFFFFFFFFFFFFFFFFFFFFFFFFFFFFFFFFFFFFFFFFFFFFFF0000FFFFFFFFFFFFFFFFFFFFFFFFFFFFFFFFFFFFFFFFFFFFFFFFFFFFFFFFFFFF0000FFFFFFFFFFFFFFFFFFFFFFFFFFFFFFFFFFFFFFFFFFFFFFFFFFFFFFFFFFFF0000FFFFFFFFFFFFFFFFFFFFFFFFFFFFFFFFFFFFFFFFFFFFFFFFFFFF
310
FFFFFFFF0000FFFFFFFFFFFFFFFFFFFFFFFFFFFFFFFFFFFFFFFFFFFFFFFFFFFFFFFFFFFF0000FFFFFFFFFFFFFFFFFFFFFFFFFFFFFFFFFFFFFFFFFFFFFFFFFFFFFFFFFFFF0000FFFFFFFFFFFFFFFFFFFFFFFFFFFFFFFFFFFFFFFFFFFFFFFFFFFFFFFFFFFF0000FFFFFFFFFFFFFFFFFFFFFFFFFFFFFFFFFFFFFFFFFFFFFFFFFF
310
FFFFFFFFFF0000FFFFFFFFFFFFFFFFFFFFFFFFFFFFFFFFFFFFFFFFFFFFFFFFFFFFFFFFFFFF0000FFFFFFFFFFFFFFFFFFFFFFFFFFFFFFFFFFFFFFFFFFFFFFFFFFFFFFFFFFFF0000FFFFFFFFFFFFFFFFFFFFFFFFFFFFFFFFFFFFFFFFFFFFFFFFFFFFFFFFFFFF0000FFFFFFFFFFFFFFFFFFFFFFFFFFFFFFFFFFFFFFFFFFFFFFFF
310
FFFFFFFFFFFF0000FFFFFFFFFFFFFFFFFFFFFFFFFFFFFFFFFFFFFFFFFFFFFFFFFFFFFFFFFFFF0000FFFFFFFFFFFFFFFFFFFFFFFFFFFFFFFFFFFFFFFFFFFFFFFFFFFFFFFFFFFF0000FFFFFFFFFFFFFFFFFFFFFFFFFFFFFFFFFFFFFFFFFFFFFFFFFFFFFFFFFFFF0000FFFFFFFFFFFFFFFFFFFFFFFFFFFFFFFFFFFFFFFFFFFFFF
310
FFFFFFFFFFFFFF0000FFFFFFFFFFFFFFFFFFFFFFFFFFFFFFFFFFFFFFFFFFFFFFFFFFFFFFFFFFFFFFFFFFFFFFFFFFFFFFFFFFFFFFFFFFFFFF
102
{BLKREFS
331
273C
102
}
  0
BLOCK_RECORD
  5
2717
330
2438
100
AcDbSymbolTableRecord
100
AcDbBlockTableRecord
  2
AI9-BLK6
340
0
310
2800000020000000200000000100080000000000000400000000000000000000000000000000000000000000000080000080000000808000800000008000800080800000C0C0C000C0DCC000F0CAA6000020400000206000002080000020A0000020C0000020E00000400000004020000040400000406000004080000040A0
310
000040C0000040E00000600000006020000060400000606000006080000060A0000060C0000060E00000800000008020000080400000806000008080000080A0000080C0000080E00000A0000000A0200000A0400000A0600000A0800000A0A00000A0C00000A0E00000C0000000C0200000C0400000C0600000C0800000C0
310
A00000C0C00000C0E00000E0000000E0200000E0400000E0600000E0800000E0A00000E0C00000E0E00040000000400020004000400040006000400080004000A0004000C0004000E00040200000402020004020400040206000402080004020A0004020C0004020E000404000004040200040404000404060004040800040
310
40A0004040C0004040E00040600000406020004060400040606000406080004060A0004060C0004060E00040800000408020004080400040806000408080004080A0004080C0004080E00040A0000040A0200040A0400040A0600040A0800040A0A00040A0C00040A0E00040C0000040C0200040C0400040C0600040C08000
310
40C0A00040C0C00040C0E00040E0000040E0200040E0400040E0600040E0800040E0A00040E0C00040E0E00080000000800020008000400080006000800080008000A0008000C0008000E00080200000802020008020400080206000802080008020A0008020C0008020E00080400000804020008040400080406000804080
310
008040A0008040C0008040E00080600000806020008060400080606000806080008060A0008060C0008060E00080800000808020008080400080806000808080008080A0008080C0008080E00080A0000080A0200080A0400080A0600080A0800080A0A00080A0C00080A0E00080C0000080C0200080C0400080C0600080C0
310
800080C0A00080C0C00080C0E00080E0000080E0200080E0400080E0600080E0800080E0A00080E0C00080E0E000C0000000C0002000C0004000C0006000C0008000C000A000C000C000C000E000C0200000C0202000C0204000C0206000C0208000C020A000C020C000C020E000C0400000C0402000C0404000C0406000C0
310
408000C040A000C040C000C040E000C0600000C0602000C0604000C0606000C0608000C060A000C060C000C060E000C0800000C0802000C0804000C0806000C0808000C080A000C080C000C080E000C0A00000C0A02000C0A04000C0A06000C0A08000C0A0A000C0A0C000C0A0E000C0C00000C0C02000C0C04000C0C06000
310
C0C08000C0C0A000F0FBFF00A4A0A000808080000000FF0000FF000000FFFF00FF000000FF00FF00FFFF0000FFFFFF00FFFFFFFFFFFFFFFFFFFFFFFF00FFFFFFFFFFFFFF00FFFFFFFFFFFFFFFFFFFFFFFFFFFFFFFFFFFFFFFFFFFFFF00FFFFFFFFFFFFFF00FFFFFFFFFFFFFFFFFFFFFFFFFFFFFFFFFFFFFFFFFFFFFF00FFFF
310
FFFFFFFFFF00FFFFFFFFFFFFFFFFFFFFFFFFFFFFFFFFFFFFFFFFFFFF00FFFFFFFFFFFFFFFF00FFFFFFFFFFFFFFFFFFFFFFFFFFFFFFFFFFFFFFFFFFFF00FFFFFFFFFFFFFF00FFFFFFFFFFFFFFFFFFFFFFFFFFFFFFFFFFFFFFFFFFFFFF00FFFFFFFFFFFFFF00FFFFFFFFFFFFFFFFFFFFFFFFFFFFFFFFFFFFFFFFFFFF00FFFFFF
310
FFFFFFFFFF00FFFFFFFFFFFFFFFFFFFFFFFFFFFFFFFFFFFFFFFFFFFF00FFFFFFFFFFFFFF00FFFFFFFFFFFFFFFFFFFFFFFFFFFFFFFFFFFFFFFFFFFF00FFFFFFFFFFFFFFFF00FFFFFFFFFFFFFFFFFFFFFFFFFFFFFFFFFFFFFFFFFF00FFFFFFFFFFFFFFFFFF00FFFFFFFFFFFFFFFFFFFFFFFFFFFFFFFFFFFFFFFF00FFFFFFFFFF
310
FFFFFFFFFF00FFFFFFFFFFFFFFFFFFFFFFFFFFFFFFFFFFFFFF00FFFFFFFFFFFFFFFFFFFF00FFFFFFFFFFFFFFFFFFFFFFFFFFFFFFFFFFFF0000FFFFFFFFFFFFFFFFFFFFFF00FFFFFFFFFFFFFFFFFFFFFFFFFFFF00000000FFFFFFFFFFFFFFFFFFFFFFFFFF00FFFFFFFFFFFFFFFFFFFFFFFFFFFFFFFFFFFFFFFFFFFFFFFFFFFF
310
FFFFFFFF00FFFFFFFFFFFFFFFFFFFFFFFFFFFFFFFFFFFFFFFFFFFFFFFFFFFFFFFFFFFFFF00FFFFFFFFFFFFFFFFFFFFFFFFFFFFFFFFFFFFFFFFFFFFFFFFFFFFFFFFFFFFFF00FFFFFFFFFFFFFFFFFFFFFFFFFFFFFFFFFFFFFFFFFFFFFFFFFFFFFFFFFFFF00FFFFFFFFFFFFFFFFFFFFFFFFFFFFFFFFFFFFFFFFFFFFFFFFFFFFFF
310
FFFFFFFF00FFFFFFFFFFFFFFFFFFFFFFFFFFFFFFFFFFFFFFFFFFFFFFFFFFFFFFFFFFFF00FFFFFFFFFFFFFFFFFFFFFFFFFFFFFFFFFFFFFFFFFFFFFFFFFFFFFFFFFFFF00FFFFFFFFFFFFFFFFFFFFFFFFFFFFFFFFFFFFFFFFFFFFFFFFFFFFFFFFFFFF00FFFFFFFFFFFFFFFFFFFFFFFFFFFFFFFFFFFFFFFFFFFFFFFFFFFFFFFFFF
310
FF00FFFFFFFFFFFFFFFFFFFFFFFFFFFFFFFFFFFFFFFFFFFFFFFFFFFFFFFFFFFFFF00FFFFFFFFFFFFFFFFFFFFFFFFFFFFFFFFFFFFFFFFFFFFFFFFFFFFFFFFFFFF00FFFFFFFFFFFFFFFFFFFFFFFFFFFFFFFFFFFFFFFFFFFFFFFFFFFFFFFFFF0000FFFFFFFFFFFFFFFFFFFFFFFFFFFFFFFFFFFFFFFFFFFFFFFFFFFFFFFF0000FF
310
FFFFFFFFFFFFFFFFFFFFFFFFFFFFFFFFFFFFFFFFFFFFFFFFFF00000000FFFFFFFFFFFFFFFFFFFFFFFFFFFFFFFFFFFFFFFFFFFFFFFFFFFF0000FFFFFFFFFFFFFFFFFFFFFFFFFFFFFFFFFFFFFFFFFFFFFFFFFFFFFFFFFFFFFFFFFFFFFFFFFFFFFFFFFFFFFFFFFFFFFFFFFFFFFFFFFFFFFFFFFFFFFFFFFFFFFFFFFFFFFFFFFFFF
310
FFFFFFFFFFFFFFFFFFFFFFFFFFFFFFFFFFFFFFFFFFFFFFFFFFFFFFFFFFFFFFFFFFFFFFFFFFFFFFFFFFFFFFFFFFFFFFFFFFFFFFFFFFFFFFFF
102
{BLKREFS
331
273D
102
}
  0
BLOCK_RECORD
  5
271B
330
2438
100
AcDbSymbolTableRecord
100
AcDbBlockTableRecord
  2
AI9-BLK5
340
0
310
2800000020000000200000000100080000000000000400000000000000000000000000000000000000000000000080000080000000808000800000008000800080800000C0C0C000C0DCC000F0CAA6000020400000206000002080000020A0000020C0000020E00000400000004020000040400000406000004080000040A0
310
000040C0000040E00000600000006020000060400000606000006080000060A0000060C0000060E00000800000008020000080400000806000008080000080A0000080C0000080E00000A0000000A0200000A0400000A0600000A0800000A0A00000A0C00000A0E00000C0000000C0200000C0400000C0600000C0800000C0
310
A00000C0C00000C0E00000E0000000E0200000E0400000E0600000E0800000E0A00000E0C00000E0E00040000000400020004000400040006000400080004000A0004000C0004000E00040200000402020004020400040206000402080004020A0004020C0004020E000404000004040200040404000404060004040800040
310
40A0004040C0004040E00040600000406020004060400040606000406080004060A0004060C0004060E00040800000408020004080400040806000408080004080A0004080C0004080E00040A0000040A0200040A0400040A0600040A0800040A0A00040A0C00040A0E00040C0000040C0200040C0400040C0600040C08000
310
40C0A00040C0C00040C0E00040E0000040E0200040E0400040E0600040E0800040E0A00040E0C00040E0E00080000000800020008000400080006000800080008000A0008000C0008000E00080200000802020008020400080206000802080008020A0008020C0008020E00080400000804020008040400080406000804080
310
008040A0008040C0008040E00080600000806020008060400080606000806080008060A0008060C0008060E00080800000808020008080400080806000808080008080A0008080C0008080E00080A0000080A0200080A0400080A0600080A0800080A0A00080A0C00080A0E00080C0000080C0200080C0400080C0600080C0
310
800080C0A00080C0C00080C0E00080E0000080E0200080E0400080E0600080E0800080E0A00080E0C00080E0E000C0000000C0002000C0004000C0006000C0008000C000A000C000C000C000E000C0200000C0202000C0204000C0206000C0208000C020A000C020C000C020E000C0400000C0402000C0404000C0406000C0
310
408000C040A000C040C000C040E000C0600000C0602000C0604000C0606000C0608000C060A000C060C000C060E000C0800000C0802000C0804000C0806000C0808000C080A000C080C000C080E000C0A00000C0A02000C0A04000C0A06000C0A08000C0A0A000C0A0C000C0A0E000C0C00000C0C02000C0C04000C0C06000
310
C0C08000C0C0A000F0FBFF00A4A0A000808080000000FF0000FF000000FFFF00FF000000FF00FF00FFFF0000FFFFFF00FFFFFFFFFFFFFFFFFFFFFFFFFFFFFFFFFFFFFFFFFFFFFFFFFFFFFFFFFFFFFFFFFFFFFFFFFFFFFFFF000000000000000000000000000000000000000000000000FFFFFFFFFFFFFFFF00FFFFFFFFFFFF
310
FFFFFFFFFFFFFFFFFFFFFFFFFFFFFFFFFFFFFFFFFFFFFFFFFF00FFFFFFFFFFFFFFFFFFFFFFFFFFFFFFFFFFFFFFFFFFFFFFFFFFFFFFFFFFFFFF00FFFFFFFFFFFFFFFFFFFFFFFFFFFFFFFFFFFFFFFFFFFFFFFFFFFFFFFFFFFFFF00FFFFFFFFFFFFFFFFFFFFFFFFFFFFFFFFFFFFFFFFFFFFFFFFFFFFFFFFFFFFFF00FFFFFFFFFF
310
FFFFFFFFFFFFFFFFFFFFFFFFFFFFFFFFFFFFFFFFFFFFFFFFFFFF00FFFFFFFFFFFFFFFFFFFFFFFFFFFFFFFFFFFFFFFFFFFFFFFFFFFFFFFFFFFFFF00FFFFFFFFFFFFFFFFFFFFFFFFFFFFFFFFFFFFFFFFFFFFFFFFFFFFFFFFFFFFFF00FFFFFFFFFFFFFFFFFFFFFFFFFFFFFFFFFFFFFFFFFFFFFFFFFFFFFFFFFFFFFF00FFFFFFFF
310
FFFFFFFFFFFFFFFFFFFFFFFFFFFFFFFFFFFFFFFFFFFFFFFFFFFFFF00FFFFFFFFFFFFFFFFFFFFFFFFFFFFFFFFFFFFFFFFFFFFFFFFFFFFFFFFFFFFFF00FFFFFFFFFFFFFFFFFFFFFFFFFFFFFFFFFFFFFFFFFFFFFFFFFFFFFFFFFFFFFF00FFFFFFFFFFFFFFFFFFFFFFFFFFFFFFFFFFFFFFFFFFFFFFFFFFFFFFFFFFFFFF00FFFFFF
310
FFFFFFFFFFFFFFFFFFFFFFFFFFFFFFFFFFFFFFFFFFFFFFFFFFFFFFFF00FFFFFFFFFFFFFFFFFFFFFFFFFFFFFFFFFFFFFFFFFFFFFFFFFFFFFFFFFFFFFF00FFFFFFFFFFFFFFFFFFFFFFFFFFFFFFFFFFFFFFFFFFFFFFFFFFFFFFFFFFFFFF00FFFFFFFFFFFFFFFFFFFFFFFFFFFFFFFFFFFFFFFFFFFFFFFFFFFFFFFFFFFFFF00FFFF
310
FFFFFFFFFFFFFFFFFFFFFFFFFFFFFFFFFFFFFFFFFFFFFFFFFFFFFFFFFF00FFFFFFFFFFFFFFFFFFFFFFFFFFFFFFFFFFFFFFFFFFFFFFFFFFFFFFFFFFFFFF00FFFFFFFFFFFFFFFFFFFFFFFFFFFFFFFFFFFFFFFFFFFFFFFFFFFFFFFFFFFFFF00FFFFFFFFFFFFFFFFFFFFFFFFFFFFFFFFFFFFFFFFFFFFFFFFFFFFFFFFFFFFFF00FF
310
FFFFFFFFFFFFFFFFFFFFFFFFFFFFFFFFFFFFFFFFFFFFFFFFFFFFFFFFFFFF00FFFFFFFFFFFFFFFFFFFFFFFFFFFFFFFFFFFFFFFFFFFFFFFFFFFFFFFFFFFFFF00FFFFFFFFFFFFFFFFFFFFFFFFFFFFFFFFFFFFFFFFFFFFFFFFFFFFFFFFFFFFFF00FFFFFFFFFFFFFFFFFFFFFFFFFFFFFFFFFFFFFFFFFFFFFFFFFFFFFFFFFFFFFF00
310
FFFFFFFFFFFFFFFFFFFFFFFFFFFFFFFFFFFFFFFFFFFFFFFFFFFFFFFFFFFFFF00FFFFFFFFFFFFFFFFFFFFFFFFFFFFFFFFFFFFFFFFFFFFFFFFFFFFFFFFFFFFFF00FFFFFFFFFFFFFFFFFFFFFFFFFFFFFFFFFFFFFFFFFFFFFFFFFFFFFFFFFFFFFF00FFFFFFFFFFFFFFFFFFFFFFFFFFFFFFFFFFFFFFFFFFFFFFFFFFFFFFFFFFFFFF
310
00FFFFFFFFFFFFFFFFFFFFFFFFFFFF000000000000000000FFFFFFFFFFFFFFFF00FFFFFFFFFFFFFFFFFFFFFFFFFFFF00FFFFFFFFFFFFFFFF
102
{BLKREFS
331
273E
102
}
  0
BLOCK_RECORD
  5
2720
330
2438
100
AcDbSymbolTableRecord
100
AcDbBlockTableRecord
  2
AI9-BLK4
340
0
310
2800000020000000200000000100080000000000000400000000000000000000000000000000000000000000000080000080000000808000800000008000800080800000C0C0C000C0DCC000F0CAA6000020400000206000002080000020A0000020C0000020E00000400000004020000040400000406000004080000040A0
310
000040C0000040E00000600000006020000060400000606000006080000060A0000060C0000060E00000800000008020000080400000806000008080000080A0000080C0000080E00000A0000000A0200000A0400000A0600000A0800000A0A00000A0C00000A0E00000C0000000C0200000C0400000C0600000C0800000C0
310
A00000C0C00000C0E00000E0000000E0200000E0400000E0600000E0800000E0A00000E0C00000E0E00040000000400020004000400040006000400080004000A0004000C0004000E00040200000402020004020400040206000402080004020A0004020C0004020E000404000004040200040404000404060004040800040
310
40A0004040C0004040E00040600000406020004060400040606000406080004060A0004060C0004060E00040800000408020004080400040806000408080004080A0004080C0004080E00040A0000040A0200040A0400040A0600040A0800040A0A00040A0C00040A0E00040C0000040C0200040C0400040C0600040C08000
310
40C0A00040C0C00040C0E00040E0000040E0200040E0400040E0600040E0800040E0A00040E0C00040E0E00080000000800020008000400080006000800080008000A0008000C0008000E00080200000802020008020400080206000802080008020A0008020C0008020E00080400000804020008040400080406000804080
310
008040A0008040C0008040E00080600000806020008060400080606000806080008060A0008060C0008060E00080800000808020008080400080806000808080008080A0008080C0008080E00080A0000080A0200080A0400080A0600080A0800080A0A00080A0C00080A0E00080C0000080C0200080C0400080C0600080C0
310
800080C0A00080C0C00080C0E00080E0000080E0200080E0400080E0600080E0800080E0A00080E0C00080E0E000C0000000C0002000C0004000C0006000C0008000C000A000C000C000C000E000C0200000C0202000C0204000C0206000C0208000C020A000C020C000C020E000C0400000C0402000C0404000C0406000C0
310
408000C040A000C040C000C040E000C0600000C0602000C0604000C0606000C0608000C060A000C060C000C060E000C0800000C0802000C0804000C0806000C0808000C080A000C080C000C080E000C0A00000C0A02000C0A04000C0A06000C0A08000C0A0A000C0A0C000C0A0E000C0C00000C0C02000C0C04000C0C06000
310
C0C08000C0C0A000F0FBFF00A4A0A000808080000000FF0000FF000000FFFF00FF000000FF00FF00FFFF0000FFFFFF00FFFFFFFFFFFFFFFFFFFFFFFFFFFFFFFFFFFFFFFFFFFFFFFFFFFFFFFFFFFFFFFFFFFFFFFFFFFFFFFFFFFFFFFFFFFF00000000FFFFFFFFFFFFFFFFFFFFFF000000FFFFFFFFFFFFFFFFFFFFFFFFFFFF00
310
FFFF00FFFFFFFFFFFFFFFFFFFFFF00FFFFFFFFFFFFFFFFFFFFFFFFFFFFFFFF00FFFF00FFFFFFFFFFFFFFFFFFFFFF00FFFFFFFFFFFFFFFFFFFFFFFFFFFFFFFF00FFFF00FFFFFFFFFFFFFFFFFFFFFF00FFFFFFFFFFFFFFFFFFFFFFFFFFFFFFFF00FFFF00FFFFFFFFFFFFFFFFFFFFFF00FFFFFFFFFFFFFFFFFFFFFFFFFFFFFFFF
310
00FFFF00FFFFFFFFFFFFFFFFFFFFFF00FFFFFFFFFFFFFFFFFFFFFFFFFFFFFFFF00FFFF00FFFFFFFFFFFFFFFFFFFFFF00FFFFFFFFFFFFFFFFFFFFFFFFFFFFFFFF00FFFF00FFFFFFFFFFFFFFFFFFFFFF00FFFFFFFFFFFFFFFFFFFFFFFFFFFFFFFF00FFFF00FFFFFFFFFFFFFFFFFFFFFF00FFFFFFFFFFFFFFFFFFFFFFFFFFFFFF
310
FF00FFFF00FFFFFFFFFFFFFFFFFFFFFF00FFFFFFFFFFFFFFFFFFFFFFFFFFFFFFFF00FFFF00FFFFFFFFFFFFFFFFFFFFFF00FFFFFFFFFFFFFFFFFFFFFFFFFFFFFFFF00FFFF00FFFFFFFFFFFFFFFFFFFFFF00FFFFFFFFFFFFFFFFFFFFFFFFFFFFFFFF00FFFF00FFFFFFFFFFFFFFFFFFFFFF00FFFFFFFFFFFFFFFFFFFFFFFFFFFF
310
FFFF00FFFF00FFFFFFFFFFFFFFFFFFFFFF00FFFFFFFFFFFFFFFFFFFFFFFFFFFFFFFF00FFFF00FFFFFFFFFFFFFFFFFFFFFF00FFFFFFFFFFFFFFFFFFFFFFFFFFFFFFFF00FFFF00FFFFFFFFFFFFFFFFFFFFFF00FFFFFFFFFFFFFFFFFFFFFFFFFFFFFFFF00FFFF00FFFFFFFFFFFFFFFFFFFF00FFFFFFFFFFFFFFFFFFFFFFFFFFFF
310
FFFFFF00FFFF00FFFFFFFFFFFFFFFFFFFF00FFFFFFFFFFFFFFFFFFFFFFFFFFFFFFFFFF00FFFF00FFFFFFFFFFFFFFFFFFFF00FFFFFFFFFFFFFFFFFFFFFFFFFFFFFFFFFF00FFFF00FFFFFFFFFFFFFFFFFFFF00FFFFFFFFFFFFFFFFFFFFFFFFFFFFFFFFFF00FFFF00FFFFFFFFFFFFFFFFFFFF00FFFFFFFFFFFFFFFFFFFFFFFFFF
310
FFFFFFFF00FFFF00FFFFFFFFFFFFFFFFFF0000FFFF00FFFFFFFFFFFFFFFFFFFFFFFFFFFF00FFFF00FFFFFFFFFFFFFFFF0000FFFFFF00FFFFFFFFFFFFFFFFFFFFFFFFFFFF00FFFF00000000000000000000FFFFFFFF00FFFFFFFFFFFFFFFFFFFFFFFFFFFF00FFFFFFFFFFFFFFFFFFFFFFFFFFFFFF00FFFFFFFFFFFFFFFFFFFF
310
FFFFFFFFFF00FFFFFFFFFFFFFFFFFFFFFFFFFFFF00FFFFFFFFFFFFFFFFFFFFFFFFFFFFFFFF00FFFFFFFFFFFFFFFFFFFFFFFFFFFF00FFFFFFFFFFFFFFFFFFFFFFFFFFFFFFFF00FFFFFFFFFFFFFFFFFFFFFFFFFFFFFF00FFFFFFFFFFFFFFFFFFFFFFFFFFFFFF00FFFFFFFFFFFFFFFFFFFFFFFFFFFFFF00FFFFFFFFFFFFFFFFFF
310
FFFFFFFFFFFF00FFFF00000000000000000000FFFFFFFF00FFFFFFFFFFFFFFFFFFFFFFFFFFFF00FFFF00FFFFFFFFFFFFFFFFFF0000FFFF00
102
{BLKREFS
331
273F
102
}
  0
BLOCK_RECORD
  5
2725
330
2438
100
AcDbSymbolTableRecord
100
AcDbBlockTableRecord
  2
AI9-BLK3
340
0
310
2800000020000000200000000100080000000000000400000000000000000000000000000000000000000000000080000080000000808000800000008000800080800000C0C0C000C0DCC000F0CAA6000020400000206000002080000020A0000020C0000020E00000400000004020000040400000406000004080000040A0
310
000040C0000040E00000600000006020000060400000606000006080000060A0000060C0000060E00000800000008020000080400000806000008080000080A0000080C0000080E00000A0000000A0200000A0400000A0600000A0800000A0A00000A0C00000A0E00000C0000000C0200000C0400000C0600000C0800000C0
310
A00000C0C00000C0E00000E0000000E0200000E0400000E0600000E0800000E0A00000E0C00000E0E00040000000400020004000400040006000400080004000A0004000C0004000E00040200000402020004020400040206000402080004020A0004020C0004020E000404000004040200040404000404060004040800040
310
40A0004040C0004040E00040600000406020004060400040606000406080004060A0004060C0004060E00040800000408020004080400040806000408080004080A0004080C0004080E00040A0000040A0200040A0400040A0600040A0800040A0A00040A0C00040A0E00040C0000040C0200040C0400040C0600040C08000
310
40C0A00040C0C00040C0E00040E0000040E0200040E0400040E0600040E0800040E0A00040E0C00040E0E00080000000800020008000400080006000800080008000A0008000C0008000E00080200000802020008020400080206000802080008020A0008020C0008020E00080400000804020008040400080406000804080
310
008040A0008040C0008040E00080600000806020008060400080606000806080008060A0008060C0008060E00080800000808020008080400080806000808080008080A0008080C0008080E00080A0000080A0200080A0400080A0600080A0800080A0A00080A0C00080A0E00080C0000080C0200080C0400080C0600080C0
310
800080C0A00080C0C00080C0E00080E0000080E0200080E0400080E0600080E0800080E0A00080E0C00080E0E000C0000000C0002000C0004000C0006000C0008000C000A000C000C000C000E000C0200000C0202000C0204000C0206000C0208000C020A000C020C000C020E000C0400000C0402000C0404000C0406000C0
310
408000C040A000C040C000C040E000C0600000C0602000C0604000C0606000C0608000C060A000C060C000C060E000C0800000C0802000C0804000C0806000C0808000C080A000C080C000C080E000C0A00000C0A02000C0A04000C0A06000C0A08000C0A0A000C0A0C000C0A0E000C0C00000C0C02000C0C04000C0C06000
310
C0C08000C0C0A000F0FBFF00A4A0A000808080000000FF0000FF000000FFFF00FF000000FF00FF00FFFF0000FFFFFF00FFFFFFFFFFFFFFFFFFFFFFFFFFFFFFFFFFFFFFFFFFFFFFFFFFFFFFFFFFFFFFFFFFFFFFFFFFFFFFFFFFFFFFFFFFFFFF0000FFFFFFFFFFFFFFFFFFFFFFFFFFFFFFFFFFFFFFFFFFFFFFFFFFFFFFFFFFFF
310
0000FFFFFFFFFFFFFFFFFFFFFFFFFFFFFFFFFFFFFFFFFFFFFFFFFFFFFFFFFFFF0000FFFFFFFFFFFFFFFFFFFFFFFFFFFFFFFFFFFFFFFFFFFFFFFFFFFFFFFFFFFF0000FFFFFFFFFFFFFFFFFFFFFFFFFFFFFFFFFFFFFFFFFFFFFFFFFFFFFFFFFFFF0000FFFFFFFFFFFFFFFFFFFFFFFFFFFFFFFFFFFFFFFFFFFFFFFFFFFFFFFFFF
310
FF0000FFFFFFFFFFFFFFFFFFFFFFFFFFFFFFFFFFFFFFFFFFFFFFFFFFFFFFFFFFFF0000FFFFFFFFFFFFFFFFFFFFFFFFFFFFFFFFFFFFFFFFFFFFFFFFFFFFFFFFFFFF0000FFFFFFFFFFFFFFFFFFFFFFFFFFFFFFFFFFFFFFFFFFFFFFFFFFFFFFFFFFFF0000FFFFFFFFFFFFFFFFFFFFFFFFFFFFFFFFFFFFFFFFFFFFFFFFFFFFFFFF
310
FFFF0000FFFFFFFFFFFFFFFFFFFFFFFFFFFFFFFFFFFFFFFFFFFFFFFFFFFFFFFFFFFF0000FFFFFFFFFFFFFFFFFFFFFFFFFFFFFFFFFFFFFFFFFFFFFFFFFFFFFFFFFFFF0000FFFFFFFFFFFFFFFFFFFFFFFFFFFFFFFFFFFFFFFFFFFFFFFFFFFFFFFFFFFF0000FFFFFFFFFFFFFFFFFFFFFFFFFFFFFFFFFFFFFFFFFFFFFFFFFFFFFF
310
FFFFFF0000FFFFFFFFFFFFFFFFFFFFFFFFFFFFFFFFFFFFFFFFFFFFFFFFFFFFFFFFFFFF0000FFFFFFFFFFFFFFFFFFFFFFFFFFFFFFFFFFFFFFFFFFFFFFFFFFFFFFFFFFFF0000FFFFFFFFFFFFFFFFFFFFFFFFFFFFFFFFFFFFFFFFFFFFFFFFFFFFFFFFFFFF0000FFFFFFFFFFFFFFFFFFFFFFFFFFFFFFFFFFFFFFFFFFFFFFFFFFFF
310
FFFFFFFF0000FFFFFFFFFFFFFFFFFFFFFFFFFFFFFFFFFFFFFFFFFFFFFFFFFFFFFFFFFFFF0000FFFFFFFFFFFFFFFFFFFFFFFFFFFFFFFFFFFFFFFFFFFFFFFFFFFFFFFFFFFF0000FFFFFFFFFFFFFFFFFFFFFFFFFFFFFFFFFFFFFFFFFFFFFFFFFFFFFFFFFFFF0000FFFFFFFFFFFFFFFFFFFFFFFFFFFFFFFFFFFFFFFFFFFFFFFFFF
310
FFFFFFFFFF0000FFFFFFFFFFFFFFFFFFFFFFFFFFFFFFFFFFFFFFFFFFFFFFFFFFFFFFFFFFFF0000FFFFFFFFFFFFFFFFFFFFFFFFFFFFFFFFFFFFFFFFFFFFFFFFFFFFFFFFFFFF0000FFFFFFFFFFFFFFFFFFFFFFFFFFFFFFFFFFFFFFFFFFFFFFFFFFFFFFFFFFFF0000FFFFFFFFFFFFFFFFFFFFFFFFFFFFFFFFFFFFFFFFFFFFFFFF
310
FFFFFFFFFFFF0000FFFFFFFFFFFFFFFFFFFFFFFFFFFFFFFFFFFFFFFFFFFFFFFFFFFFFFFFFFFF0000FFFFFFFFFFFFFFFFFFFFFFFFFFFFFFFFFFFFFFFFFFFFFFFFFFFFFFFFFFFF0000FFFFFFFFFFFFFFFFFFFFFFFFFFFFFFFFFFFFFFFFFFFFFFFFFFFFFFFFFFFF0000FFFFFFFFFFFFFFFFFFFFFFFFFFFFFFFFFFFFFFFFFFFFFF
310
FFFFFFFFFFFFFF0000FFFFFFFFFFFFFFFFFFFFFFFFFFFFFFFFFFFFFFFFFFFFFFFFFFFFFFFFFFFFFFFFFFFFFFFFFFFFFFFFFFFFFFFFFFFFFF
102
{BLKREFS
331
2740
102
}
  0
BLOCK_RECORD
  5
272A
330
2438
100
AcDbSymbolTableRecord
100
AcDbBlockTableRecord
  2
AI9-BLK2
340
0
310
2800000020000000200000000100080000000000000400000000000000000000000000000000000000000000000080000080000000808000800000008000800080800000C0C0C000C0DCC000F0CAA6000020400000206000002080000020A0000020C0000020E00000400000004020000040400000406000004080000040A0
310
000040C0000040E00000600000006020000060400000606000006080000060A0000060C0000060E00000800000008020000080400000806000008080000080A0000080C0000080E00000A0000000A0200000A0400000A0600000A0800000A0A00000A0C00000A0E00000C0000000C0200000C0400000C0600000C0800000C0
310
A00000C0C00000C0E00000E0000000E0200000E0400000E0600000E0800000E0A00000E0C00000E0E00040000000400020004000400040006000400080004000A0004000C0004000E00040200000402020004020400040206000402080004020A0004020C0004020E000404000004040200040404000404060004040800040
310
40A0004040C0004040E00040600000406020004060400040606000406080004060A0004060C0004060E00040800000408020004080400040806000408080004080A0004080C0004080E00040A0000040A0200040A0400040A0600040A0800040A0A00040A0C00040A0E00040C0000040C0200040C0400040C0600040C08000
310
40C0A00040C0C00040C0E00040E0000040E0200040E0400040E0600040E0800040E0A00040E0C00040E0E00080000000800020008000400080006000800080008000A0008000C0008000E00080200000802020008020400080206000802080008020A0008020C0008020E00080400000804020008040400080406000804080
310
008040A0008040C0008040E00080600000806020008060400080606000806080008060A0008060C0008060E00080800000808020008080400080806000808080008080A0008080C0008080E00080A0000080A0200080A0400080A0600080A0800080A0A00080A0C00080A0E00080C0000080C0200080C0400080C0600080C0
310
800080C0A00080C0C00080C0E00080E0000080E0200080E0400080E0600080E0800080E0A00080E0C00080E0E000C0000000C0002000C0004000C0006000C0008000C000A000C000C000C000E000C0200000C0202000C0204000C0206000C0208000C020A000C020C000C020E000C0400000C0402000C0404000C0406000C0
310
408000C040A000C040C000C040E000C0600000C0602000C0604000C0606000C0608000C060A000C060C000C060E000C0800000C0802000C0804000C0806000C0808000C080A000C080C000C080E000C0A00000C0A02000C0A04000C0A06000C0A08000C0A0A000C0A0C000C0A0E000C0C00000C0C02000C0C04000C0C06000
310
C0C08000C0C0A000F0FBFF00A4A0A000808080000000FF0000FF000000FFFF00FF000000FF00FF00FFFF0000FFFFFF00FFFFFFFFFFFFFFFFFFFFFFFFFFFFFFFFFFFFFFFFFFFFFFFFFFFFFFFFFFFFFFFFFFFFFFFFFFFFFFFFFFFFFFFFFFFFFF0000FFFFFFFFFFFFFFFFFFFFFFFFFFFFFFFFFFFFFFFFFFFFFFFFFFFFFFFFFFFF
310
0000FFFFFFFFFFFFFFFFFFFFFFFFFFFFFFFFFFFFFFFFFFFFFFFFFFFFFFFFFFFF0000FFFFFFFFFFFFFFFFFFFFFFFFFFFFFFFFFFFFFFFFFFFFFFFFFFFFFFFFFF00FFFF00FFFFFFFFFFFFFFFFFFFFFFFFFFFFFFFFFFFFFFFFFFFFFFFFFFFFFFFF00FFFF00FFFFFFFFFFFFFFFFFFFFFFFFFFFFFFFFFFFFFFFFFFFFFFFFFFFFFFFF
310
00FF0000FFFFFFFFFFFFFFFFFFFFFFFFFFFFFFFFFFFFFFFFFFFFFFFFFFFFFFFF00FF0000FFFFFFFFFFFFFFFFFFFFFFFFFFFFFFFFFFFFFFFFFFFFFFFFFFFFFFFF00FF0000FFFFFFFFFFFFFFFFFFFFFFFFFFFFFFFFFFFFFFFFFFFFFFFFFFFFFFFF00000000FFFFFFFFFFFFFFFFFFFFFFFFFFFFFFFFFFFFFFFFFFFFFFFFFFFFFF
310
00FF00FF0000FFFFFFFFFFFFFFFFFFFFFFFFFFFFFFFFFFFFFFFFFFFFFFFFFFFF00FF00FF0000FFFFFFFFFFFFFFFFFFFFFFFFFFFFFFFFFFFFFFFFFFFFFFFFFFFF00FF00FF0000FFFFFFFFFFFFFFFFFFFFFFFFFFFFFFFFFFFFFFFFFFFFFFFFFFFF00FF00FF0000FFFFFFFFFFFFFFFFFFFFFFFFFFFFFFFFFFFFFFFFFFFFFFFFFF
310
FF00FF00FF0000FFFFFFFFFFFFFFFFFFFFFFFFFFFFFFFFFFFFFFFFFFFFFFFFFFFF0000FFFF0000FFFFFFFFFFFFFFFFFFFFFFFFFFFFFFFFFFFFFFFFFFFFFFFFFF00FF00FFFF00FF00FFFFFFFFFFFFFFFFFFFFFFFFFFFFFFFFFFFFFFFFFFFFFFFF00FF00FFFF00FF00FFFFFFFFFFFFFFFFFFFFFFFFFFFFFFFFFFFFFFFFFFFFFF
310
FF00FF00FFFFFF0000FFFFFFFFFFFFFFFFFFFFFFFFFFFFFFFFFFFFFFFFFFFFFFFF00FF00FFFFFF0000FFFFFFFFFFFFFFFFFFFFFFFFFFFFFFFFFFFFFFFFFFFFFFFF00FF00FFFFFF0000FFFFFFFFFFFFFFFFFFFFFFFFFFFFFFFFFFFFFFFFFFFFFFFF0000FFFFFFFF0000FFFFFFFFFFFFFFFFFFFFFFFFFFFFFFFFFFFFFFFFFFFF
310
FF00FF00FFFFFFFF00FF00FFFFFFFFFFFFFFFFFFFFFFFFFFFFFFFFFFFFFFFFFFFF00FF00FFFFFFFF00FF00FFFFFFFFFFFFFFFFFFFFFFFFFFFFFFFFFFFFFFFFFFFF00FF00FFFFFFFF00FF00FFFFFFFFFFFFFFFFFFFFFFFFFFFFFFFFFFFFFFFFFFFF00FF00FFFFFFFF00FF00FFFFFFFFFFFFFFFFFFFFFFFFFFFFFFFFFFFFFFFF
310
FFFF00FF00FFFFFFFFFF0000FFFFFFFFFFFFFFFFFFFFFFFFFFFFFFFFFFFFFFFFFFFF0000FFFFFFFFFFFF0000FFFFFFFFFFFFFFFFFFFFFFFFFFFFFFFFFFFFFFFFFF00FF00FFFFFFFFFFFF00FF00FFFFFFFFFFFFFFFFFFFFFFFFFFFFFFFFFFFFFFFF00FF00FFFFFFFFFFFF00FF00FFFFFFFFFFFFFFFFFFFFFFFFFFFFFFFFFFFF
310
FFFF000000FFFFFFFFFFFF000000FFFFFFFFFFFFFFFFFFFFFFFFFFFFFFFFFFFFFFFFFFFFFFFFFFFFFFFFFFFFFFFFFFFFFFFFFFFFFFFFFFFF
102
{BLKREFS
331
2741
102
}
  0
BLOCK_RECORD
  5
272F
330
2438
100
AcDbSymbolTableRecord
100
AcDbBlockTableRecord
  2
AI9-BLK1
340
0
310
2800000020000000200000000100080000000000000400000000000000000000000000000000000000000000000080000080000000808000800000008000800080800000C0C0C000C0DCC000F0CAA6000020400000206000002080000020A0000020C0000020E00000400000004020000040400000406000004080000040A0
310
000040C0000040E00000600000006020000060400000606000006080000060A0000060C0000060E00000800000008020000080400000806000008080000080A0000080C0000080E00000A0000000A0200000A0400000A0600000A0800000A0A00000A0C00000A0E00000C0000000C0200000C0400000C0600000C0800000C0
310
A00000C0C00000C0E00000E0000000E0200000E0400000E0600000E0800000E0A00000E0C00000E0E00040000000400020004000400040006000400080004000A0004000C0004000E00040200000402020004020400040206000402080004020A0004020C0004020E000404000004040200040404000404060004040800040
310
40A0004040C0004040E00040600000406020004060400040606000406080004060A0004060C0004060E00040800000408020004080400040806000408080004080A0004080C0004080E00040A0000040A0200040A0400040A0600040A0800040A0A00040A0C00040A0E00040C0000040C0200040C0400040C0600040C08000
310
40C0A00040C0C00040C0E00040E0000040E0200040E0400040E0600040E0800040E0A00040E0C00040E0E00080000000800020008000400080006000800080008000A0008000C0008000E00080200000802020008020400080206000802080008020A0008020C0008020E00080400000804020008040400080406000804080
310
008040A0008040C0008040E00080600000806020008060400080606000806080008060A0008060C0008060E00080800000808020008080400080806000808080008080A0008080C0008080E00080A0000080A0200080A0400080A0600080A0800080A0A00080A0C00080A0E00080C0000080C0200080C0400080C0600080C0
310
800080C0A00080C0C00080C0E00080E0000080E0200080E0400080E0600080E0800080E0A00080E0C00080E0E000C0000000C0002000C0004000C0006000C0008000C000A000C000C000C000E000C0200000C0202000C0204000C0206000C0208000C020A000C020C000C020E000C0400000C0402000C0404000C0406000C0
310
408000C040A000C040C000C040E000C0600000C0602000C0604000C0606000C0608000C060A000C060C000C060E000C0800000C0802000C0804000C0806000C0808000C080A000C080C000C080E000C0A00000C0A02000C0A04000C0A06000C0A08000C0A0A000C0A0C000C0A0E000C0C00000C0C02000C0C04000C0C06000
310
C0C08000C0C0A000F0FBFF00A4A0A000808080000000FF0000FF000000FFFF00FF000000FF00FF00FFFF0000FFFFFF00FFFFFFFFFFFFFFFFFFFFFFFFFFFFFFFFFFFFFFFFFFFFFFFFFFFFFFFFFFFFFFFFFFFFFFFFFFFFFFFFFFFFFF00000000000000000000FFFFFFFFFFFFFFFFFFFFFFFFFFFFFFFFFFFFFFFFFFFF00FFFFFF
310
FFFFFFFFFF00FFFFFFFFFFFFFFFFFFFFFFFFFFFFFFFFFFFFFFFFFFFF00FFFFFFFFFFFFFFFF00FFFFFFFFFFFFFFFFFFFFFFFFFFFFFFFFFFFFFFFFFFFF00FFFFFFFFFFFFFFFF00FFFFFFFFFFFFFFFFFFFFFFFFFFFFFFFFFFFFFFFFFFFF00FF0000000000000000FFFFFFFFFFFFFFFFFFFFFFFFFFFFFFFFFFFFFFFFFFFF00FF00
310
FFFFFFFFFFFFFFFFFFFFFFFFFFFFFFFFFFFFFFFFFFFFFFFFFFFFFFFFFF00FF00FFFFFFFFFFFFFFFFFFFFFFFFFFFFFFFFFFFFFFFFFFFFFFFFFFFFFFFFFF00FF00FFFFFFFFFFFFFFFFFFFFFFFFFFFFFFFFFFFFFFFFFFFFFFFFFFFFFFFFFF00FF00FFFFFFFFFFFFFFFFFFFFFFFFFFFFFFFFFFFFFFFFFFFFFFFFFFFFFFFFFF00FF
310
00FFFFFFFFFFFFFFFFFFFFFFFFFFFFFFFFFFFFFFFFFFFFFFFFFFFFFFFFFF00FF00FFFFFFFFFFFFFFFFFFFFFFFFFFFFFFFFFFFFFFFFFFFFFFFFFFFFFFFFFF00FF00FFFFFFFFFFFFFFFFFFFFFFFFFFFFFFFFFFFFFFFFFFFFFFFFFFFFFFFFFF00FF00FFFFFFFFFFFFFFFFFFFFFFFFFFFFFFFFFFFFFFFFFFFFFFFFFFFFFFFFFF00
310
FF00000000000000FFFFFFFFFFFFFFFFFFFFFFFFFFFFFFFFFFFFFFFFFFFFFF00FFFFFFFFFFFFFF00FFFFFFFFFFFFFFFFFFFFFFFFFFFFFFFFFFFFFFFFFFFFFF00FFFFFFFFFFFFFF00FFFFFFFFFFFFFFFFFFFFFFFFFFFFFFFFFFFFFFFFFFFFFF00FFFFFFFFFFFFFF00FFFFFFFFFFFFFFFFFFFFFFFFFFFFFFFFFFFFFFFFFFFFFF
310
00FF00000000000000FFFFFFFFFFFFFFFFFFFFFFFFFFFFFFFFFFFFFFFFFFFFFF00FF00FFFFFFFFFFFFFFFFFFFFFFFFFFFFFFFFFFFFFFFFFFFFFFFFFFFFFFFFFF00FF00FFFFFFFFFFFFFFFFFFFFFFFFFFFFFFFFFFFFFFFFFFFFFFFFFFFFFFFFFF00FF00FFFFFFFFFFFFFFFFFFFFFFFFFFFFFFFFFFFFFFFFFFFFFFFFFFFFFFFF
310
FF00FF00FFFFFFFFFFFFFFFFFFFFFFFFFFFFFFFFFFFFFFFFFFFFFFFFFFFFFFFFFF00FF00FFFFFFFFFFFFFFFFFFFFFFFFFFFFFFFFFFFFFFFFFFFFFFFFFFFFFFFFFF00FF00FFFFFFFFFFFFFFFFFFFFFFFFFFFFFFFFFFFFFFFFFFFFFFFFFFFFFFFFFF00FF00FFFFFFFFFFFFFFFFFFFFFFFFFFFFFFFFFFFFFFFFFFFFFFFFFFFFFF
310
FFFF00FF0000000000000000FFFFFFFFFFFFFFFFFFFFFFFFFFFFFFFFFFFFFFFFFFFF00FFFFFFFFFFFFFFFF00FFFFFFFFFFFFFFFFFFFFFFFFFFFFFFFFFFFFFFFFFFFF00FFFFFFFFFFFFFFFF00FFFFFFFFFFFFFFFFFFFFFFFFFFFFFFFFFFFFFFFFFFFF00FFFFFFFFFFFFFFFF00FFFFFFFFFFFFFFFFFFFFFFFFFFFFFFFFFFFFFF
310
FFFFFF00000000000000000000FFFFFFFFFFFFFFFFFFFFFFFFFFFFFFFFFFFFFFFFFFFFFFFFFFFFFFFFFFFFFFFFFFFFFFFFFFFFFFFFFFFFFF
102
{BLKREFS
331
2742
102
}
  0
BLOCK_RECORD
  5
2734
330
2438
100
AcDbSymbolTableRecord
100
AcDbBlockTableRecord
  2
HD_LLC_logo_OT5
340
0
310
2800000020000000200000000100080000000000000400000000000000000000000000000000000000000000000080000080000000808000800000008000800080800000C0C0C000C0DCC000F0CAA6000020400000206000002080000020A0000020C0000020E00000400000004020000040400000406000004080000040A0
310
000040C0000040E00000600000006020000060400000606000006080000060A0000060C0000060E00000800000008020000080400000806000008080000080A0000080C0000080E00000A0000000A0200000A0400000A0600000A0800000A0A00000A0C00000A0E00000C0000000C0200000C0400000C0600000C0800000C0
310
A00000C0C00000C0E00000E0000000E0200000E0400000E0600000E0800000E0A00000E0C00000E0E00040000000400020004000400040006000400080004000A0004000C0004000E00040200000402020004020400040206000402080004020A0004020C0004020E000404000004040200040404000404060004040800040
310
40A0004040C0004040E00040600000406020004060400040606000406080004060A0004060C0004060E00040800000408020004080400040806000408080004080A0004080C0004080E00040A0000040A0200040A0400040A0600040A0800040A0A00040A0C00040A0E00040C0000040C0200040C0400040C0600040C08000
310
40C0A00040C0C00040C0E00040E0000040E0200040E0400040E0600040E0800040E0A00040E0C00040E0E00080000000800020008000400080006000800080008000A0008000C0008000E00080200000802020008020400080206000802080008020A0008020C0008020E00080400000804020008040400080406000804080
310
008040A0008040C0008040E00080600000806020008060400080606000806080008060A0008060C0008060E00080800000808020008080400080806000808080008080A0008080C0008080E00080A0000080A0200080A0400080A0600080A0800080A0A00080A0C00080A0E00080C0000080C0200080C0400080C0600080C0
310
800080C0A00080C0C00080C0E00080E0000080E0200080E0400080E0600080E0800080E0A00080E0C00080E0E000C0000000C0002000C0004000C0006000C0008000C000A000C000C000C000E000C0200000C0202000C0204000C0206000C0208000C020A000C020C000C020E000C0400000C0402000C0404000C0406000C0
310
408000C040A000C040C000C040E000C0600000C0602000C0604000C0606000C0608000C060A000C060C000C060E000C0800000C0802000C0804000C0806000C0808000C080A000C080C000C080E000C0A00000C0A02000C0A04000C0A06000C0A08000C0A0A000C0A0C000C0A0E000C0C00000C0C02000C0C04000C0C06000
310
C0C08000C0C0A000F0FBFF00A4A0A000808080000000FF0000FF000000FFFF00FF000000FF00FF00FFFF0000FFFFFF00FFFFFFFFFFFFFFFFFFFFFFFFFFFFFFFFFFFFFFFFFFFFFFFFFFFFFFFFFFFFFFFFFFFFFFFFFFFFFFFFFFFFFFFFFFFFFFFFFFFFFFFFFFFFFFFFFFFFFFFFFFFFFFFFFFFFFFFFFFFFFFFFFFFFFFFFFFFFFF
310
FFFFFFFFFFFFFFFFFFFFFFFFFFFFFFFFFFFFFFFFFFFFFFFFFFFFFFFFFFFFFFFFFFFFFFFFFFFFFFFFFFFFFFFFFFFFFFFFFFFFFFFFFFFFFFFFFFFFFFFFFFFFFFFFFFFFFFFFFFFFFFFFFFFFFFFFFFFFFFFFFFFFFFFFFFFFFFFFFFFFFFFFFFFFFFFFFFFFFFFFFFFFFFFFFFFFFFFFFFFFFFFFFFFFFFFFFFFFFFFFFFFFFFFFFFFFFF
310
FFFFFFFFFFFFFFFFFFFFFFFFFFFFFFFFFFFFFFFFFFFFFFFFFFFFFFFFFFFFFFFFFFFFFFFFFFFFFFFFFFFFFFFFFFFFFFFFFFFFFFFFFFFFFFFFFFFFFFFFFFFFFFFFFFFFFFFFFFFFFFFFFFFFFFFFFFFFFFFFFFFFFFFFFFFFFFFFFFFFFFFFFFFFFFFFFFFFFFFFFFFFFFFFFFFFFFFFFFFFFFFFFFFFFFFFFFFFFFFFFFFFFFFFFFFFFF
310
FFFFFFFFFFFFFFFFFFFFFFFFFFFFFFFFFFFFFFFFFFFFFFFFFFFFFFFFFFFFFFFFFFFFFFFFFFFFFFFFFFFFFFFFFFFFFFFFFFFFFFFF0000000000000000000000000000000000000000000000000000000000FFFFFF0000000000000000000000000000000000FFFFFFFFFFFFFFFFFFFF0000FFFFFF0000000000000000000000
310
00000000000000FFFFFFFFFFFFFFFFFFFF0000FFFF000000000000000000000000000000000000FFFFFF00000000FFFFFF0000FFFF00FFFFFFFFFFFF00FFFFFF00FFFFFFFFFF00FFFFFF0000000000FFFF0000FFFF00FFFFFFFFFFFF00FFFFFF00FFFFFFFFFF00FFFFFF00FFFF0000FFFF0000FFFF00FFFFFFFFFFFF00FFFF
310
00FFFFFFFFFFFF00FFFFFF00FFFF0000FFFF0000FFFF0000000000FFFF00000000FFFFFF00000000FFFFFF00000000FFFFFF0000FFFFFFFFFFFF00FFFFFFFFFFFFFFFFFF00FFFFFFFFFFFFFFFFFFFFFFFFFF0000FFFFFFFFFFFF00FFFFFFFFFFFFFFFFFF00FFFFFFFFFFFFFFFFFFFFFFFFFF0000FFFFFFFFFFFF00FFFFFFFF
310
FFFFFFFFFF00FFFFFFFFFFFFFFFFFFFFFFFF0000FFFFFF0000000000FFFF00000000FFFFFF0000000000000000000000000000FFFFFFFF00FFFFFFFFFFFF00FFFF00FFFFFFFFFFFF00FFFFFFFFFFFFFFFFFFFFFFFFFFFF00FFFFFFFFFFFF00FFFFFF00FFFFFFFFFF00FFFFFFFFFFFFFFFFFFFFFFFFFFFF0000000000000000
310
FFFFFF00000000000000FFFFFFFFFFFFFFFFFFFFFFFFFFFFFFFFFFFFFFFFFFFFFFFFFFFFFFFFFFFFFFFFFFFFFFFFFFFFFFFFFFFFFFFFFFFFFFFFFFFFFFFFFFFFFFFFFFFFFFFFFFFFFFFFFFFFFFFFFFFFFFFFFFFFFFFFFFFFFFFFFFFFFFFFFFFFFFFFFFFFFFFFFFFFFFFFFFFFFFFFFFFFFFFFFFFFFFFFFFFFFFFFFFFFFFFFFF
310
FFFFFFFFFFFFFFFFFFFFFFFFFFFFFFFFFFFFFFFFFFFFFFFFFFFFFFFFFFFFFFFFFFFFFFFFFFFFFFFFFFFFFFFFFFFFFFFFFFFFFFFFFFFFFFFF
102
{BLKREFS
331
275A
102
}
  0
BLOCK_RECORD
  5
2759
330
2438
100
AcDbSymbolTableRecord
100
AcDbBlockTableRecord
  2
HD logo-new
340
0
310
2800000020000000200000000100080000000000000400000000000000000000000000000000000000000000000080000080000000808000800000008000800080800000C0C0C000C0DCC000F0CAA6000020400000206000002080000020A0000020C0000020E00000400000004020000040400000406000004080000040A0
310
000040C0000040E00000600000006020000060400000606000006080000060A0000060C0000060E00000800000008020000080400000806000008080000080A0000080C0000080E00000A0000000A0200000A0400000A0600000A0800000A0A00000A0C00000A0E00000C0000000C0200000C0400000C0600000C0800000C0
310
A00000C0C00000C0E00000E0000000E0200000E0400000E0600000E0800000E0A00000E0C00000E0E00040000000400020004000400040006000400080004000A0004000C0004000E00040200000402020004020400040206000402080004020A0004020C0004020E000404000004040200040404000404060004040800040
310
40A0004040C0004040E00040600000406020004060400040606000406080004060A0004060C0004060E00040800000408020004080400040806000408080004080A0004080C0004080E00040A0000040A0200040A0400040A0600040A0800040A0A00040A0C00040A0E00040C0000040C0200040C0400040C0600040C08000
310
40C0A00040C0C00040C0E00040E0000040E0200040E0400040E0600040E0800040E0A00040E0C00040E0E00080000000800020008000400080006000800080008000A0008000C0008000E00080200000802020008020400080206000802080008020A0008020C0008020E00080400000804020008040400080406000804080
310
008040A0008040C0008040E00080600000806020008060400080606000806080008060A0008060C0008060E00080800000808020008080400080806000808080008080A0008080C0008080E00080A0000080A0200080A0400080A0600080A0800080A0A00080A0C00080A0E00080C0000080C0200080C0400080C0600080C0
310
800080C0A00080C0C00080C0E00080E0000080E0200080E0400080E0600080E0800080E0A00080E0C00080E0E000C0000000C0002000C0004000C0006000C0008000C000A000C000C000C000E000C0200000C0202000C0204000C0206000C0208000C020A000C020C000C020E000C0400000C0402000C0404000C0406000C0
310
408000C040A000C040C000C040E000C0600000C0602000C0604000C0606000C0608000C060A000C060C000C060E000C0800000C0802000C0804000C0806000C0808000C080A000C080C000C080E000C0A00000C0A02000C0A04000C0A06000C0A08000C0A0A000C0A0C000C0A0E000C0C00000C0C02000C0C04000C0C06000
310
C0C08000C0C0A000F0FBFF00A4A0A000808080000000FF0000FF000000FFFF00FF000000FF00FF00FFFF0000FFFFFF00FFFFFFFFFFFFFFFFFFFFFFFFFFFFFFFFFFFFFFFFFFFFFFFFFFFFFFFFFFFFFFFFFFFFFFFFFFFFFFFFFFFFFFFFFFFFFFFFFFFFFFFFFFFFFFFFFFFFFFFFFFFFFFFFFFFFFFFFFFFFFFFFFFFFFFFFFFFFFF
310
FFFFFFFFFFFFFFFFFFFFFFFFFFFFFFFFFFFFFFFFFFFFFFFFFFFFFFFFFFFFFFFFFFFFFFFFFFFFFFFFFFFFFFFFFFFFFFFFFFFFFFFFFFFFFFFFFFFFFFFFFFFFFFFFFFFFFFFFFFFFFFFFFFFFFFFFFFFFFFFFFFFFFFFFFFFFFFFFFFFFFFFFFFFFFFFFFFFFFFFFFFFFFFFFFFFFFFFFFFFFFFFFFFFFFFFFFFFFFFFFFFFFFFFFFFFFFF
310
FFFFFFFFFFFFFFFFFFFFFFFFFFFFFFFFFFFFFFFFFFFFFFFFFFFFFFFFFFFFFFFFFFFFFFFFFFFFFFFFFFFFFFFFFFFFFFFFFFFFFFFFFFFFFFFFFFFFFFFFFFFFFFFFFFFFFFFFFFFFFFFFFFFFFFFFFFFFFFFFFFFFFFFFFFFFFFFFFFFFFFFFFFFFFFFFFFFFFFFFFFFFFFFFFFFFFFFFFFFFFFFFFFFFFFFFFFFFFFFFFFFFFFFFFFFFFF
310
FFFFFFFFFFFFFFFFFFFFFFFFFFFFFFFFFFFFFFFFFFFFFFFFFFFFFFFFFFFFFFFFFFFFFFFFFFFFFFFFFFFFFFFFFFFFFFFFFFFFFFFF0000000000000000000000000000000000000000000000000000000000FFFFFF0000000000000000000000000000000000FFFFFFFFFFFFFFFFFFFF0000FFFFFF0000000000000000000000
310
00000000000000FFFFFFFFFFFFFFFFFFFF0000FFFF000000000000000000000000000000000000FFFFFF00000000FFFFFF0000FFFF00FFFFFFFFFFFF00FFFFFF00FFFFFFFFFF00FFFFFF0000000000FFFF0000FFFF00FFFFFFFFFFFF00FFFFFF00FFFFFFFFFF00FFFFFF00FFFF0000FFFF0000FFFF00FFFFFFFFFFFF00FFFF
310
00FFFFFFFFFFFF00FFFFFF00FFFF0000FFFF0000FFFF0000000000FFFF00000000FFFFFF00000000FFFFFF00000000FFFFFF0000FFFFFFFFFFFF00FFFFFFFFFFFFFFFFFF00FFFFFFFFFFFFFFFFFFFFFFFFFF0000FFFFFFFFFFFF00FFFFFFFFFFFFFFFFFF00FFFFFFFFFFFFFFFFFFFFFFFFFF0000FFFFFFFFFFFF00FFFFFFFF
310
FFFFFFFFFF00FFFFFFFFFFFFFFFFFFFFFFFF0000FFFFFF0000000000FFFF00000000FFFFFF0000000000000000000000000000FFFFFFFF00FFFFFFFFFFFF00FFFF00FFFFFFFFFFFF00FFFFFFFFFFFFFFFFFFFFFFFFFFFF00FFFFFFFFFFFF00FFFFFF00FFFFFFFFFF00FFFFFFFFFFFFFFFFFFFFFFFFFFFF0000000000000000
310
FFFFFF00000000000000FFFFFFFFFFFFFFFFFFFFFFFFFFFFFFFFFFFFFFFFFFFFFFFFFFFFFFFFFFFFFFFFFFFFFFFFFFFFFFFFFFFFFFFFFFFFFFFFFFFFFFFFFFFFFFFFFFFFFFFFFFFFFFFFFFFFFFFFFFFFFFFFFFFFFFFFFFFFFFFFFFFFFFFFFFFFFFFFFFFFFFFFFFFFFFFFFFFFFFFFFFFFFFFFFFFFFFFFFFFFFFFFFFFFFFFFFF
310
FFFFFFFFFFFFFFFFFFFFFFFFFFFFFFFFFFFFFFFFFFFFFFFFFFFFFFFFFFFFFFFFFFFFFFFFFFFFFFFFFFFFFFFFFFFFFFFFFFFFFFFFFFFFFFFF
102
{BLKREFS
331
275E
331
2C74
331
2C78
102
}
  0
BLOCK_RECORD
  5
275D
330
2438
100
AcDbSymbolTableRecord
100
AcDbBlockTableRecord
  2
HD Logo
340
0
310
2800000020000000200000000100080000000000000400000000000000000000000000000000000000000000000080000080000000808000800000008000800080800000C0C0C000C0DCC000F0CAA6000020400000206000002080000020A0000020C0000020E00000400000004020000040400000406000004080000040A0
310
000040C0000040E00000600000006020000060400000606000006080000060A0000060C0000060E00000800000008020000080400000806000008080000080A0000080C0000080E00000A0000000A0200000A0400000A0600000A0800000A0A00000A0C00000A0E00000C0000000C0200000C0400000C0600000C0800000C0
310
A00000C0C00000C0E00000E0000000E0200000E0400000E0600000E0800000E0A00000E0C00000E0E00040000000400020004000400040006000400080004000A0004000C0004000E00040200000402020004020400040206000402080004020A0004020C0004020E000404000004040200040404000404060004040800040
310
40A0004040C0004040E00040600000406020004060400040606000406080004060A0004060C0004060E00040800000408020004080400040806000408080004080A0004080C0004080E00040A0000040A0200040A0400040A0600040A0800040A0A00040A0C00040A0E00040C0000040C0200040C0400040C0600040C08000
310
40C0A00040C0C00040C0E00040E0000040E0200040E0400040E0600040E0800040E0A00040E0C00040E0E00080000000800020008000400080006000800080008000A0008000C0008000E00080200000802020008020400080206000802080008020A0008020C0008020E00080400000804020008040400080406000804080
310
008040A0008040C0008040E00080600000806020008060400080606000806080008060A0008060C0008060E00080800000808020008080400080806000808080008080A0008080C0008080E00080A0000080A0200080A0400080A0600080A0800080A0A00080A0C00080A0E00080C0000080C0200080C0400080C0600080C0
310
800080C0A00080C0C00080C0E00080E0000080E0200080E0400080E0600080E0800080E0A00080E0C00080E0E000C0000000C0002000C0004000C0006000C0008000C000A000C000C000C000E000C0200000C0202000C0204000C0206000C0208000C020A000C020C000C020E000C0400000C0402000C0404000C0406000C0
310
408000C040A000C040C000C040E000C0600000C0602000C0604000C0606000C0608000C060A000C060C000C060E000C0800000C0802000C0804000C0806000C0808000C080A000C080C000C080E000C0A00000C0A02000C0A04000C0A06000C0A08000C0A0A000C0A0C000C0A0E000C0C00000C0C02000C0C04000C0C06000
310
C0C08000C0C0A000F0FBFF00A4A0A000808080000000FF0000FF000000FFFF00FF000000FF00FF00FFFF0000FFFFFF00FFFFFFFFFFFFFFFFFFFFFFFFFFFFFFFFFFFFFFFFFFFFFFFFFFFFFFFFFFFFFFFFFFFFFFFFFFFFFFFFFFFFFFFFFFFFFFFFFFFFFFFFFFFFFFFFFFFFFFFFFFFFFFFFFFFFFFFFFFFFFFFFFFFFFFFFFFFFFF
310
FFFFFFFFFFFFFFFFFFFFFFFFFFFFFFFFFFFFFFFFFFFFFFFFFFFFFFFFFFFFFFFFFFFFFFFFFFFFFFFFFFFFFFFFFFFFFFFFFFFFFFFFFFFFFFFFFFFFFFFFFFFFFFFFFFFFFFFFFFFFFFFFFFFFFFFFFFFFFFFFFFFFFFFFFFFFFFFFFFFFFFFFFFFFFFFFFFFFFFFFFFFFFFFFFFFFFFFFFFFFFFFFFFFFFFFFFFFFFFFFFFFFFFFFFFFFFF
310
FFFFFFFFFFFFFFFFFFFFFFFFFFFFFFFFFFFFFFFFFFFFFFFFFFFFFFFFFFFFFFFFFFFFFFFFFFFFFFFFFFFFFFFFFFFFFFFFFFFFFFFFFFFFFFFFFFFFFFFFFFFFFFFFFFFFFFFFFFFFFFFFFFFFFFFFFFFFFFFFFFFFFFFFFFFFFFFFFFFFFFFFFFFFFFFFFFFFFFFFFFFFFFFFFFFFFFFFFFFFFFFFFFFFFFFFFFFFFFFFFFFFFFFFFFFFFF
310
FFFFFFFFFFFFFFFFFFFFFFFFFFFFFFFFFFFFFFFFFFFFFFFFFFFFFFFFFFFFFFFFFFFFFFFFFFFFFFFFFFFFFFFFFFFFFFFFFFFFFFFF0000000000000000000000000000000000000000000000000000000000FFFFFF0000000000000000000000000000000000FFFFFFFFFFFFFFFFFFFF0000FFFFFF0000000000000000000000
310
00000000000000FFFFFFFFFFFFFFFFFFFF0000FFFF000000000000000000000000000000000000FFFFFF00000000FFFFFF0000FFFF00FFFFFFFFFFFF00FFFFFF00FFFFFFFFFF00FFFFFF0000000000FFFF0000FFFF00FFFFFFFFFFFF00FFFFFF00FFFFFFFFFF00FFFFFF00FFFF0000FFFF0000FFFF00FFFFFFFFFFFF00FFFF
310
00FFFFFFFFFFFF00FFFFFF00FFFF0000FFFF0000FFFF0000000000FFFF00000000FFFFFF00000000FFFFFF00000000FFFFFF0000FFFFFFFFFFFF00FFFFFFFFFFFFFFFFFF00FFFFFFFFFFFFFFFFFFFFFFFFFF0000FFFFFFFFFFFF00FFFFFFFFFFFFFFFFFF00FFFFFFFFFFFFFFFFFFFFFFFFFF0000FFFFFFFFFFFF00FFFFFFFF
310
FFFFFFFFFF00FFFFFFFFFFFFFFFFFFFFFFFF0000FFFFFF0000000000FFFF00000000FFFFFF0000000000000000000000000000FFFFFFFF00FFFFFFFFFFFF00FFFF00FFFFFFFFFFFF00FFFFFFFFFFFFFFFFFFFFFFFFFFFF00FFFFFFFFFFFF00FFFFFF00FFFFFFFFFF00FFFFFFFFFFFFFFFFFFFFFFFFFFFF0000000000000000
310
FFFFFF00000000000000FFFFFFFFFFFFFFFFFFFFFFFFFFFFFFFFFFFFFFFFFFFFFFFFFFFFFFFFFFFFFFFFFFFFFFFFFFFFFFFFFFFFFFFFFFFFFFFFFFFFFFFFFFFFFFFFFFFFFFFFFFFFFFFFFFFFFFFFFFFFFFFFFFFFFFFFFFFFFFFFFFFFFFFFFFFFFFFFFFFFFFFFFFFFFFFFFFFFFFFFFFFFFFFFFFFFFFFFFFFFFFFFFFFFFFFFFF
310
FFFFFFFFFFFFFFFFFFFFFFFFFFFFFFFFFFFFFFFFFFFFFFFFFFFFFFFFFFFFFFFFFFFFFFFFFFFFFFFFFFFFFFFFFFFFFFFFFFFFFFFFFFFFFFFF
102
{BLKREFS
331
2764
331
2768
102
}
  0
BLOCK_RECORD
  5
2769
330
2438
100
AcDbSymbolTableRecord
100
AcDbBlockTableRecord
  2
Harmonic Drive LLC
340
0
310
2800000020000000200000000100080000000000000400000000000000000000000000000000000000000000000080000080000000808000800000008000800080800000C0C0C000C0DCC000F0CAA6000020400000206000002080000020A0000020C0000020E00000400000004020000040400000406000004080000040A0
310
000040C0000040E00000600000006020000060400000606000006080000060A0000060C0000060E00000800000008020000080400000806000008080000080A0000080C0000080E00000A0000000A0200000A0400000A0600000A0800000A0A00000A0C00000A0E00000C0000000C0200000C0400000C0600000C0800000C0
310
A00000C0C00000C0E00000E0000000E0200000E0400000E0600000E0800000E0A00000E0C00000E0E00040000000400020004000400040006000400080004000A0004000C0004000E00040200000402020004020400040206000402080004020A0004020C0004020E000404000004040200040404000404060004040800040
310
40A0004040C0004040E00040600000406020004060400040606000406080004060A0004060C0004060E00040800000408020004080400040806000408080004080A0004080C0004080E00040A0000040A0200040A0400040A0600040A0800040A0A00040A0C00040A0E00040C0000040C0200040C0400040C0600040C08000
310
40C0A00040C0C00040C0E00040E0000040E0200040E0400040E0600040E0800040E0A00040E0C00040E0E00080000000800020008000400080006000800080008000A0008000C0008000E00080200000802020008020400080206000802080008020A0008020C0008020E00080400000804020008040400080406000804080
310
008040A0008040C0008040E00080600000806020008060400080606000806080008060A0008060C0008060E00080800000808020008080400080806000808080008080A0008080C0008080E00080A0000080A0200080A0400080A0600080A0800080A0A00080A0C00080A0E00080C0000080C0200080C0400080C0600080C0
310
800080C0A00080C0C00080C0E00080E0000080E0200080E0400080E0600080E0800080E0A00080E0C00080E0E000C0000000C0002000C0004000C0006000C0008000C000A000C000C000C000E000C0200000C0202000C0204000C0206000C0208000C020A000C020C000C020E000C0400000C0402000C0404000C0406000C0
310
408000C040A000C040C000C040E000C0600000C0602000C0604000C0606000C0608000C060A000C060C000C060E000C0800000C0802000C0804000C0806000C0808000C080A000C080C000C080E000C0A00000C0A02000C0A04000C0A06000C0A08000C0A0A000C0A0C000C0A0E000C0C00000C0C02000C0C04000C0C06000
310
C0C08000C0C0A000F0FBFF00A4A0A000808080000000FF0000FF000000FFFF00FF000000FF00FF00FFFF0000FFFFFF00FFFFFFFFFFFFFFFFFFFFFFFFFFFFFFFFFFFFFFFFFFFFFFFFFFFFFFFFFFFFFFFFFFFFFFFFFFFFFFFFFFFFFFFFFFFFFFFFFFFFFFFFFFFFFFFFFFFFFFFFFFFFFFFFFFFFFFFFFFFFFFFFFFFFFFFFFFFFFF
310
FFFFFFFFFFFFFFFFFFFFFFFFFFFFFFFFFFFFFFFFFFFFFFFFFFFFFFFFFFFFFFFFFFFFFFFFFFFFFFFFFFFFFFFFFFFFFFFFFFFFFFFFFFFFFFFFFFFFFFFFFFFFFFFFFFFFFFFFFFFFFFFFFFFFFFFFFFFFFFFFFFFFFFFFFFFFFFFFFFFFFFFFFFFFFFFFFFFFFFFFFFFFFFFFFFFFFFFFFFFFFFFFFFFFFFFFFFFFFFFFFFFFFFFFFFFFFF
310
FFFFFFFFFFFFFFFFFFFFFFFFFFFFFFFFFFFFFFFFFFFFFFFFFFFFFFFFFFFFFFFFFFFFFFFFFFFFFFFFFFFFFFFFFFFFFFFFFFFFFFFFFFFFFFFFFFFFFFFFFFFFFFFFFFFFFFFFFFFFFFFFFFFFFFFFFFFFFFFFFFFFFFFFFFFFFFFFFFFFFFFFFFFFFFFFFFFFFFFFFFFFFFFFFFFFFFFFFFFFFFFFFFFFFFFFFFFFFFFFFFFFFFFFFFFFFF
310
FFFFFFFFFFFFFFFFFFFFFFFFFFFFFFFFFFFFFFFFFFFFFFFFFFFFFFFFFFFFFFFFFFFFFFFFFFFFFFFFFFFFFFFFFFFFFFFFFFFFFFFFFFFFFFFFFFFFFFFFFFFFFFFFFFFFFFFFFFFFFFFFFFFFFFFFFFFFFFFFFFFFFFFFFFFFFFFFFFFFFFFF0000000000000000000000000000FFFFFFFFFFFFFFFFFFFFFFFFFFFFFFFFFFFF000000
310
0000000000000000000000FFFFFFFFFFFFFFFFFFFFFFFFFFFFFFFFFFFFFFFFFF000000000000000000FFFFFFFFFFFFFFFFFFFFFFFFFFFFFFFFFFFFFFFFFFFFFF000000000000000000FFFFFFFFFFFFFFFFFFFFFFFFFFFFFFFFFFFFFFFFFF000000000000000000000000FFFFFFFFFFFFFFFFFFFFFFFFFFFFFFFFFFFFFFFF00
310
FFFFFF00FF0000FF000000FFFFFFFFFFFFFFFFFFFFFFFFFFFFFFFFFFFFFFFFFFFFFFFFFFFFFFFFFFFFFFFFFFFFFFFFFFFFFFFFFFFFFFFFFFFFFFFFFFFFFFFFFFFFFFFFFFFFFFFFFFFFFFFFFFFFFFFFFFFFFFFFFFFFFFFFFFFFFFFFFFFFFFFFFFFFFFFFFFFFFFFFFFFFFFFFFFFFFFFFFFFFFFFFFFFFFFFFFFFFFFFFFFFFFFFF
310
FFFFFFFFFFFFFFFFFFFFFFFFFFFFFFFFFFFFFFFFFFFFFFFFFFFFFFFFFFFFFFFFFFFFFFFFFFFFFFFFFFFFFFFFFFFFFFFFFFFFFFFFFFFFFFFFFFFFFFFFFFFFFFFFFFFFFFFFFFFFFFFFFFFFFFFFFFFFFFFFFFFFFFFFFFFFFFFFFFFFFFFFFFFFFFFFFFFFFFFFFFFFFFFFFFFFFFFFFFFFFFFFFFFFFFFFFFFFFFFFFFFFFFFFFFFFFF
310
FFFFFFFFFFFFFFFFFFFFFFFFFFFFFFFFFFFFFFFFFFFFFFFFFFFFFFFFFFFFFFFFFFFFFFFFFFFFFFFFFFFFFFFFFFFFFFFFFFFFFFFFFFFFFFFFFFFFFFFFFFFFFFFFFFFFFFFFFFFFFFFFFFFFFFFFFFFFFFFFFFFFFFFFFFFFFFFFFFFFFFFFFFFFFFFFFFFFFFFFFFFFFFFFFFFFFFFFFFFFFFFFFFFFFFFFFFFFFFFFFFFFFFFFFFFFFF
310
FFFFFFFFFFFFFFFFFFFFFFFFFFFFFFFFFFFFFFFFFFFFFFFFFFFFFFFFFFFFFFFFFFFFFFFFFFFFFFFFFFFFFFFFFFFFFFFFFFFFFFFFFFFFFFFF
102
{BLKREFS
331
276E
331
2773
102
}
  0
BLOCK_RECORD
  5
2C69
330
2438
100
AcDbSymbolTableRecord
100
AcDbBlockTableRecord
  2
HD LLC
340
0
310
2800000020000000200000000100080000000000000400000000000000000000000000000000000000000000000080000080000000808000800000008000800080800000C0C0C000C0DCC000F0CAA6000020400000206000002080000020A0000020C0000020E00000400000004020000040400000406000004080000040A0
310
000040C0000040E00000600000006020000060400000606000006080000060A0000060C0000060E00000800000008020000080400000806000008080000080A0000080C0000080E00000A0000000A0200000A0400000A0600000A0800000A0A00000A0C00000A0E00000C0000000C0200000C0400000C0600000C0800000C0
310
A00000C0C00000C0E00000E0000000E0200000E0400000E0600000E0800000E0A00000E0C00000E0E00040000000400020004000400040006000400080004000A0004000C0004000E00040200000402020004020400040206000402080004020A0004020C0004020E000404000004040200040404000404060004040800040
310
40A0004040C0004040E00040600000406020004060400040606000406080004060A0004060C0004060E00040800000408020004080400040806000408080004080A0004080C0004080E00040A0000040A0200040A0400040A0600040A0800040A0A00040A0C00040A0E00040C0000040C0200040C0400040C0600040C08000
310
40C0A00040C0C00040C0E00040E0000040E0200040E0400040E0600040E0800040E0A00040E0C00040E0E00080000000800020008000400080006000800080008000A0008000C0008000E00080200000802020008020400080206000802080008020A0008020C0008020E00080400000804020008040400080406000804080
310
008040A0008040C0008040E00080600000806020008060400080606000806080008060A0008060C0008060E00080800000808020008080400080806000808080008080A0008080C0008080E00080A0000080A0200080A0400080A0600080A0800080A0A00080A0C00080A0E00080C0000080C0200080C0400080C0600080C0
310
800080C0A00080C0C00080C0E00080E0000080E0200080E0400080E0600080E0800080E0A00080E0C00080E0E000C0000000C0002000C0004000C0006000C0008000C000A000C000C000C000E000C0200000C0202000C0204000C0206000C0208000C020A000C020C000C020E000C0400000C0402000C0404000C0406000C0
310
408000C040A000C040C000C040E000C0600000C0602000C0604000C0606000C0608000C060A000C060C000C060E000C0800000C0802000C0804000C0806000C0808000C080A000C080C000C080E000C0A00000C0A02000C0A04000C0A06000C0A08000C0A0A000C0A0C000C0A0E000C0C00000C0C02000C0C04000C0C06000
310
C0C08000C0C0A000F0FBFF00A4A0A000808080000000FF0000FF000000FFFF00FF000000FF00FF00FFFF0000FFFFFF00FFFFFFFFFFFFFFFFFFFFFFFFFFFFFFFFFFFFFFFFFFFFFFFFFFFFFFFFFFFFFFFFFFFFFFFFFFFFFFFFFFFFFFFFFFFFFFFFFFFFFFFFFFFFFFFFFFFFFFFFFFFFFFFFFFFFFFFFFFFFFFFFFFFFFFFFFFFFFF
310
FFFFFFFFFFFFFFFFFFFFFFFFFFFFFFFFFFFFFFFFFFFFFFFFFFFFFFFFFFFFFFFFFFFFFFFFFFFFFFFFFFFFFFFFFFFFFFFFFFFFFFFFFFFFFFFFFFFFFFFFFFFFFFFFFFFFFFFFFFFFFFFFFFFFFFFFFFFFFFFFFFFFFFFFFFFFFFFFFFFFFFFFFFFFFFFFFFFFFFFFFFFFFFFFFFFFFFFFFFFFFFFFFFFFFFFFFFFFFFFFFFFFFFFFFFFFFF
310
FFFFFFFFFFFFFFFFFFFFFFFFFFFFFFFFFFFFFFFFFFFFFFFFFFFFFFFFFFFFFFFFFFFFFFFFFFFFFFFFFFFFFFFFFFFFFFFFFFFFFFFFFFFFFFFFFFFFFFFFFFFFFFFFFFFFFFFFFFFFFFFFFFFFFFFFFFFFFFFFFFFFFFFFFFFFFFFFFFFFFFFFFFFFFFFFFFFFFFFFFFFFFFFFFFFFFFFFFFFFFFFFFFFFFFFFFFFFFFFFFFFFFFFFFFFFFF
310
FFFFFFFFFFFFFFFFFFFFFFFFFFFFFFFFFFFFFFFFFFFFFFFFFFFFFFFFFFFFFFFFFFFFFFFFFFFFFFFFFFFFFFFFFFFFFFFFFFFFFFFFFFFFFFFFFFFFFFFFFFFFFFFFFFFFFFFFFFFFFFFFFFFFFFFFFFFFFFFFFFFFFFFFFFFFFFFFFFFFFFFFFFFFFFFFFFFFFFFFFFFFFFFFFFFFFFFFFFFFFFFFFFFFFFFFFFFFFFFFFFFFFFFFFFFF00
310
000000000000000000FFFFFFFFFFFFFFFFFFFFFFFFFFFFFFFFFFFFFFFFFFFF00000000000000000000FFFFFFFFFFFFFFFFFFFFFFFFFFFFFFFFFFFFFFFFFFFF00000000000000000000FFFFFFFFFFFFFFFFFFFFFFFFFFFFFFFFFFFFFFFFFFFF00000000000000000000FFFFFFFFFFFFFFFFFFFFFFFFFFFFFFFFFFFFFFFFFFFF
310
FFFFFFFFFFFFFFFFFFFFFFFFFFFFFFFFFFFFFFFFFFFFFFFFFFFFFFFFFFFFFFFFFFFFFFFFFFFFFFFFFFFFFFFFFFFFFFFFFFFFFFFFFFFFFFFFFFFFFFFFFFFFFFFFFFFFFFFFFFFFFFFFFFFFFFFFFFFFFFFFFFFFFFFFFFFFFFFFFFFFFFFFFFFFFFFFFFFFFFFFFFFFFFFFFFFFFFFFFFFFFFFFFFFFFFFFFFFFFFFFFFFFFFFFFFFFFF
310
FFFFFFFFFFFFFFFFFFFFFFFFFFFFFFFFFFFFFFFFFFFFFFFFFFFFFFFFFFFFFFFFFFFFFFFFFFFFFFFFFFFFFFFFFFFFFFFFFFFFFFFFFFFFFFFFFFFFFFFFFFFFFFFFFFFFFFFFFFFFFFFFFFFFFFFFFFFFFFFFFFFFFFFFFFFFFFFFFFFFFFFFFFFFFFFFFFFFFFFFFFFFFFFFFFFFFFFFFFFFFFFFFFFFFFFFFFFFFFFFFFFFFFFFFFFFFF
310
FFFFFFFFFFFFFFFFFFFFFFFFFFFFFFFFFFFFFFFFFFFFFFFFFFFFFFFFFFFFFFFFFFFFFFFFFFFFFFFFFFFFFFFFFFFFFFFFFFFFFFFFFFFFFFFFFFFFFFFFFFFFFFFFFFFFFFFFFFFFFFFFFFFFFFFFFFFFFFFFFFFFFFFFFFFFFFFFFFFFFFFFFFFFFFFFFFFFFFFFFFFFFFFFFFFFFFFFFFFFFFFFFFFFFFFFFFFFFFFFFFFFFFFFFFFFFF
310
FFFFFFFFFFFFFFFFFFFFFFFFFFFFFFFFFFFFFFFFFFFFFFFFFFFFFFFFFFFFFFFFFFFFFFFFFFFFFFFFFFFFFFFFFFFFFFFFFFFFFFFFFFFFFFFF
102
{BLKREFS
331
2C6E
331
2C72
102
}
  0
BLOCK_RECORD
  5
2C79
330
2438
100
AcDbSymbolTableRecord
100
AcDbBlockTableRecord
  2
NTC
340
0
310
2800000020000000200000000100080000000000000400000000000000000000000000000000000000000000000080000080000000808000800000008000800080800000C0C0C000C0DCC000F0CAA6000020400000206000002080000020A0000020C0000020E00000400000004020000040400000406000004080000040A0
310
000040C0000040E00000600000006020000060400000606000006080000060A0000060C0000060E00000800000008020000080400000806000008080000080A0000080C0000080E00000A0000000A0200000A0400000A0600000A0800000A0A00000A0C00000A0E00000C0000000C0200000C0400000C0600000C0800000C0
310
A00000C0C00000C0E00000E0000000E0200000E0400000E0600000E0800000E0A00000E0C00000E0E00040000000400020004000400040006000400080004000A0004000C0004000E00040200000402020004020400040206000402080004020A0004020C0004020E000404000004040200040404000404060004040800040
310
40A0004040C0004040E00040600000406020004060400040606000406080004060A0004060C0004060E00040800000408020004080400040806000408080004080A0004080C0004080E00040A0000040A0200040A0400040A0600040A0800040A0A00040A0C00040A0E00040C0000040C0200040C0400040C0600040C08000
310
40C0A00040C0C00040C0E00040E0000040E0200040E0400040E0600040E0800040E0A00040E0C00040E0E00080000000800020008000400080006000800080008000A0008000C0008000E00080200000802020008020400080206000802080008020A0008020C0008020E00080400000804020008040400080406000804080
310
008040A0008040C0008040E00080600000806020008060400080606000806080008060A0008060C0008060E00080800000808020008080400080806000808080008080A0008080C0008080E00080A0000080A0200080A0400080A0600080A0800080A0A00080A0C00080A0E00080C0000080C0200080C0400080C0600080C0
310
800080C0A00080C0C00080C0E00080E0000080E0200080E0400080E0600080E0800080E0A00080E0C00080E0E000C0000000C0002000C0004000C0006000C0008000C000A000C000C000C000E000C0200000C0202000C0204000C0206000C0208000C020A000C020C000C020E000C0400000C0402000C0404000C0406000C0
310
408000C040A000C040C000C040E000C0600000C0602000C0604000C0606000C0608000C060A000C060C000C060E000C0800000C0802000C0804000C0806000C0808000C080A000C080C000C080E000C0A00000C0A02000C0A04000C0A06000C0A08000C0A0A000C0A0C000C0A0E000C0C00000C0C02000C0C04000C0C06000
310
C0C08000C0C0A000F0FBFF00A4A0A000808080000000FF0000FF000000FFFF00FF000000FF00FF00FFFF0000FFFFFF00FFFFFFFFFFFFFFFFFFFFFFFFFFFFFFFFFFFFFFFFFFFFFFFFFFFFFFFFFFFFFFFFFFFFFFFFFFFFFFFFFFFFFFFFFFFFFFFFFFFFFFFFFFFFFFFFFFFFFFFFFFFFFFFFFFFFFFFFFFFFFFFFFFFFFFFFFFFFFF
310
FFFFFFFFFFFFFFFFFFFFFFFFFFFFFFFFFFFFFFFFFFFFFFFFFFFFFFFFFFFFFFFFFFFFFFFFFFFFFFFFFFFFFFFFFFFFFFFFFFFFFFFFFFFFFFFFFFFFFFFFFFFFFFFFFFFFFFFFFFFFFFFFFFFFFFFFFFFFFFFFFFFFFFFFFFFFFFFFFFFFFFFFFFFFFFFFFFFFFFFFFFFFFFFFFFFFFFFFFFFFFFFFFFFFFFFFFFFFFFFFFFFFFFFFFFFFFF
310
FFFFFFFFFFFFFFFFFFFFFFFFFFFFFFFFFFFFFFFFFFFFFFFFFFFFFFFFFFFFFFFFFFFFFFFFFFFFFFFFFFFFFFFFFFFFFFFFFFFFFFFFFFFFFFFFFFFFFFFFFFFFFFFFFFFFFFFFFFFFFFFFFFFFFFFFFFFFFFFFFFFFFFFFFFFFFFFFFFFFFFFFFFFFFFFFFFFFFFFFFFFFFFFFFFFFFFFFFFFFFFFFFFFFFFFFFFFFFFFFFFFFFFFFFFFFFF
310
FFFFFFFFFFFFFFFFFFFFFFFFFFFFFFFFFFFFFFFF000000000000000000000000000000000000000000000000000000000000FFFF00FF0000000000000000FFFFFFFFFFFFFFFFFFFFFFFFFFFFFFFFFFFFFF00FFFF00FF0000000000000000FFFFFFFFFFFFFFFFFFFFFFFFFFFFFFFFFFFFFF00FFFF00FF000000000000000000
310
00000000000000000000000000FFFFFFFFFF00FFFF00FF0000000000000000000000000000000000000000000000000000FF00FFFF00FF0000000000000000000000000000000000000000000000000000FF00FFFF00FF0000000000000000000000000000000000000000000000000000FF00FFFF00FF0000000000000000
310
00000000000000000000000000000000FFFFFF00FFFF00FF0000000000FFFFFFFFFFFFFFFFFFFFFFFFFFFFFFFFFFFFFFFFFFFF00FFFF000000000000000000000000000000000000000000000000000000000000FFFFFFFFFFFFFFFFFFFFFFFFFFFFFFFFFFFFFFFFFFFFFFFFFFFFFFFFFFFFFFFFFFFFFFFFFFFFFFFFFFFFFF
310
FFFFFFFFFFFFFFFFFFFFFFFFFFFFFFFFFFFFFFFFFFFFFFFFFFFFFFFFFFFFFFFFFFFFFFFFFFFFFFFFFFFFFFFFFFFFFFFFFFFFFFFFFFFFFFFFFFFFFFFFFFFFFFFFFFFFFFFFFFFFFFFFFFFFFFFFFFFFFFFFFFFFFFFFFFFFFFFFFFFFFFFFFFFFFFFFFFFFFFFFFFFFFFFFFFFFFFFFFFFFFFFFFFFFFFFFFFFFFFFFFFFFFFFFFFFFFF
310
FFFFFFFFFFFFFFFFFFFFFFFFFFFFFFFFFFFFFFFFFFFFFFFFFFFFFFFFFFFFFFFFFFFFFFFFFFFFFFFFFFFFFFFFFFFFFFFFFFFFFFFFFFFFFFFFFFFFFFFFFFFFFFFFFFFFFFFFFFFFFFFFFFFFFFFFFFFFFFFFFFFFFFFFFFFFFFFFFFFFFFFFFFFFFFFFFFFFFFFFFFFFFFFFFFFFFFFFFFFFFFFFFFFFFFFFFFFFFFFFFFFFFFFFFFFFFF
310
FFFFFFFFFFFFFFFFFFFFFFFFFFFFFFFFFFFFFFFFFFFFFFFFFFFFFFFFFFFFFFFFFFFFFFFFFFFFFFFFFFFFFFFFFFFFFFFFFFFFFFFFFFFFFFFF
102
{BLKREFS
331
2C7F
331
2C85
102
}
  0
ENDTAB
  0
ENDSEC
  0
SECTION
  2
BLOCKS
  0
BLOCK
  5
2456
330
2455
100
AcDbEntity
  8
0
100
AcDbBlockBegin
  2
*Model_Space
 70
     0
 10
0.0
 20
0.0
 30
0.0
  3
*Model_Space
  1

  0
ENDBLK
  5
2457
330
2455
100
AcDbEntity
  8
0
100
AcDbBlockEnd
  0
BLOCK
  5
2452
330
2451
100
AcDbEntity
 67
     1
  8
0
100
AcDbBlockBegin
  2
*Paper_Space
 70
     0
 10
0.0
 20
0.0
 30
0.0
  3
*Paper_Space
  1

  0
ENDBLK
  5
2453
330
2451
100
AcDbEntity
 67
     1
  8
0
100
AcDbBlockEnd
  0
BLOCK
  5
2470
330
246F
100
AcDbEntity
  8
0
100
AcDbBlockBegin
  2
$MODEL_SPACE
 70
     0
 10
0.0
 20
0.0
 30
0.0
  3
$MODEL_SPACE
  1

  0
ENDBLK
  5
2471
330
246F
100
AcDbEntity
  8
0
100
AcDbBlockEnd
  0
BLOCK
  5
2473
330
2472
100
AcDbEntity
  8
0
100
AcDbBlockBegin
  2
$PAPER_SPACE
 70
     0
 10
0.0
 20
0.0
 30
0.0
  3
$PAPER_SPACE
  1

  0
ENDBLK
  5
2474
330
2472
100
AcDbEntity
  8
0
100
AcDbBlockEnd
  0
BLOCK
  5
26F8
330
26F5
100
AcDbEntity
  8
0
 62
     7
100
AcDbBlockBegin
  2
AI9-BLK14
 70
     0
 10
0.0
 20
0.0
 30
0.0
  3
AI9-BLK14
  1

  0
SPLINE
  5
26F6
330
26F5
100
AcDbEntity
  8
LAYER_1
 62
     7
100
AcDbSpline
210
0.0
220
0.0
230
1.0
 70
    11
 71
     3
 72
    23
 73
    19
 74
     0
 42
0.0000000001
 43
0.0000000001
 40
0.0
 40
0.0
 40
0.0
 40
0.0
 40
1.0
 40
1.0
 40
1.0
 40
2.0
 40
2.0
 40
2.0
 40
3.0
 40
3.0
 40
3.0
 40
4.0
 40
4.0
 40
4.0
 40
5.0
 40
5.0
 40
5.0
 40
6.0
 40
6.0
 40
6.0
 40
6.0
 10
-10.90321044921874
 20
10.88107571072048
 30
0.0
 10
-10.90321044921874
 20
10.88107571072048
 30
0.0
 10
-10.90321044921874
 20
-10.88107571072048
 30
0.0
 10
-10.90321044921874
 20
-10.88107571072048
 30
0.0
 10
-10.90321044921874
 20
-10.88107571072048
 30
0.0
 10
1.752692328559025
 20
-10.88107571072048
 30
0.0
 10
1.752692328559025
 20
-10.88107571072048
 30
0.0
 10
3.280592176649305
 20
-10.88107571072048
 30
0.0
 10
10.90321044921874
 20
-10.32383151584201
 30
0.0
 10
10.90321044921874
 20
0.6792867024739583
 30
0.0
 10
10.90321044921874
 20
10.61700914171006
 30
0.0
 10
2.773129611545138
 20
10.87952541775172
 30
0.0
 10
2.691136338975693
 20
10.88090345594618
 30
0.0
 10
2.691136338975693
 20
10.88090345594618
 30
0.0
 10
-9.903099229600693
 20
10.88107571072048
 30
0.0
 10
-9.903099229600693
 20
10.88107571072048
 30
0.0
 10
-9.903099229600693
 20
10.88107571072048
 30
0.0
 10
-10.90321044921874
 20
10.88107571072048
 30
0.0
 10
-10.90321044921874
 20
10.88107571072048
 30
0.0
  0
SPLINE
  5
26F7
330
26F5
100
AcDbEntity
  8
LAYER_1
 62
     7
100
AcDbSpline
210
0.0
220
0.0
230
1.0
 70
    11
 71
     3
 72
    20
 73
    16
 74
     0
 42
0.0000000001
 43
0.0000000001
 40
0.0
 40
0.0
 40
0.0
 40
0.0
 40
1.0
 40
1.0
 40
1.0
 40
2.0
 40
2.0
 40
2.0
 40
3.0
 40
3.0
 40
3.0
 40
4.0
 40
4.0
 40
4.0
 40
5.0
 40
5.0
 40
5.0
 40
5.0
 10
2.672877332899305
 20
8.881197781032986
 30
0.0
 10
2.905421278211805
 20
8.874307590060762
 30
0.0
 10
8.902988009982637
 20
8.616442192925347
 30
0.0
 10
8.902988009982637
 20
0.6792867024739583
 30
0.0
 10
8.902988009982637
 20
-8.191661919487842
 30
0.0
 10
3.430109320746526
 20
-8.881197781032986
 30
0.0
 10
1.752692328559025
 20
-8.881197781032986
 30
0.0
 10
1.752692328559025
 20
-8.881197781032986
 30
0.0
 10
-7.231427680121528
 20
-8.881197781032986
 30
0.0
 10
-8.902988009982637
 20
-8.881197781032986
 30
0.0
 10
-8.902988009982637
 20
-7.174497477213541
 30
0.0
 10
-8.902988009982637
 20
7.174497477213541
 30
0.0
 10
-8.902988009982637
 20
8.881197781032986
 30
0.0
 10
-7.208690049913191
 20
8.881197781032986
 30
0.0
 10
2.672877332899305
 20
8.881197781032986
 30
0.0
 10
2.672877332899305
 20
8.881197781032986
 30
0.0
  0
ENDBLK
  5
26F9
330
26F5
100
AcDbEntity
  8
0
100
AcDbBlockEnd
  0
BLOCK
  5
26FD
330
26FA
100
AcDbEntity
  8
0
 62
     7
100
AcDbBlockBegin
  2
AI9-BLK13
 70
     0
 10
0.0
 20
0.0
 30
0.0
  3
AI9-BLK13
  1

  0
LWPOLYLINE
  5
26FB
330
26FA
100
AcDbEntity
  8
LAYER_1
 62
     7
100
AcDbPolyline
 90
       12
 70
     1
 43
0.0
 10
-3.792361111111107
 20
10.7376736111111
 10
-2.469444444444443
 20
10.7376736111111
 10
-2.469444444444443
 20
1.874131944444444
 10
2.469444444444443
 20
1.874131944444444
 10
2.469444444444443
 20
10.7376736111111
 10
3.792361111111107
 20
10.7376736111111
 10
3.792361111111107
 20
-10.7376736111111
 10
2.469444444444443
 20
-10.7376736111111
 10
2.469444444444443
 20
-0.6835069444444444
 10
-2.469444444444443
 20
-0.6835069444444444
 10
-2.469444444444443
 20
-10.7376736111111
 10
-3.792361111111107
 20
-10.7376736111111
  0
HATCH
  5
26FC
330
26FA
100
AcDbEntity
  8
LAYER_1
 62
     7
100
AcDbHatch
 10
0.0
 20
0.0
 30
0.0
210
0.0
220
0.0
230
1.0
  2
SOLID
 70
     1
 71
     0
 91
        1
 92
        3
 72
     0
 73
     1
 93
       12
 10
-3.792361111111107
 20
10.7376736111111
 10
-2.469444444444443
 20
10.7376736111111
 10
-2.469444444444443
 20
1.874131944444444
 10
2.469444444444443
 20
1.874131944444444
 10
2.469444444444443
 20
10.7376736111111
 10
3.792361111111107
 20
10.7376736111111
 10
3.792361111111107
 20
-10.7376736111111
 10
2.469444444444443
 20
-10.7376736111111
 10
2.469444444444443
 20
-0.6835069444444444
 10
-2.469444444444443
 20
-0.6835069444444444
 10
-2.469444444444443
 20
-10.7376736111111
 10
-3.792361111111107
 20
-10.7376736111111
 97
        0
 75
     2
 76
     1
 98
        1
 10
0.0
 20
0.0
  0
ENDBLK
  5
26FE
330
26FA
100
AcDbEntity
  8
0
100
AcDbBlockEnd
  0
BLOCK
  5
2702
330
26FF
100
AcDbEntity
  8
0
 62
     7
100
AcDbBlockBegin
  2
AI9-BLK11
 70
     0
 10
0.0
 20
0.0
 30
0.0
  3
AI9-BLK11
  1

  0
SPLINE
  5
2700
330
26FF
100
AcDbEntity
  8
LAYER_1
 62
     7
100
AcDbSpline
210
0.0
220
0.0
230
1.0
 70
    11
 71
     3
 72
    26
 73
    22
 74
     0
 42
0.0000000001
 43
0.0000000001
 40
0.0
 40
0.0
 40
0.0
 40
0.0
 40
1.0
 40
1.0
 40
1.0
 40
2.0
 40
2.0
 40
2.0
 40
3.0
 40
3.0
 40
3.0
 40
4.0
 40
4.0
 40
4.0
 40
5.0
 40
5.0
 40
5.0
 40
6.0
 40
6.0
 40
6.0
 40
7.0
 40
7.0
 40
7.0
 40
7.0
 10
-2.645833333333333
 20
0.9039930555555551
 30
0.0
 10
-2.645833333333333
 20
0.9039930555555551
 30
0.0
 10
-2.645833333333333
 20
8.180034722222217
 30
0.0
 10
-2.645833333333333
 20
8.180034722222217
 30
0.0
 10
-2.645833333333333
 20
8.180034722222217
 30
0.0
 10
0.465087890625
 20
8.180034722222217
 30
0.0
 10
0.465087890625
 20
8.180034722222217
 30
0.0
 10
0.9026150173611108
 20
8.180034722222217
 30
0.0
 10
1.24988064236111
 20
8.034651692708331
 30
0.0
 10
1.506884765625
 20
7.745263671874997
 30
0.0
 10
2.001600477430554
 20
7.194048394097221
 30
0.0
 10
2.248958333333332
 20
6.160519748263887
 30
0.0
 10
2.248958333333332
 20
4.643299696180553
 30
0.0
 10
2.248958333333332
 20
3.232188585069443
 30
0.0
 10
2.072569444444444
 20
2.256537543402775
 30
0.0
 10
1.720480685763888
 20
1.715657552083333
 30
0.0
 10
1.368391927083333
 20
1.174088541666665
 30
0.0
 10
0.8929687499999998
 20
0.9039930555555551
 30
0.0
 10
0.2942111545138888
 20
0.9039930555555551
 30
0.0
 10
0.2942111545138888
 20
0.9039930555555551
 30
0.0
 10
-2.645833333333333
 20
0.9039930555555551
 30
0.0
 10
-2.645833333333333
 20
0.9039930555555551
 30
0.0
  0
SPLINE
  5
2701
330
26FF
100
AcDbEntity
  8
LAYER_1
 62
     7
100
AcDbSpline
210
0.0
220
0.0
230
1.0
 70
    11
 71
     3
 72
    68
 73
    64
 74
     0
 42
0.0000000001
 43
0.0000000001
 40
0.0
 40
0.0
 40
0.0
 40
0.0
 40
1.0
 40
1.0
 40
1.0
 40
2.0
 40
2.0
 40
2.0
 40
3.0
 40
3.0
 40
3.0
 40
4.0
 40
4.0
 40
4.0
 40
5.0
 40
5.0
 40
5.0
 40
6.0
 40
6.0
 40
6.0
 40
7.0
 40
7.0
 40
7.0
 40
8.0
 40
8.0
 40
8.0
 40
9.0
 40
9.0
 40
9.0
 40
10.0
 40
10.0
 40
10.0
 40
11.0
 40
11.0
 40
11.0
 40
12.0
 40
12.0
 40
12.0
 40
13.0
 40
13.0
 40
13.0
 40
14.0
 40
14.0
 40
14.0
 40
15.0
 40
15.0
 40
15.0
 40
16.0
 40
16.0
 40
16.0
 40
17.0
 40
17.0
 40
17.0
 40
18.0
 40
18.0
 40
18.0
 40
19.0
 40
19.0
 40
19.0
 40
20.0
 40
20.0
 40
20.0
 40
21.0
 40
21.0
 40
21.0
 40
21.0
 10
-3.968749999999998
 20
-10.7376736111111
 30
0.0
 10
-3.968749999999998
 20
-10.7376736111111
 30
0.0
 10
-2.645833333333333
 20
-10.7376736111111
 30
0.0
 10
-2.645833333333333
 20
-10.7376736111111
 30
0.0
 10
-2.645833333333333
 20
-10.7376736111111
 30
0.0
 10
-2.645833333333333
 20
-1.521354166666665
 30
0.0
 10
-2.645833333333333
 20
-1.521354166666665
 30
0.0
 10
-2.645833333333333
 20
-1.521354166666665
 30
0.0
 10
0.2390896267361111
 20
-1.521354166666665
 30
0.0
 10
0.2390896267361111
 20
-1.521354166666665
 30
0.0
 10
0.7599880642361111
 20
-1.521354166666665
 30
0.0
 10
1.143771701388887
 20
-1.65295681423611
 30
0.0
 10
1.390440538194444
 20
-1.916162109374999
 30
0.0
 10
1.816254340277773
 20
-2.39434136284722
 30
0.0
 10
2.04363064236111
 20
-3.335541449652775
 30
0.0
 10
2.072569444444444
 20
-4.739762369791666
 30
0.0
 10
2.072569444444444
 20
-4.739762369791666
 30
0.0
 10
2.160763888888888
 20
-8.324039713541665
 30
0.0
 10
2.160763888888888
 20
-8.324039713541665
 30
0.0
 10
2.18005642361111
 20
-9.163264973958332
 30
0.0
 10
2.202794053819443
 20
-9.728949652777775
 30
0.0
 10
2.227598741319444
 20
-10.02109374999998
 30
0.0
 10
2.252403428819443
 20
-10.31392686631944
 30
0.0
 10
2.28892144097222
 20
-10.55301649305555
 30
0.0
 10
2.33853081597222
 20
-10.7376736111111
 30
0.0
 10
2.33853081597222
 20
-10.7376736111111
 30
0.0
 10
3.968749999999998
 20
-10.7376736111111
 30
0.0
 10
3.968749999999998
 20
-10.7376736111111
 30
0.0
 10
3.968749999999998
 20
-10.7376736111111
 30
0.0
 10
3.968749999999998
 20
-10.25260416666666
 30
0.0
 10
3.968749999999998
 20
-10.25260416666666
 30
0.0
 10
3.766867404513888
 20
-10.05830078125
 30
0.0
 10
3.625618489583333
 20
-9.621462673611112
 30
0.0
 10
3.545692274305555
 20
-8.942089843749997
 30
0.0
 10
3.49470486111111
 20
-8.543836805555555
 30
0.0
 10
3.459564887152775
 20
-7.937499999999999
 30
0.0
 10
3.439583333333333
 20
-7.121701388888887
 30
0.0
 10
3.439583333333333
 20
-7.121701388888887
 30
0.0
 10
3.395486111111106
 20
-4.232644314236106
 30
0.0
 10
3.395486111111106
 20
-4.232644314236106
 30
0.0
 10
3.375504557291666
 20
-2.981385633680555
 30
0.0
 10
3.26870659722222
 20
-2.077392578125
 30
0.0
 10
3.075781249999999
 20
-1.522043185763888
 30
0.0
 10
2.882166883680555
 20
-0.9666937934027776
 30
0.0
 10
2.592089843749999
 20
-0.5188313802083333
 30
0.0
 10
2.204861111111106
 20
-0.1770779079861111
 30
0.0
 10
2.63618706597222
 20
0.3197048611111111
 30
0.0
 10
2.971739366319443
 20
0.9770290798611107
 30
0.0
 10
3.211518012152775
 20
1.79558376736111
 30
0.0
 10
3.451296657986107
 20
2.613449435763888
 30
0.0
 10
3.571874999999999
 20
3.66558159722222
 30
0.0
 10
3.571874999999999
 20
4.951291232638888
 30
0.0
 10
3.571874999999999
 20
7.415912543402777
 30
0.0
 10
3.124701605902775
 20
9.106076388888887
 30
0.0
 10
2.231043836805555
 20
10.02178276909722
 30
0.0
 10
1.759754774305553
 20
10.498583984375
 30
0.0
 10
1.163753255208332
 20
10.7376736111111
 30
0.0
 10
0.443039279513889
 20
10.7376736111111
 30
0.0
 10
0.443039279513889
 20
10.7376736111111
 30
0.0
 10
-3.968749999999998
 20
10.7376736111111
 30
0.0
 10
-3.968749999999998
 20
10.7376736111111
 30
0.0
 10
-3.968749999999998
 20
10.7376736111111
 30
0.0
 10
-3.968749999999998
 20
-10.7376736111111
 30
0.0
 10
-3.968749999999998
 20
-10.7376736111111
 30
0.0
  0
ENDBLK
  5
2703
330
26FF
100
AcDbEntity
  8
0
100
AcDbBlockEnd
  0
BLOCK
  5
2706
330
2704
100
AcDbEntity
  8
0
 62
     7
100
AcDbBlockBegin
  2
AI9-BLK10
 70
     0
 10
0.0
 20
0.0
 30
0.0
  3
AI9-BLK10
  1

  0
SPLINE
  5
2705
330
2704
100
AcDbEntity
  8
LAYER_1
 62
     7
100
AcDbSpline
210
0.0
220
0.0
230
1.0
 70
    11
 71
     3
 72
    59
 73
    55
 74
     0
 42
0.0000000001
 43
0.0000000001
 40
0.0
 40
0.0
 40
0.0
 40
0.0
 40
1.0
 40
1.0
 40
1.0
 40
2.0
 40
2.0
 40
2.0
 40
3.0
 40
3.0
 40
3.0
 40
4.0
 40
4.0
 40
4.0
 40
5.0
 40
5.0
 40
5.0
 40
6.0
 40
6.0
 40
6.0
 40
7.0
 40
7.0
 40
7.0
 40
8.0
 40
8.0
 40
8.0
 40
9.0
 40
9.0
 40
9.0
 40
10.0
 40
10.0
 40
10.0
 40
11.0
 40
11.0
 40
11.0
 40
12.0
 40
12.0
 40
12.0
 40
13.0
 40
13.0
 40
13.0
 40
14.0
 40
14.0
 40
14.0
 40
15.0
 40
15.0
 40
15.0
 40
16.0
 40
16.0
 40
16.0
 40
17.0
 40
17.0
 40
17.0
 40
18.0
 40
18.0
 40
18.0
 40
18.0
 10
-4.652256944444443
 20
10.7376736111111
 30
0.0
 10
-4.652256944444443
 20
10.7376736111111
 30
0.0
 10
-2.798795572916666
 20
10.7376736111111
 30
0.0
 10
-2.798795572916666
 20
10.7376736111111
 30
0.0
 10
-2.798795572916666
 20
10.7376736111111
 30
0.0
 10
0.0
 20
-7.419357638888887
 30
0.0
 10
0.0
 20
-7.419357638888887
 30
0.0
 10
0.0
 20
-7.419357638888887
 30
0.0
 10
2.793283420138888
 20
10.7376736111111
 30
0.0
 10
2.793283420138888
 20
10.7376736111111
 30
0.0
 10
2.793283420138888
 20
10.7376736111111
 30
0.0
 10
4.652256944444443
 20
10.7376736111111
 30
0.0
 10
4.652256944444443
 20
10.7376736111111
 30
0.0
 10
4.652256944444443
 20
10.7376736111111
 30
0.0
 10
4.652256944444443
 20
-10.7376736111111
 30
0.0
 10
4.652256944444443
 20
-10.7376736111111
 30
0.0
 10
4.652256944444443
 20
-10.7376736111111
 30
0.0
 10
3.41753472222222
 20
-10.7376736111111
 30
0.0
 10
3.41753472222222
 20
-10.7376736111111
 30
0.0
 10
3.41753472222222
 20
-10.7376736111111
 30
0.0
 10
3.41753472222222
 20
1.936832682291665
 30
0.0
 10
3.41753472222222
 20
1.936832682291665
 30
0.0
 10
3.41753472222222
 20
2.375048828124999
 30
0.0
 10
3.424424913194443
 20
3.101274956597221
 30
0.0
 10
3.439583333333333
 20
4.11482204861111
 30
0.0
 10
3.454052734374998
 20
5.128369140624998
 30
0.0
 10
3.461631944444443
 20
6.214952256944441
 30
0.0
 10
3.461631944444443
 20
7.375260416666666
 30
0.0
 10
3.461631944444443
 20
7.375260416666666
 30
0.0
 10
0.6538791232638889
 20
-10.7376736111111
 30
0.0
 10
0.6538791232638889
 20
-10.7376736111111
 30
0.0
 10
0.6538791232638889
 20
-10.7376736111111
 30
0.0
 10
-0.6628363715277778
 20
-10.7376736111111
 30
0.0
 10
-0.6628363715277778
 20
-10.7376736111111
 30
0.0
 10
-0.6628363715277778
 20
-10.7376736111111
 30
0.0
 10
-3.461631944444443
 20
7.375260416666666
 30
0.0
 10
-3.461631944444443
 20
7.375260416666666
 30
0.0
 10
-3.461631944444443
 20
7.375260416666666
 30
0.0
 10
-3.461631944444443
 20
6.717247178819441
 30
0.0
 10
-3.461631944444443
 20
6.717247178819441
 30
0.0
 10
-3.461631944444443
 20
6.190836588541666
 30
0.0
 10
-3.45474175347222
 20
5.389507378472222
 30
0.0
 10
-3.439583333333333
 20
4.312570529513888
 30
0.0
 10
-3.425113932291666
 20
3.235633680555555
 30
0.0
 10
-3.41753472222222
 20
2.44395073784722
 30
0.0
 10
-3.41753472222222
 20
1.936832682291665
 30
0.0
 10
-3.41753472222222
 20
1.936832682291665
 30
0.0
 10
-3.41753472222222
 20
-10.7376736111111
 30
0.0
 10
-3.41753472222222
 20
-10.7376736111111
 30
0.0
 10
-3.41753472222222
 20
-10.7376736111111
 30
0.0
 10
-4.652256944444443
 20
-10.7376736111111
 30
0.0
 10
-4.652256944444443
 20
-10.7376736111111
 30
0.0
 10
-4.652256944444443
 20
-10.7376736111111
 30
0.0
 10
-4.652256944444443
 20
10.7376736111111
 30
0.0
 10
-4.652256944444443
 20
10.7376736111111
 30
0.0
  0
ENDBLK
  5
2707
330
2704
100
AcDbEntity
  8
0
100
AcDbBlockEnd
  0
BLOCK
  5
270B
330
2708
100
AcDbEntity
  8
0
 62
     7
100
AcDbBlockBegin
  2
AI9-BLK9
 70
     0
 10
0.0
 20
0.0
 30
0.0
  3
AI9-BLK9
  1

  0
SPLINE
  5
2709
330
2708
100
AcDbEntity
  8
LAYER_1
 62
     7
100
AcDbSpline
210
0.0
220
0.0
230
1.0
 70
    11
 71
     3
 72
    29
 73
    25
 74
     0
 42
0.0000000001
 43
0.0000000001
 40
0.0
 40
0.0
 40
0.0
 40
0.0
 40
1.0
 40
1.0
 40
1.0
 40
2.0
 40
2.0
 40
2.0
 40
3.0
 40
3.0
 40
3.0
 40
4.0
 40
4.0
 40
4.0
 40
5.0
 40
5.0
 40
5.0
 40
6.0
 40
6.0
 40
6.0
 40
7.0
 40
7.0
 40
7.0
 40
8.0
 40
8.0
 40
8.0
 40
8.0
 10
0.0668348524305556
 20
-8.753298611111111
 30
0.0
 10
-0.9067491319444444
 20
-8.753298611111111
 30
0.0
 10
-1.60954861111111
 20
-7.936810980902778
 30
0.0
 10
-2.041563585069444
 20
-6.30383572048611
 30
0.0
 10
-2.474267578124999
 20
-4.670860460069443
 30
0.0
 10
-2.689930555555555
 20
-2.664436848958333
 30
0.0
 10
-2.689930555555555
 20
-0.28525390625
 30
0.0
 10
-2.689930555555555
 20
2.68855251736111
 30
0.0
 10
-2.439127604166666
 20
4.938199869791666
 30
0.0
 10
-1.937521701388888
 20
6.464377170138886
 30
0.0
 10
-1.43591579861111
 20
7.989865451388887
 30
0.0
 10
-0.7827256944444444
 20
8.753298611111111
 30
0.0
 10
0.0220486111111111
 20
8.753298611111111
 30
0.0
 10
0.8468044704861108
 20
8.753298611111111
 30
0.0
 10
1.49792751736111
 20
7.982975260416663
 30
0.0
 10
1.974728732638888
 20
6.442328559027776
 30
0.0
 10
2.451529947916665
 20
4.901681857638886
 30
0.0
 10
2.689930555555555
 20
2.868386501736111
 30
0.0
 10
2.689930555555555
 20
0.3438205295138888
 30
0.0
 10
2.689930555555555
 20
-2.045697699652774
 30
0.0
 10
2.483224826388884
 20
-4.15891927083333
 30
0.0
 10
2.071191406249999
 20
-5.996533203124998
 30
0.0
 10
1.65915798611111
 20
-7.834836154513887
 30
0.0
 10
0.9908094618055557
 20
-8.753298611111111
 30
0.0
 10
0.0668348524305556
 20
-8.753298611111111
 30
0.0
  0
SPLINE
  5
270A
330
2708
100
AcDbEntity
  8
LAYER_1
 62
     7
100
AcDbSpline
210
0.0
220
0.0
230
1.0
 70
    11
 71
     3
 72
    29
 73
    25
 74
     0
 42
0.0000000001
 43
0.0000000001
 40
0.0
 40
0.0
 40
0.0
 40
0.0
 40
1.0
 40
1.0
 40
1.0
 40
2.0
 40
2.0
 40
2.0
 40
3.0
 40
3.0
 40
3.0
 40
4.0
 40
4.0
 40
4.0
 40
5.0
 40
5.0
 40
5.0
 40
6.0
 40
6.0
 40
6.0
 40
7.0
 40
7.0
 40
7.0
 40
8.0
 40
8.0
 40
8.0
 40
8.0
 10
-0.0289388020833333
 20
11.35503472222222
 30
0.0
 10
-1.317404513888887
 20
11.35503472222222
 30
0.0
 10
-2.28892144097222
 20
10.02798394097222
 30
0.0
 10
-2.94280056423611
 20
7.374571397569441
 30
0.0
 10
-3.450607638888888
 20
5.30613606770833
 30
0.0
 10
-3.704166666666666
 20
2.81877712673611
 30
0.0
 10
-3.704166666666666
 20
-0.0881944444444445
 30
0.0
 10
-3.704166666666666
 20
-3.307291666666666
 30
0.0
 10
-3.406510416666666
 20
-5.97035047743055
 30
0.0
 10
-2.811197916666666
 20
-8.077370876736106
 30
0.0
 10
-2.147672526041664
 20
-10.26293945312499
 30
0.0
 10
-1.229899088541666
 20
-11.35503472222222
 30
0.0
 10
-0.0585666232638889
 20
-11.35503472222222
 30
0.0
 10
1.20027126736111
 20
-11.35503472222222
 30
0.0
 10
2.166276041666665
 20
-10.10653211805555
 30
0.0
 10
2.840136718749998
 20
-7.609526909722221
 30
0.0
 10
3.416156684027776
 20
-5.483213975694441
 30
0.0
 10
3.704166666666666
 20
-2.814643012152775
 30
0.0
 10
3.704166666666666
 20
0.3948079427083333
 30
0.0
 10
3.704166666666666
 20
3.360346137152776
 30
0.0
 10
3.449918619791666
 20
5.793961588541666
 30
0.0
 10
2.94280056423611
 20
7.696343315972222
 30
0.0
 10
2.298567708333333
 20
10.13547092013888
 30
0.0
 10
1.307758246527777
 20
11.35503472222222
 30
0.0
 10
-0.0289388020833333
 20
11.35503472222222
 30
0.0
  0
ENDBLK
  5
270C
330
2708
100
AcDbEntity
  8
0
100
AcDbBlockEnd
  0
BLOCK
  5
2710
330
270D
100
AcDbEntity
  8
0
 62
     7
100
AcDbBlockBegin
  2
AI9-BLK8
 70
     0
 10
0.0
 20
0.0
 30
0.0
  3
AI9-BLK8
  1

  0
LWPOLYLINE
  5
270E
330
270D
100
AcDbEntity
  8
LAYER_1
 62
     7
100
AcDbPolyline
 90
       10
 70
     1
 43
0.0
 10
-3.792361111111107
 20
10.7376736111111
 10
-2.268939887152773
 20
10.7376736111111
 10
2.557638888888888
 20
-6.505718315972222
 10
2.557638888888888
 20
10.7376736111111
 10
3.792361111111107
 20
10.7376736111111
 10
3.792361111111107
 20
-10.7376736111111
 10
2.32612847222222
 20
-10.7376736111111
 10
-2.557638888888888
 20
6.549815538194441
 10
-2.557638888888888
 20
-10.7376736111111
 10
-3.792361111111107
 20
-10.7376736111111
  0
HATCH
  5
270F
330
270D
100
AcDbEntity
  8
LAYER_1
 62
     7
100
AcDbHatch
 10
0.0
 20
0.0
 30
0.0
210
0.0
220
0.0
230
1.0
  2
SOLID
 70
     1
 71
     0
 91
        1
 92
        3
 72
     0
 73
     1
 93
       10
 10
-3.792361111111107
 20
10.7376736111111
 10
-2.268939887152773
 20
10.7376736111111
 10
2.557638888888888
 20
-6.505718315972222
 10
2.557638888888888
 20
10.7376736111111
 10
3.792361111111107
 20
10.7376736111111
 10
3.792361111111107
 20
-10.7376736111111
 10
2.32612847222222
 20
-10.7376736111111
 10
-2.557638888888888
 20
6.549815538194441
 10
-2.557638888888888
 20
-10.7376736111111
 10
-3.792361111111107
 20
-10.7376736111111
 97
        0
 75
     2
 76
     1
 98
        1
 10
0.0
 20
0.0
  0
ENDBLK
  5
2711
330
270D
100
AcDbEntity
  8
0
100
AcDbBlockEnd
  0
BLOCK
  5
2715
330
2712
100
AcDbEntity
  8
0
 62
     7
100
AcDbBlockBegin
  2
AI9-BLK7
 70
     0
 10
0.0
 20
0.0
 30
0.0
  3
AI9-BLK7
  1

  0
LWPOLYLINE
  5
2713
330
2712
100
AcDbEntity
  8
LAYER_1
 62
     7
100
AcDbPolyline
 90
        4
 70
     1
 43
0.0
 10
-0.6614583333333333
 20
10.7376736111111
 10
0.6614583333333333
 20
10.7376736111111
 10
0.6614583333333333
 20
-10.7376736111111
 10
-0.6614583333333333
 20
-10.7376736111111
  0
HATCH
  5
2714
330
2712
100
AcDbEntity
  8
LAYER_1
 62
     7
100
AcDbHatch
 10
0.0
 20
0.0
 30
0.0
210
0.0
220
0.0
230
1.0
  2
SOLID
 70
     1
 71
     0
 91
        1
 92
        3
 72
     0
 73
     1
 93
        4
 10
-0.6614583333333333
 20
10.7376736111111
 10
0.6614583333333333
 20
10.7376736111111
 10
0.6614583333333333
 20
-10.7376736111111
 10
-0.6614583333333333
 20
-10.7376736111111
 97
        0
 75
     2
 76
     1
 98
        1
 10
0.0
 20
0.0
  0
ENDBLK
  5
2716
330
2712
100
AcDbEntity
  8
0
100
AcDbBlockEnd
  0
BLOCK
  5
2719
330
2717
100
AcDbEntity
  8
0
 62
     7
100
AcDbBlockBegin
  2
AI9-BLK6
 70
     0
 10
0.0
 20
0.0
 30
0.0
  3
AI9-BLK6
  1

  0
SPLINE
  5
2718
330
2717
100
AcDbEntity
  8
LAYER_1
 62
     7
100
AcDbSpline
210
0.0
220
0.0
230
1.0
 70
    11
 71
     3
 72
    59
 73
    55
 74
     0
 42
0.0000000001
 43
0.0000000001
 40
0.0
 40
0.0
 40
0.0
 40
0.0
 40
1.0
 40
1.0
 40
1.0
 40
2.0
 40
2.0
 40
2.0
 40
3.0
 40
3.0
 40
3.0
 40
4.0
 40
4.0
 40
4.0
 40
5.0
 40
5.0
 40
5.0
 40
6.0
 40
6.0
 40
6.0
 40
7.0
 40
7.0
 40
7.0
 40
8.0
 40
8.0
 40
8.0
 40
9.0
 40
9.0
 40
9.0
 40
10.0
 40
10.0
 40
10.0
 40
11.0
 40
11.0
 40
11.0
 40
12.0
 40
12.0
 40
12.0
 40
13.0
 40
13.0
 40
13.0
 40
14.0
 40
14.0
 40
14.0
 40
15.0
 40
15.0
 40
15.0
 40
16.0
 40
16.0
 40
16.0
 40
17.0
 40
17.0
 40
17.0
 40
18.0
 40
18.0
 40
18.0
 40
18.0
 10
3.062689887152775
 20
9.168088107638887
 30
0.0
 10
3.735172526041666
 20
7.739062499999997
 30
0.0
 10
4.110687934027776
 20
6.116422526041666
 30
0.0
 10
4.189236111111108
 20
4.299479166666666
 30
0.0
 10
4.189236111111108
 20
4.299479166666666
 30
0.0
 10
2.866319444444443
 20
4.299479166666666
 30
0.0
 10
2.866319444444443
 20
4.299479166666666
 30
0.0
 10
2.720936414930555
 20
5.667871093749997
 30
0.0
 10
2.435682508680555
 20
6.752387152777776
 30
0.0
 10
2.009868706597218
 20
7.553027343749997
 30
0.0
 10
1.584054904513888
 20
8.352978515624997
 30
0.0
 10
0.9839192708333332
 20
8.753298611111111
 30
0.0
 10
0.2101508246527778
 20
8.753298611111111
 30
0.0
 10
-0.7386284722222222
 20
8.753298611111111
 30
0.0
 10
-1.503439670138888
 20
8.010536024305555
 30
0.0
 10
-2.083593749999999
 20
6.526388888888886
 30
0.0
 10
-2.664436848958333
 20
5.042241753472221
 30
0.0
 10
-2.954513888888888
 20
2.767100694444443
 30
0.0
 10
-2.954513888888888
 20
-0.2990342881944444
 30
0.0
 10
-2.954513888888888
 20
-2.811197916666666
 30
0.0
 10
-2.693375651041666
 20
-4.847938368055555
 30
0.0
 10
-2.17041015625
 20
-6.409944661458332
 30
0.0
 10
-1.648133680555553
 20
-7.972639973958332
 30
0.0
 10
-0.8640299479166666
 20
-8.753298611111111
 30
0.0
 10
0.1812120225694444
 20
-8.753298611111111
 30
0.0
 10
1.138948567708333
 20
-8.753298611111111
 30
0.0
 10
1.865174696180553
 20
-7.927853732638887
 30
0.0
 10
2.359201388888884
 20
-6.275585937499998
 30
0.0
 10
2.62998589409722
 20
-5.406043836805555
 30
0.0
 10
2.828423394097221
 20
-4.262272135416666
 30
0.0
 10
2.954513888888888
 20
-2.844270833333331
 30
0.0
 10
2.954513888888888
 20
-2.844270833333331
 30
0.0
 10
4.277430555555555
 20
-2.844270833333331
 30
0.0
 10
4.277430555555555
 20
-2.844270833333331
 30
0.0
 10
4.169943576388888
 20
-5.109765624999996
 30
0.0
 10
3.795117187499998
 20
-7.009391276041665
 30
0.0
 10
3.151573350694443
 20
-8.542458767361106
 30
0.0
 10
2.381249999999999
 20
-10.38834092881943
 30
0.0
 10
1.347721354166665
 20
-11.3109375
 30
0.0
 10
0.0509874131944445
 20
-11.3109375
 30
0.0
 10
-1.07004665798611
 20
-11.3109375
 30
0.0
 10
-2.010557725694444
 20
-10.55577256944443
 30
0.0
 10
-2.771234809027776
 20
-9.04475368923611
 30
0.0
 10
-3.775824652777775
 20
-7.046598307291666
 30
0.0
 10
-4.277430555555555
 20
-3.961170789930555
 30
0.0
 10
-4.277430555555555
 20
0.2115288628472222
 30
0.0
 10
-4.277430555555555
 20
3.379638671874998
 30
0.0
 10
-3.902604166666666
 20
5.977929687499997
 30
0.0
 10
-3.151573350694443
 20
8.005712890624996
 30
0.0
 10
-2.333018663194443
 20
10.20919596354165
 30
0.0
 10
-1.20647243923611
 20
11.3109375
 30
0.0
 10
0.2266872829861111
 20
11.3109375
 30
0.0
 10
1.444873046875
 20
11.3109375
 30
0.0
 10
2.390207248263884
 20
10.59642469618055
 30
0.0
 10
3.062689887152775
 20
9.168088107638887
 30
0.0
  0
ENDBLK
  5
271A
330
2717
100
AcDbEntity
  8
0
100
AcDbBlockEnd
  0
BLOCK
  5
271E
330
271B
100
AcDbEntity
  8
0
 62
     7
100
AcDbBlockBegin
  2
AI9-BLK5
 70
     0
 10
0.0
 20
0.0
 30
0.0
  3
AI9-BLK5
  1

  0
SPLINE
  5
271C
330
271B
100
AcDbEntity
  8
LAYER_1
 62
     7
100
AcDbSpline
210
0.0
220
0.0
230
1.0
 70
    11
 71
     3
 72
    32
 73
    28
 74
     0
 42
0.0000000001
 43
0.0000000001
 40
0.0
 40
0.0
 40
0.0
 40
0.0
 40
1.0
 40
1.0
 40
1.0
 40
2.0
 40
2.0
 40
2.0
 40
3.0
 40
3.0
 40
3.0
 40
4.0
 40
4.0
 40
4.0
 40
5.0
 40
5.0
 40
5.0
 40
6.0
 40
6.0
 40
6.0
 40
7.0
 40
7.0
 40
7.0
 40
8.0
 40
8.0
 40
8.0
 40
9.0
 40
9.0
 40
9.0
 40
9.0
 10
-2.62378472222222
 20
-8.268229166666666
 30
0.0
 10
-2.62378472222222
 20
-8.268229166666666
 30
0.0
 10
-2.62378472222222
 20
8.180034722222217
 30
0.0
 10
-2.62378472222222
 20
8.180034722222217
 30
0.0
 10
-2.62378472222222
 20
8.180034722222217
 30
0.0
 10
-0.3376193576388888
 20
8.180034722222217
 30
0.0
 10
-0.3376193576388888
 20
8.180034722222217
 30
0.0
 10
0.6972873263888888
 20
8.180034722222217
 30
0.0
 10
1.449007161458333
 20
7.445540364583332
 30
0.0
 10
1.918918185763885
 20
5.977929687499997
 30
0.0
 10
2.388829210069443
 20
4.510319010416666
 30
0.0
 10
2.62378472222222
 20
2.449462890624999
 30
0.0
 10
2.62378472222222
 20
-0.204638671875
 30
0.0
 10
2.62378472222222
 20
-0.8950358072916666
 30
0.0
 10
2.590022786458332
 20
-1.643310546874999
 30
0.0
 10
2.523187934027773
 20
-2.45015190972222
 30
0.0
 10
2.408121744791666
 20
-3.80200737847222
 30
0.0
 10
2.226220703124999
 20
-4.909950086805555
 30
0.0
 10
1.976795789930553
 20
-5.774669053819441
 30
0.0
 10
1.659847005208333
 20
-6.853672960069442
 30
0.0
 10
1.252636718749998
 20
-7.583344184027778
 30
0.0
 10
0.7544759114583333
 20
-7.962304687499997
 30
0.0
 10
0.4664659288194444
 20
-8.166254340277777
 30
0.0
 10
0.1074869791666666
 20
-8.268229166666666
 30
0.0
 10
-0.3231499565972222
 20
-8.268229166666666
 30
0.0
 10
-0.3231499565972222
 20
-8.268229166666666
 30
0.0
 10
-2.62378472222222
 20
-8.268229166666666
 30
0.0
 10
-2.62378472222222
 20
-8.268229166666666
 30
0.0
  0
SPLINE
  5
271D
330
271B
100
AcDbEntity
  8
LAYER_1
 62
     7
100
AcDbSpline
210
0.0
220
0.0
230
1.0
 70
    11
 71
     3
 72
    26
 73
    22
 74
     0
 42
0.0000000001
 43
0.0000000001
 40
0.0
 40
0.0
 40
0.0
 40
0.0
 40
1.0
 40
1.0
 40
1.0
 40
2.0
 40
2.0
 40
2.0
 40
3.0
 40
3.0
 40
3.0
 40
4.0
 40
4.0
 40
4.0
 40
5.0
 40
5.0
 40
5.0
 40
6.0
 40
6.0
 40
6.0
 40
7.0
 40
7.0
 40
7.0
 40
7.0
 10
-3.946701388888888
 20
-10.7376736111111
 30
0.0
 10
-3.946701388888888
 20
-10.7376736111111
 30
0.0
 10
-0.0943956163194444
 20
-10.7376736111111
 30
0.0
 10
-0.0943956163194444
 20
-10.7376736111111
 30
0.0
 10
1.546847873263885
 20
-10.7376736111111
 30
0.0
 10
2.705777994791666
 20
-9.11021050347222
 30
0.0
 10
3.381705729166666
 20
-5.854595269097222
 30
0.0
 10
3.757910156249999
 20
-4.01284722222222
 30
0.0
 10
3.946701388888888
 20
-1.951991102430555
 30
0.0
 10
3.946701388888888
 20
0.328662109375
 30
0.0
 10
3.946701388888888
 20
3.281797960069443
 30
0.0
 10
3.622862413194443
 20
5.703700086805552
 30
0.0
 10
2.976562499999998
 20
7.594368489583332
 30
0.0
 10
2.25171440972222
 20
9.689675564236106
 30
0.0
 10
1.233344184027777
 20
10.7376736111111
 30
0.0
 10
-0.0799262152777778
 20
10.7376736111111
 30
0.0
 10
-0.0799262152777778
 20
10.7376736111111
 30
0.0
 10
-3.946701388888888
 20
10.7376736111111
 30
0.0
 10
-3.946701388888888
 20
10.7376736111111
 30
0.0
 10
-3.946701388888888
 20
10.7376736111111
 30
0.0
 10
-3.946701388888888
 20
-10.7376736111111
 30
0.0
 10
-3.946701388888888
 20
-10.7376736111111
 30
0.0
  0
ENDBLK
  5
271F
330
271B
100
AcDbEntity
  8
0
100
AcDbBlockEnd
  0
BLOCK
  5
2723
330
2720
100
AcDbEntity
  8
0
 62
     7
100
AcDbBlockBegin
  2
AI9-BLK4
 70
     0
 10
0.0
 20
0.0
 30
0.0
  3
AI9-BLK4
  1

  0
SPLINE
  5
2721
330
2720
100
AcDbEntity
  8
LAYER_1
 62
     7
100
AcDbSpline
210
0.0
220
0.0
230
1.0
 70
    11
 71
     3
 72
    26
 73
    22
 74
     0
 42
0.0000000001
 43
0.0000000001
 40
0.0
 40
0.0
 40
0.0
 40
0.0
 40
1.0
 40
1.0
 40
1.0
 40
2.0
 40
2.0
 40
2.0
 40
3.0
 40
3.0
 40
3.0
 40
4.0
 40
4.0
 40
4.0
 40
5.0
 40
5.0
 40
5.0
 40
6.0
 40
6.0
 40
6.0
 40
7.0
 40
7.0
 40
7.0
 40
7.0
 10
-2.645833333333333
 20
0.9039930555555551
 30
0.0
 10
-2.645833333333333
 20
0.9039930555555551
 30
0.0
 10
-2.645833333333333
 20
8.180034722222217
 30
0.0
 10
-2.645833333333333
 20
8.180034722222217
 30
0.0
 10
-2.645833333333333
 20
8.180034722222217
 30
0.0
 10
0.465087890625
 20
8.180034722222217
 30
0.0
 10
0.465087890625
 20
8.180034722222217
 30
0.0
 10
0.9026150173611108
 20
8.180034722222217
 30
0.0
 10
1.24988064236111
 20
8.034651692708331
 30
0.0
 10
1.506884765625
 20
7.745263671874997
 30
0.0
 10
2.001600477430554
 20
7.194048394097221
 30
0.0
 10
2.248958333333332
 20
6.160519748263887
 30
0.0
 10
2.248958333333332
 20
4.643299696180553
 30
0.0
 10
2.248958333333332
 20
3.232188585069443
 30
0.0
 10
2.072569444444444
 20
2.256537543402775
 30
0.0
 10
1.720480685763888
 20
1.715657552083333
 30
0.0
 10
1.368391927083333
 20
1.174088541666665
 30
0.0
 10
0.8929687499999998
 20
0.9039930555555551
 30
0.0
 10
0.2942111545138888
 20
0.9039930555555551
 30
0.0
 10
0.2942111545138888
 20
0.9039930555555551
 30
0.0
 10
-2.645833333333333
 20
0.9039930555555551
 30
0.0
 10
-2.645833333333333
 20
0.9039930555555551
 30
0.0
  0
SPLINE
  5
2722
330
2720
100
AcDbEntity
  8
LAYER_1
 62
     7
100
AcDbSpline
210
0.0
220
0.0
230
1.0
 70
    11
 71
     3
 72
    68
 73
    64
 74
     0
 42
0.0000000001
 43
0.0000000001
 40
0.0
 40
0.0
 40
0.0
 40
0.0
 40
1.0
 40
1.0
 40
1.0
 40
2.0
 40
2.0
 40
2.0
 40
3.0
 40
3.0
 40
3.0
 40
4.0
 40
4.0
 40
4.0
 40
5.0
 40
5.0
 40
5.0
 40
6.0
 40
6.0
 40
6.0
 40
7.0
 40
7.0
 40
7.0
 40
8.0
 40
8.0
 40
8.0
 40
9.0
 40
9.0
 40
9.0
 40
10.0
 40
10.0
 40
10.0
 40
11.0
 40
11.0
 40
11.0
 40
12.0
 40
12.0
 40
12.0
 40
13.0
 40
13.0
 40
13.0
 40
14.0
 40
14.0
 40
14.0
 40
15.0
 40
15.0
 40
15.0
 40
16.0
 40
16.0
 40
16.0
 40
17.0
 40
17.0
 40
17.0
 40
18.0
 40
18.0
 40
18.0
 40
19.0
 40
19.0
 40
19.0
 40
20.0
 40
20.0
 40
20.0
 40
21.0
 40
21.0
 40
21.0
 40
21.0
 10
-3.968749999999998
 20
-10.7376736111111
 30
0.0
 10
-3.968749999999998
 20
-10.7376736111111
 30
0.0
 10
-2.645833333333333
 20
-10.7376736111111
 30
0.0
 10
-2.645833333333333
 20
-10.7376736111111
 30
0.0
 10
-2.645833333333333
 20
-10.7376736111111
 30
0.0
 10
-2.645833333333333
 20
-1.521354166666665
 30
0.0
 10
-2.645833333333333
 20
-1.521354166666665
 30
0.0
 10
-2.645833333333333
 20
-1.521354166666665
 30
0.0
 10
0.2390896267361111
 20
-1.521354166666665
 30
0.0
 10
0.2390896267361111
 20
-1.521354166666665
 30
0.0
 10
0.7599880642361111
 20
-1.521354166666665
 30
0.0
 10
1.143771701388887
 20
-1.65295681423611
 30
0.0
 10
1.390440538194444
 20
-1.916162109374999
 30
0.0
 10
1.816254340277773
 20
-2.39434136284722
 30
0.0
 10
2.04363064236111
 20
-3.335541449652775
 30
0.0
 10
2.072569444444444
 20
-4.739762369791666
 30
0.0
 10
2.072569444444444
 20
-4.739762369791666
 30
0.0
 10
2.160763888888888
 20
-8.324039713541665
 30
0.0
 10
2.160763888888888
 20
-8.324039713541665
 30
0.0
 10
2.18005642361111
 20
-9.163264973958332
 30
0.0
 10
2.202794053819443
 20
-9.728949652777775
 30
0.0
 10
2.227598741319444
 20
-10.02109374999998
 30
0.0
 10
2.252403428819443
 20
-10.31392686631944
 30
0.0
 10
2.28892144097222
 20
-10.55301649305555
 30
0.0
 10
2.33853081597222
 20
-10.7376736111111
 30
0.0
 10
2.33853081597222
 20
-10.7376736111111
 30
0.0
 10
3.968749999999998
 20
-10.7376736111111
 30
0.0
 10
3.968749999999998
 20
-10.7376736111111
 30
0.0
 10
3.968749999999998
 20
-10.7376736111111
 30
0.0
 10
3.968749999999998
 20
-10.25260416666666
 30
0.0
 10
3.968749999999998
 20
-10.25260416666666
 30
0.0
 10
3.766867404513888
 20
-10.05830078125
 30
0.0
 10
3.625618489583333
 20
-9.621462673611112
 30
0.0
 10
3.545692274305555
 20
-8.942089843749997
 30
0.0
 10
3.49470486111111
 20
-8.543836805555555
 30
0.0
 10
3.459564887152775
 20
-7.937499999999999
 30
0.0
 10
3.439583333333333
 20
-7.121701388888887
 30
0.0
 10
3.439583333333333
 20
-7.121701388888887
 30
0.0
 10
3.395486111111106
 20
-4.232644314236106
 30
0.0
 10
3.395486111111106
 20
-4.232644314236106
 30
0.0
 10
3.375504557291666
 20
-2.981385633680555
 30
0.0
 10
3.26870659722222
 20
-2.077392578125
 30
0.0
 10
3.075781249999999
 20
-1.522043185763888
 30
0.0
 10
2.882166883680555
 20
-0.9666937934027776
 30
0.0
 10
2.592089843749999
 20
-0.5188313802083333
 30
0.0
 10
2.204861111111106
 20
-0.1770779079861111
 30
0.0
 10
2.63618706597222
 20
0.3197048611111111
 30
0.0
 10
2.971739366319443
 20
0.9770290798611107
 30
0.0
 10
3.211518012152775
 20
1.79558376736111
 30
0.0
 10
3.451296657986107
 20
2.613449435763888
 30
0.0
 10
3.571874999999999
 20
3.66558159722222
 30
0.0
 10
3.571874999999999
 20
4.951291232638888
 30
0.0
 10
3.571874999999999
 20
7.415912543402777
 30
0.0
 10
3.124701605902775
 20
9.106076388888887
 30
0.0
 10
2.231043836805555
 20
10.02178276909722
 30
0.0
 10
1.759754774305553
 20
10.498583984375
 30
0.0
 10
1.163753255208332
 20
10.7376736111111
 30
0.0
 10
0.443039279513889
 20
10.7376736111111
 30
0.0
 10
0.443039279513889
 20
10.7376736111111
 30
0.0
 10
-3.968749999999998
 20
10.7376736111111
 30
0.0
 10
-3.968749999999998
 20
10.7376736111111
 30
0.0
 10
-3.968749999999998
 20
10.7376736111111
 30
0.0
 10
-3.968749999999998
 20
-10.7376736111111
 30
0.0
 10
-3.968749999999998
 20
-10.7376736111111
 30
0.0
  0
ENDBLK
  5
2724
330
2720
100
AcDbEntity
  8
0
100
AcDbBlockEnd
  0
BLOCK
  5
2728
330
2725
100
AcDbEntity
  8
0
 62
     7
100
AcDbBlockBegin
  2
AI9-BLK3
 70
     0
 10
0.0
 20
0.0
 30
0.0
  3
AI9-BLK3
  1

  0
LWPOLYLINE
  5
2726
330
2725
100
AcDbEntity
  8
LAYER_1
 62
     7
100
AcDbPolyline
 90
        4
 70
     1
 43
0.0
 10
-0.6613722059461809
 20
10.7376736111111
 10
0.6613722059461809
 20
10.7376736111111
 10
0.6613722059461809
 20
-10.7376736111111
 10
-0.6613722059461809
 20
-10.7376736111111
  0
HATCH
  5
2727
330
2725
100
AcDbEntity
  8
LAYER_1
 62
     7
100
AcDbHatch
 10
0.0
 20
0.0
 30
0.0
210
0.0
220
0.0
230
1.0
  2
SOLID
 70
     1
 71
     0
 91
        1
 92
        3
 72
     0
 73
     1
 93
        4
 10
-0.6613722059461809
 20
10.7376736111111
 10
0.6613722059461809
 20
10.7376736111111
 10
0.6613722059461809
 20
-10.7376736111111
 10
-0.6613722059461809
 20
-10.7376736111111
 97
        0
 75
     2
 76
     1
 98
        1
 10
0.0
 20
0.0
  0
ENDBLK
  5
2729
330
2725
100
AcDbEntity
  8
0
100
AcDbBlockEnd
  0
BLOCK
  5
272D
330
272A
100
AcDbEntity
  8
0
 62
     7
100
AcDbBlockBegin
  2
AI9-BLK2
 70
     0
 10
0.0
 20
0.0
 30
0.0
  3
AI9-BLK2
  1

  0
LWPOLYLINE
  5
272B
330
272A
100
AcDbEntity
  8
LAYER_1
 62
     7
100
AcDbPolyline
 90
        7
 70
     1
 43
0.0
 10
-2.785704210069443
 20
10.7376736111111
 10
0.0
 20
-7.550960286458332
 10
2.771234809027776
 20
10.7376736111111
 10
4.233333333333331
 20
10.7376736111111
 10
0.6910861545138888
 20
-10.7376736111111
 10
-0.7055555555555558
 20
-10.7376736111111
 10
-4.233333333333331
 20
10.7376736111111
  0
HATCH
  5
272C
330
272A
100
AcDbEntity
  8
LAYER_1
 62
     7
100
AcDbHatch
 10
0.0
 20
0.0
 30
0.0
210
0.0
220
0.0
230
1.0
  2
SOLID
 70
     1
 71
     0
 91
        1
 92
        3
 72
     0
 73
     1
 93
        7
 10
-2.785704210069443
 20
10.7376736111111
 10
0.0
 20
-7.550960286458332
 10
2.771234809027776
 20
10.7376736111111
 10
4.233333333333331
 20
10.7376736111111
 10
0.6910861545138888
 20
-10.7376736111111
 10
-0.7055555555555558
 20
-10.7376736111111
 10
-4.233333333333331
 20
10.7376736111111
 97
        0
 75
     2
 76
     1
 98
        1
 10
0.0
 20
0.0
  0
ENDBLK
  5
272E
330
272A
100
AcDbEntity
  8
0
100
AcDbBlockEnd
  0
BLOCK
  5
2732
330
272F
100
AcDbEntity
  8
0
 62
     7
100
AcDbBlockBegin
  2
AI9-BLK1
 70
     0
 10
0.0
 20
0.0
 30
0.0
  3
AI9-BLK1
  1

  0
LWPOLYLINE
  5
2730
330
272F
100
AcDbEntity
  8
LAYER_1
 62
     7
100
AcDbPolyline
 90
       12
 70
     1
 43
0.0
 10
-3.571874999999999
 20
10.7376736111111
 10
3.483680555555555
 20
10.7376736111111
 10
3.483680555555555
 20
8.091840277777777
 10
-2.248958333333332
 20
8.091840277777777
 10
-2.248958333333332
 20
1.565451388888888
 10
3.042708333333333
 20
1.565451388888888
 10
3.042708333333333
 20
-0.9039930555555551
 10
-2.248958333333332
 20
-0.9039930555555551
 10
-2.248958333333332
 20
-8.180034722222217
 10
3.571874999999999
 20
-8.180034722222217
 10
3.571874999999999
 20
-10.7376736111111
 10
-3.571874999999999
 20
-10.7376736111111
  0
HATCH
  5
2731
330
272F
100
AcDbEntity
  8
LAYER_1
 62
     7
100
AcDbHatch
 10
0.0
 20
0.0
 30
0.0
210
0.0
220
0.0
230
1.0
  2
SOLID
 70
     1
 71
     0
 91
        1
 92
        3
 72
     0
 73
     1
 93
       12
 10
-3.571874999999999
 20
10.7376736111111
 10
3.483680555555555
 20
10.7376736111111
 10
3.483680555555555
 20
8.091840277777777
 10
-2.248958333333332
 20
8.091840277777777
 10
-2.248958333333332
 20
1.565451388888888
 10
3.042708333333333
 20
1.565451388888888
 10
3.042708333333333
 20
-0.9039930555555551
 10
-2.248958333333332
 20
-0.9039930555555551
 10
-2.248958333333332
 20
-8.180034722222217
 10
3.571874999999999
 20
-8.180034722222217
 10
3.571874999999999
 20
-10.7376736111111
 10
-3.571874999999999
 20
-10.7376736111111
 97
        0
 75
     2
 76
     1
 98
        1
 10
0.0
 20
0.0
  0
ENDBLK
  5
2733
330
272F
100
AcDbEntity
  8
0
100
AcDbBlockEnd
  0
BLOCK
  5
2757
330
2734
100
AcDbEntity
  8
0
100
AcDbBlockBegin
  2
HD_LLC_logo_OT5
 70
     0
 10
0.0
 20
0.0
 30
0.0
  3
HD_LLC_logo_OT5
  1

  0
SPLINE
  5
2735
102
{ACAD_REACTORS
330
2755
102
}
330
2734
100
AcDbEntity
  8
LAYER_1
 62
     7
100
AcDbSpline
210
0.0
220
0.0
230
1.0
 70
    11
 71
     3
 72
   113
 73
   109
 74
     0
 42
0.0000000001
 43
0.0000000001
 40
0.0
 40
0.0
 40
0.0
 40
0.0
 40
1.0
 40
1.0
 40
1.0
 40
2.0
 40
2.0
 40
2.0
 40
3.0
 40
3.0
 40
3.0
 40
4.0
 40
4.0
 40
4.0
 40
5.0
 40
5.0
 40
5.0
 40
6.0
 40
6.0
 40
6.0
 40
7.0
 40
7.0
 40
7.0
 40
8.0
 40
8.0
 40
8.0
 40
9.0
 40
9.0
 40
9.0
 40
10.0
 40
10.0
 40
10.0
 40
11.0
 40
11.0
 40
11.0
 40
12.0
 40
12.0
 40
12.0
 40
13.0
 40
13.0
 40
13.0
 40
14.0
 40
14.0
 40
14.0
 40
15.0
 40
15.0
 40
15.0
 40
16.0
 40
16.0
 40
16.0
 40
17.0
 40
17.0
 40
17.0
 40
18.0
 40
18.0
 40
18.0
 40
19.0
 40
19.0
 40
19.0
 40
20.0
 40
20.0
 40
20.0
 40
21.0
 40
21.0
 40
21.0
 40
22.0
 40
22.0
 40
22.0
 40
23.0
 40
23.0
 40
23.0
 40
24.0
 40
24.0
 40
24.0
 40
25.0
 40
25.0
 40
25.0
 40
26.0
 40
26.0
 40
26.0
 40
27.0
 40
27.0
 40
27.0
 40
28.0
 40
28.0
 40
28.0
 40
29.0
 40
29.0
 40
29.0
 40
30.0
 40
30.0
 40
30.0
 40
31.0
 40
31.0
 40
31.0
 40
32.0
 40
32.0
 40
32.0
 40
33.0
 40
33.0
 40
33.0
 40
34.0
 40
34.0
 40
34.0
 40
35.0
 40
35.0
 40
35.0
 40
36.0
 40
36.0
 40
36.0
 40
36.0
 10
193.3039632161458
 20
186.1548733181423
 30
0.0
 10
193.3039632161458
 20
186.1860514322916
 30
0.0
 10
193.3039632161458
 20
219.6932223849826
 30
0.0
 10
193.3039632161458
 20
219.6932223849826
 30
0.0
 10
193.3039632161458
 20
219.6932223849826
 30
0.0
 10
193.2974175347219
 20
219.7488606770833
 30
0.0
 10
193.2974175347219
 20
219.7488606770833
 30
0.0
 10
191.5293945312499
 20
235.455740017361
 30
0.0
 10
175.1458984374999
 20
235.2467949761284
 30
0.0
 10
174.9808783637151
 20
235.2428331163193
 30
0.0
 10
174.9808783637151
 20
235.2428331163193
 30
0.0
 10
125.8827555338541
 20
235.2430053710937
 30
0.0
 10
125.8827555338541
 20
235.2430053710937
 30
0.0
 10
125.8827555338541
 20
235.2430053710937
 30
0.0
 10
125.8827555338541
 20
255.5278998480901
 30
0.0
 10
125.8827555338541
 20
255.5278998480901
 30
0.0
 10
125.8827555338541
 20
255.5278998480901
 30
0.0
 10
84.5626247829861
 20
255.5278998480901
 30
0.0
 10
84.5626247829861
 20
255.5278998480901
 30
0.0
 10
84.5626247829861
 20
255.5278998480901
 30
0.0
 10
84.55711263020829
 20
233.7919311523436
 30
0.0
 10
84.55711263020829
 20
233.7919311523436
 30
0.0
 10
84.55711263020829
 20
233.7919311523436
 30
0.0
 10
64.42052951388888
 20
233.7919311523436
 30
0.0
 10
64.42052951388888
 20
233.7919311523436
 30
0.0
 10
64.42052951388888
 20
233.7919311523436
 30
0.0
 10
64.41501736111111
 20
255.5278998480901
 30
0.0
 10
64.41501736111111
 20
255.5278998480901
 30
0.0
 10
64.41501736111111
 20
255.5278998480901
 30
0.0
 10
23.91757541232637
 20
255.5278998480901
 30
0.0
 10
23.91757541232637
 20
255.5278998480901
 30
0.0
 10
23.91757541232637
 20
255.5278998480901
 30
0.0
 10
23.91757541232637
 20
233.2393378363715
 30
0.0
 10
23.91757541232637
 20
233.2393378363715
 30
0.0
 10
23.91757541232637
 20
233.2393378363715
 30
0.0
 10
43.65624999999999
 20
233.2393378363715
 30
0.0
 10
43.65624999999999
 20
233.2393378363715
 30
0.0
 10
43.65624999999999
 20
233.2393378363715
 30
0.0
 10
43.65624999999999
 20
211.5188720703125
 30
0.0
 10
43.65624999999999
 20
211.5188720703125
 30
0.0
 10
43.65624999999999
 20
211.5188720703125
 30
0.0
 10
23.91757541232637
 20
211.5188720703125
 30
0.0
 10
23.91757541232637
 20
211.5188720703125
 30
0.0
 10
23.91757541232637
 20
211.5188720703125
 30
0.0
 10
23.91757541232637
 20
189.2303100585936
 30
0.0
 10
23.91757541232637
 20
189.2303100585936
 30
0.0
 10
23.91757541232637
 20
189.2303100585936
 30
0.0
 10
64.41501736111111
 20
189.2303100585936
 30
0.0
 10
64.41501736111111
 20
189.2303100585936
 30
0.0
 10
64.41501736111111
 20
189.2303100585936
 30
0.0
 10
64.42052951388888
 20
211.069976128472
 30
0.0
 10
64.42052951388888
 20
211.069976128472
 30
0.0
 10
64.42052951388888
 20
211.069976128472
 30
0.0
 10
84.55711263020829
 20
211.069976128472
 30
0.0
 10
84.55711263020829
 20
211.069976128472
 30
0.0
 10
84.55711263020829
 20
211.069976128472
 30
0.0
 10
84.5626247829861
 20
189.2303100585936
 30
0.0
 10
84.5626247829861
 20
189.2303100585936
 30
0.0
 10
84.5626247829861
 20
189.2303100585936
 30
0.0
 10
125.8827555338541
 20
189.2303100585936
 30
0.0
 10
125.8827555338541
 20
189.2303100585936
 30
0.0
 10
125.8827555338541
 20
189.2303100585936
 30
0.0
 10
125.8827555338541
 20
211.5188720703125
 30
0.0
 10
125.8827555338541
 20
211.5188720703125
 30
0.0
 10
125.8827555338541
 20
211.5188720703125
 30
0.0
 10
105.3213921440971
 20
211.5188720703125
 30
0.0
 10
105.3213921440971
 20
211.5188720703125
 30
0.0
 10
105.3213921440971
 20
211.5188720703125
 30
0.0
 10
105.3213921440971
 20
233.2393378363715
 30
0.0
 10
105.3213921440971
 20
233.2393378363715
 30
0.0
 10
105.3213921440971
 20
233.2393378363715
 30
0.0
 10
175.0046495225693
 20
233.243127441406
 30
0.0
 10
175.0046495225693
 20
233.243127441406
 30
0.0
 10
175.6268337673611
 20
233.2560465494791
 30
0.0
 10
189.7165852864583
 20
233.3962619357638
 30
0.0
 10
191.3037407769094
 20
219.5690266927083
 30
0.0
 10
191.3037407769094
 20
219.4332899305555
 30
0.0
 10
191.3037407769094
 20
186.1142211914062
 30
0.0
 10
191.3037407769094
 20
186.1142211914062
 30
0.0
 10
191.3037407769094
 20
186.1142211914062
 30
0.0
 10
191.3051188151039
 20
186.0880384657115
 30
0.0
 10
191.3051188151039
 20
186.0880384657115
 30
0.0
 10
191.3054633246526
 20
186.0787367078991
 30
0.0
 10
191.3109754774304
 20
185.9566080729166
 30
0.0
 10
191.3109754774304
 20
185.7399115668401
 30
0.0
 10
191.3109754774304
 20
184.2090833875865
 30
0.0
 10
191.0488037109374
 20
177.9643310546874
 30
0.0
 10
186.9866916232638
 20
173.5652886284722
 30
0.0
 10
184.2540418836804
 20
170.6064683702255
 30
0.0
 10
180.3224989149304
 20
169.0308539496526
 30
0.0
 10
175.300927734375
 20
168.8825425889756
 30
0.0
 10
175.300927734375
 20
168.8825425889756
 30
0.0
 10
107.0094889322916
 20
168.8828870985243
 30
0.0
 10
107.0094889322916
 20
168.8828870985243
 30
0.0
 10
107.0094889322916
 20
168.8828870985243
 30
0.0
 10
107.0094889322916
 20
166.8830091688368
 30
0.0
 10
107.0094889322916
 20
166.8830091688368
 30
0.0
 10
107.0094889322916
 20
166.8830091688368
 30
0.0
 10
175.3305555555555
 20
166.8830091688368
 30
0.0
 10
175.3305555555555
 20
166.8830091688368
 30
0.0
 10
180.9467502170138
 20
167.0485460069444
 30
0.0
 10
185.3571614583333
 20
168.8448187934026
 30
0.0
 10
188.4687717013888
 20
172.2223904079861
 30
0.0
 10
192.9649658203124
 20
177.1034016927083
 30
0.0
 10
193.3136094835069
 20
183.7202243381076
 30
0.0
 10
193.3136094835069
 20
185.6520616319443
 30
0.0
 10
193.3136094835069
 20
185.9247409396701
 30
0.0
 10
193.3070638020833
 20
186.0868326822916
 30
0.0
 10
193.3039632161458
 20
186.1548733181423
 30
0.0
  0
INSERT
  5
2736
102
{ACAD_REACTORS
330
2756
102
}
330
2734
100
AcDbEntity
  8
LAYER_1
 62
     7
100
AcDbBlockReference
  2
AI9-BLK14
 10
159.5625257703993
 20
200.5118781195744
 30
0.0
  0
INSERT
  5
2737
330
2734
100
AcDbEntity
  8
LAYER_1
 62
     7
100
AcDbBlockReference
  2
AI9-BLK13
 10
27.69615614149305
 20
179.2145562065971
 30
0.0
 42
0.9200000000000001
  0
INSERT
  5
2738
102
{ACAD_REACTORS
330
2743
102
}
330
2734
100
AcDbEntity
  8
LAYER_1
 62
     7
100
AcDbBlockReference
  2
AI9-BLK11
 10
44.76591525607638
 20
179.2145562065971
 30
0.0
 42
0.9200000000000001
  0
INSERT
  5
2739
102
{ACAD_REACTORS
330
2751
102
}
330
2734
100
AcDbEntity
  8
LAYER_1
 62
     7
100
AcDbBlockReference
  2
AI9-BLK10
 10
54.04665798611111
 20
179.2145562065971
 30
0.0
 42
0.9200000000000001
  0
INSERT
  5
273A
102
{ACAD_REACTORS
330
2750
102
}
330
2734
100
AcDbEntity
  8
LAYER_1
 62
     7
100
AcDbBlockReference
  2
AI9-BLK9
 10
62.79013807508679
 20
179.2145562065971
 30
0.0
 42
0.9
  0
INSERT
  5
273B
330
2734
100
AcDbEntity
  8
LAYER_1
 62
     7
100
AcDbBlockReference
  2
AI9-BLK8
 10
71.03046196831595
 20
179.2145562065971
 30
0.0
 42
0.9200000000000001
  0
INSERT
  5
273C
330
2734
100
AcDbEntity
  8
LAYER_1
 62
     7
100
AcDbBlockReference
  2
AI9-BLK7
 10
76.93793945312498
 20
179.2145562065971
 30
0.0
 42
0.9200000000000001
  0
INSERT
  5
273D
102
{ACAD_REACTORS
330
2744
102
}
330
2734
100
AcDbEntity
  8
LAYER_1
 62
     7
100
AcDbBlockReference
  2
AI9-BLK6
 10
82.55602891710069
 20
179.2145562065971
 30
0.0
 42
0.9
  0
INSERT
  5
273E
102
{ACAD_REACTORS
330
2752
102
}
330
2734
100
AcDbEntity
  8
LAYER_1
 62
     7
100
AcDbBlockReference
  2
AI9-BLK5
 10
94.32430284288193
 20
179.2145562065971
 30
0.0
 42
0.9200000000000001
  0
INSERT
  5
273F
102
{ACAD_REACTORS
330
2753
102
}
330
2734
100
AcDbEntity
  8
LAYER_1
 62
     7
100
AcDbBlockReference
  2
AI9-BLK4
 10
103.2081705729166
 20
179.2145562065971
 30
0.0
 42
0.9200000000000001
  0
INSERT
  5
2740
330
2734
100
AcDbEntity
  8
LAYER_1
 62
     7
100
AcDbBlockReference
  2
AI9-BLK3
 10
108.850978597005
 20
179.2145562065971
 30
0.0
 42
0.9200000000000001
  0
INSERT
  5
2741
330
2734
100
AcDbEntity
  8
LAYER_1
 62
     7
100
AcDbBlockReference
  2
AI9-BLK2
 10
114.2045708550346
 20
179.2145562065971
 30
0.0
 42
0.9200000000000001
  0
INSERT
  5
2742
330
2734
100
AcDbEntity
  8
LAYER_1
 62
     7
100
AcDbBlockReference
  2
AI9-BLK1
 10
122.4125108506944
 20
179.2145562065971
 30
0.0
 42
0.9200000000000001
  0
HATCH
  5
2743
330
2734
100
AcDbEntity
  8
0
  6
Continuous
100
AcDbHatch
 10
0.0
 20
0.0
 30
0.0
210
0.0
220
0.0
230
1.0
  2
SOLID
 70
     1
 71
     1
 91
        2
 92
       16
 93
        1
 72
     4
 94
        3
 73
     0
 74
     0
 95
       26
 96
       22
 40
0.0
 40
0.0
 40
0.0
 40
0.0
 40
1.0
 40
1.0
 40
1.0
 40
2.0
 40
2.0
 40
2.0
 40
3.0
 40
3.0
 40
3.0
 40
4.0
 40
4.0
 40
4.0
 40
5.0
 40
5.0
 40
5.0
 40
6.0
 40
6.0
 40
6.0
 40
7.0
 40
7.0
 40
7.0
 40
7.0
 10
42.12008192274304
 20
180.046229817708
 10
42.12008192274304
 20
180.046229817708
 10
42.12008192274304
 20
186.7401881510414
 10
42.12008192274304
 20
186.7401881510414
 10
42.12008192274304
 20
186.7401881510414
 10
45.23100314670138
 20
186.7401881510414
 10
45.23100314670138
 20
186.7401881510414
 10
45.66853027343749
 20
186.7401881510414
 10
46.01579589843749
 20
186.6064357638887
 10
46.27280002170138
 20
186.3401987847218
 10
46.76751573350694
 20
185.8330807291664
 10
47.01487358940972
 20
184.8822343749996
 10
47.01487358940972
 20
183.4863919270832
 10
47.01487358940972
 20
182.188169704861
 10
46.83848470052082
 20
181.2905707465276
 10
46.48639594184028
 20
180.7929611545137
 10
46.13430718315971
 20
180.2947176649304
 10
45.65888400607638
 20
180.046229817708
 10
45.06012641059028
 20
180.046229817708
 10
45.06012641059028
 20
180.046229817708
 10
42.12008192274304
 20
180.046229817708
 10
42.12008192274304
 20
180.046229817708
 97
        1
330
2738
 92
        1
 93
        1
 72
     4
 94
        3
 73
     0
 74
     0
 95
       68
 96
       64
 40
0.0
 40
0.0
 40
0.0
 40
0.0
 40
1.0
 40
1.0
 40
1.0
 40
2.0
 40
2.0
 40
2.0
 40
3.0
 40
3.0
 40
3.0
 40
4.0
 40
4.0
 40
4.0
 40
5.0
 40
5.0
 40
5.0
 40
6.0
 40
6.0
 40
6.0
 40
7.0
 40
7.0
 40
7.0
 40
8.0
 40
8.0
 40
8.0
 40
9.0
 40
9.0
 40
9.0
 40
10.0
 40
10.0
 40
10.0
 40
11.0
 40
11.0
 40
11.0
 40
12.0
 40
12.0
 40
12.0
 40
13.0
 40
13.0
 40
13.0
 40
14.0
 40
14.0
 40
14.0
 40
15.0
 40
15.0
 40
15.0
 40
16.0
 40
16.0
 40
16.0
 40
17.0
 40
17.0
 40
17.0
 40
18.0
 40
18.0
 40
18.0
 40
19.0
 40
19.0
 40
19.0
 40
20.0
 40
20.0
 40
20.0
 40
21.0
 40
21.0
 40
21.0
 40
21.0
 10
40.79716525607638
 20
169.3358964843748
 10
40.79716525607638
 20
169.3358964843748
 10
42.12008192274304
 20
169.3358964843748
 10
42.12008192274304
 20
169.3358964843748
 10
42.12008192274304
 20
169.3358964843748
 10
42.12008192274304
 20
177.8149103732637
 10
42.12008192274304
 20
177.8149103732637
 10
42.12008192274304
 20
177.8149103732637
 10
45.00500488281249
 20
177.8149103732637
 10
45.00500488281249
 20
177.8149103732637
 10
45.52590332031249
 20
177.8149103732637
 10
45.90968695746528
 20
177.6938359374998
 10
46.15635579427083
 20
177.4516870659719
 10
46.58216959635415
 20
177.0117621527776
 10
46.80954589843749
 20
176.1458580729164
 10
46.83848470052082
 20
174.8539748263887
 10
46.83848470052082
 20
174.8539748263887
 10
46.92667914496527
 20
171.5564396701385
 10
46.92667914496527
 20
171.5564396701385
 10
46.94597167968749
 20
170.7843524305554
 10
46.96870930989581
 20
170.2639225260415
 10
46.99351399739582
 20
169.9951499565971
 10
47.01831868489581
 20
169.725743489583
 10
47.0548366970486
 20
169.5057810329859
 10
47.10444607204859
 20
169.3358964843748
 10
47.10444607204859
 20
169.3358964843748
 10
48.73466525607638
 20
169.3358964843748
 10
48.73466525607638
 20
169.3358964843748
 10
48.73466525607638
 20
169.3358964843748
 10
48.73466525607638
 20
169.7821603732635
 10
48.73466525607638
 20
169.7821603732635
 10
48.53278266059028
 20
169.9609194878471
 10
48.39153374565971
 20
170.3628105468748
 10
48.31160753038194
 20
170.9878335503471
 10
48.26062011718749
 20
171.3542263454858
 10
48.22548014322915
 20
171.9120562065971
 10
48.20549858940971
 20
172.6625909288193
 10
48.20549858940971
 20
172.6625909288193
 10
48.16140136718749
 20
175.3205234374999
 10
48.16140136718749
 20
175.3205234374999
 10
48.14141981336803
 20
176.4716814236109
 10
48.03462185329859
 20
177.3033550347219
 10
47.84169650607638
 20
177.8142764756941
 10
47.64808213975693
 20
178.3251979166665
 10
47.35800509982638
 20
178.7372313368054
 10
46.97077636718749
 20
179.0516445312498
 10
47.4021023220486
 20
179.5086846788193
 10
47.73765462239582
 20
180.1134229600693
 10
47.97743326822915
 20
180.8664932725691
 10
48.21721191406249
 20
181.6189296874999
 10
48.33779025607638
 20
182.5868912760413
 10
48.33779025607638
 20
183.7697441406248
 10
48.33779025607638
 20
186.0371957465274
 10
47.89061686197916
 20
187.5921464843749
 10
46.99695909288194
 20
188.4345963541665
 10
46.52567003038194
 20
188.8732534722221
 10
45.92966851128472
 20
189.0932159288193
 10
45.20895453559027
 20
189.0932159288193
 10
45.20895453559027
 20
189.0932159288193
 10
40.79716525607638
 20
189.0932159288193
 10
40.79716525607638
 20
189.0932159288193
 10
40.79716525607638
 20
189.0932159288193
 10
40.79716525607638
 20
169.3358964843748
 10
40.79716525607638
 20
169.3358964843748
 97
        0
 75
     0
 76
     1
 98
        0
  0
HATCH
  5
2744
330
2734
100
AcDbEntity
  8
0
  6
Continuous
100
AcDbHatch
 10
0.0
 20
0.0
 30
0.0
210
0.0
220
0.0
230
1.0
  2
SOLID
 70
     1
 71
     1
 91
        1
 92
        1
 93
        1
 72
     4
 94
        3
 73
     0
 74
     0
 95
       59
 96
       55
 40
0.0
 40
0.0
 40
0.0
 40
0.0
 40
1.0
 40
1.0
 40
1.0
 40
2.0
 40
2.0
 40
2.0
 40
3.0
 40
3.0
 40
3.0
 40
4.0
 40
4.0
 40
4.0
 40
5.0
 40
5.0
 40
5.0
 40
6.0
 40
6.0
 40
6.0
 40
7.0
 40
7.0
 40
7.0
 40
8.0
 40
8.0
 40
8.0
 40
9.0
 40
9.0
 40
9.0
 40
10.0
 40
10.0
 40
10.0
 40
11.0
 40
11.0
 40
11.0
 40
12.0
 40
12.0
 40
12.0
 40
13.0
 40
13.0
 40
13.0
 40
14.0
 40
14.0
 40
14.0
 40
15.0
 40
15.0
 40
15.0
 40
16.0
 40
16.0
 40
16.0
 40
17.0
 40
17.0
 40
17.0
 40
18.0
 40
18.0
 40
18.0
 40
18.0
 10
85.61871880425345
 20
187.4658355034721
 10
86.29120144314232
 20
186.1797124565971
 10
86.66671685112847
 20
184.7193364800346
 10
86.7452650282118
 20
183.0840874565969
 10
86.7452650282118
 20
183.0840874565969
 10
85.42234836154511
 20
183.0840874565969
 10
85.42234836154511
 20
183.0840874565969
 10
85.27696533203123
 20
184.3156401909719
 10
84.99171142578125
 20
185.2917046440971
 10
84.56589762369791
 20
186.0122808159719
 10
84.14008382161458
 20
186.7322368706594
 10
83.53994818793401
 20
187.0925249565969
 10
82.76617974175342
 20
187.0925249565969
 10
81.81740044487847
 20
187.0925249565969
 10
81.05258924696178
 20
186.4240386284721
 10
80.47243516710068
 20
185.0883062065971
 10
79.89159206814234
 20
183.7525737847219
 10
79.6015150282118
 20
181.7049468315971
 10
79.6015150282118
 20
178.9454253472221
 10
79.6015150282118
 20
176.6844780815969
 10
79.86265326605901
 20
174.8514116753471
 10
80.38561876085069
 20
173.4456060112846
 10
80.90789523654512
 20
172.0391802300344
 10
81.69199896918403
 20
171.3365874565971
 10
82.73724093967013
 20
171.3365874565971
 10
83.69497748480901
 20
171.3365874565971
 10
84.42120361328125
 20
172.0794878472221
 10
84.91523030598958
 20
173.5665288628469
 10
85.18601481119791
 20
174.3491167534719
 10
85.38445231119791
 20
175.3785112847221
 10
85.51054280598959
 20
176.6547124565971
 10
85.51054280598959
 20
176.6547124565971
 10
86.83345947265625
 20
176.6547124565971
 10
86.83345947265625
 20
176.6547124565971
 10
86.72597249348957
 20
174.6157671440971
 10
86.35114610460069
 20
172.9061040581596
 10
85.70760226779514
 20
171.526343315972
 10
84.93727891710069
 20
169.8650493706596
 10
83.90375027126735
 20
169.0347124565971
 10
82.60701633029514
 20
169.0347124565971
 10
81.48598225911458
 20
169.0347124565971
 10
80.54547119140625
 20
169.7143608940971
 10
79.78479410807292
 20
171.0742778862845
 10
78.78020426432292
 20
172.8726177300344
 10
78.27859836154512
 20
175.6495024956596
 10
78.27859836154512
 20
179.4049321831594
 10
78.27859836154512
 20
182.2562310112846
 10
78.65342475043402
 20
184.5946929253469
 10
79.40445556640622
 20
186.4196978081596
 10
80.22301025390625
 20
188.4028325737846
 10
81.34955647786458
 20
189.3943999565971
 10
82.78271620008679
 20
189.3943999565971
 10
84.00090196397568
 20
189.3943999565971
 10
84.94623616536458
 20
188.7513384331594
 10
85.61871880425345
 20
187.4658355034721
 97
        1
330
273D
 75
     0
 76
     1
 98
        1
 10
0.0
 20
0.0
  0
LINE
  5
2745
102
{ACAD_REACTORS
330
2754
102
}
330
2734
100
AcDbEntity
  8
LAYER_1
 62
     7
100
AcDbLine
 10
34.65766059027778
 20
177.4497853732638
 30
0.0
 11
36.19830729166666
 21
186.1658769531249
 31
0.0
  0
LINE
  5
2746
102
{ACAD_REACTORS
330
2754
102
}
330
2734
100
AcDbEntity
  8
LAYER_1
 62
     7
100
AcDbLine
 10
36.19830729166666
 20
186.1658769531249
 30
0.0
 11
37.67556423611111
 21
177.4497853732638
 31
0.0
  0
LINE
  5
2747
102
{ACAD_REACTORS
330
2754
102
}
330
2734
100
AcDbEntity
  8
LAYER_1
 62
     7
100
AcDbLine
 10
37.67556423611111
 20
177.4497853732638
 30
0.0
 11
34.65766059027778
 21
177.4497853732638
 31
0.0
  0
LINE
  5
2748
102
{ACAD_REACTORS
330
2754
102
}
330
2734
100
AcDbEntity
  8
LAYER_1
 62
     7
100
AcDbLine
 10
31.83957248263888
 20
169.3358964843748
 30
0.0
 11
33.22450086805555
 21
169.3358964843748
 31
0.0
  0
LINE
  5
2749
102
{ACAD_REACTORS
330
2754
102
}
330
2734
100
AcDbEntity
  8
LAYER_1
 62
     7
100
AcDbLine
 10
33.22450086805555
 20
169.3358964843748
 30
0.0
 11
34.27043185763887
 21
175.2590353732638
 31
0.0
  0
LINE
  5
274A
102
{ACAD_REACTORS
330
2754
102
}
330
2734
100
AcDbEntity
  8
LAYER_1
 62
     7
100
AcDbLine
 10
34.27043185763887
 20
175.2590353732638
 30
0.0
 11
38.04694552951389
 21
175.2590353732638
 31
0.0
  0
LINE
  5
274B
102
{ACAD_REACTORS
330
2754
102
}
330
2734
100
AcDbEntity
  8
LAYER_1
 62
     7
100
AcDbLine
 10
38.04694552951389
 20
175.2590353732638
 30
0.0
 11
39.05015733506942
 21
169.3358964843748
 31
0.0
  0
LINE
  5
274C
102
{ACAD_REACTORS
330
2754
102
}
330
2734
100
AcDbEntity
  8
LAYER_1
 62
     7
100
AcDbLine
 10
39.05015733506942
 20
169.3358964843748
 30
0.0
 11
40.43508572048611
 21
169.3358964843748
 31
0.0
  0
LINE
  5
274D
102
{ACAD_REACTORS
330
2754
102
}
330
2734
100
AcDbEntity
  8
LAYER_1
 62
     7
100
AcDbLine
 10
40.43508572048611
 20
169.3358964843748
 30
0.0
 11
36.952783203125
 21
189.0932159288193
 31
0.0
  0
LINE
  5
274E
102
{ACAD_REACTORS
330
2754
102
}
330
2734
100
AcDbEntity
  8
LAYER_1
 62
     7
100
AcDbLine
 10
36.952783203125
 20
189.0932159288193
 30
0.0
 11
35.47828233506943
 21
189.0932159288193
 31
0.0
  0
LINE
  5
274F
102
{ACAD_REACTORS
330
2754
102
}
330
2734
100
AcDbEntity
  8
LAYER_1
 62
     7
100
AcDbLine
 10
35.47828233506943
 20
189.0932159288193
 30
0.0
 11
31.83957248263888
 21
169.3358964843748
 31
0.0
  0
HATCH
  5
2750
330
2734
100
AcDbEntity
  8
0
  6
Continuous
100
AcDbHatch
 10
0.0
 20
0.0
 30
0.0
210
0.0
220
0.0
230
1.0
  2
SOLID
 70
     1
 71
     1
 91
        2
 92
       16
 93
        1
 72
     4
 94
        3
 73
     0
 74
     0
 95
       29
 96
       25
 40
0.0
 40
0.0
 40
0.0
 40
0.0
 40
1.0
 40
1.0
 40
1.0
 40
2.0
 40
2.0
 40
2.0
 40
3.0
 40
3.0
 40
3.0
 40
4.0
 40
4.0
 40
4.0
 40
5.0
 40
5.0
 40
5.0
 40
6.0
 40
6.0
 40
6.0
 40
7.0
 40
7.0
 40
7.0
 40
8.0
 40
8.0
 40
8.0
 40
8.0
 10
62.85697292751734
 20
171.3365874565971
 10
61.88338894314235
 20
171.3365874565971
 10
61.18058946397566
 20
172.0714263237844
 10
60.74857449001735
 20
173.5411040581594
 10
60.31587049696178
 20
175.0107817925344
 10
60.10020751953123
 20
176.8165630425343
 10
60.10020751953123
 20
178.9578276909721
 10
60.10020751953123
 20
181.6342534722221
 10
60.35101047092013
 20
183.6589360894094
 10
60.85261637369789
 20
185.0324956597219
 10
61.35422227647566
 20
186.4054351128471
 10
62.00741238064235
 20
187.0925249565969
 10
62.81218668619789
 20
187.0925249565969
 10
63.6369425455729
 20
187.0925249565969
 10
64.28806559244789
 20
186.3992339409721
 10
64.76486680772568
 20
185.0126519097221
 10
65.24166802300347
 20
183.6260698784719
 10
65.48006863064235
 20
181.7961040581594
 10
65.48006863064235
 20
179.5239946831596
 10
65.48006863064235
 20
177.3734282769096
 10
65.27336290147568
 20
175.4715288628469
 10
64.86132948133678
 20
173.8176763237846
 10
64.4492960611979
 20
172.1632036675344
 10
63.78094753689235
 20
171.3365874565971
 10
62.85697292751734
 20
171.3365874565971
 97
        1
330
273A
 92
        1
 93
        1
 72
     4
 94
        3
 73
     0
 74
     0
 95
       29
 96
       25
 40
0.0
 40
0.0
 40
0.0
 40
0.0
 40
1.0
 40
1.0
 40
1.0
 40
2.0
 40
2.0
 40
2.0
 40
3.0
 40
3.0
 40
3.0
 40
4.0
 40
4.0
 40
4.0
 40
5.0
 40
5.0
 40
5.0
 40
6.0
 40
6.0
 40
6.0
 40
7.0
 40
7.0
 40
7.0
 40
8.0
 40
8.0
 40
8.0
 40
8.0
 10
62.76119927300346
 20
189.4340874565971
 10
61.47273356119789
 20
189.4340874565971
 10
60.50121663411457
 20
188.2397417534719
 10
59.84733751085068
 20
185.8516704644094
 10
59.3395304361979
 20
183.9900786675344
 10
59.08597140842012
 20
181.7514556206596
 10
59.08597140842012
 20
179.1351812065971
 10
59.08597140842012
 20
176.2379937065971
 10
59.3836276584201
 20
173.8412407769094
 10
59.9789401584201
 20
171.9449224175346
 10
60.6424655490451
 20
169.9779106987846
 10
61.5602389865451
 20
168.9950249565971
 10
62.7315714518229
 20
168.9950249565971
 10
63.9904093424479
 20
168.9950249565971
 10
64.95641411675345
 20
170.1186773003469
 10
65.63027479383679
 20
172.3659819878471
 10
66.20629475911457
 20
174.2796636284719
 10
66.49430474175345
 20
176.6813774956593
 10
66.49430474175345
 20
179.5698833550344
 10
66.49430474175345
 20
182.2388677300343
 10
66.24005669487845
 20
184.4291216362844
 10
65.73293863932289
 20
186.1412651909719
 10
65.08870578342011
 20
188.3364800347219
 10
64.09789632161457
 20
189.4340874565971
 10
62.76119927300346
 20
189.4340874565971
 97
        0
 75
     0
 76
     1
 98
        0
  0
HATCH
  5
2751
330
2734
100
AcDbEntity
  8
0
  6
Continuous
100
AcDbHatch
 10
0.0
 20
0.0
 30
0.0
210
0.0
220
0.0
230
1.0
  2
SOLID
 70
     1
 71
     1
 91
        1
 92
        1
 93
        1
 72
     4
 94
        3
 73
     0
 74
     0
 95
       59
 96
       55
 40
0.0
 40
0.0
 40
0.0
 40
0.0
 40
1.0
 40
1.0
 40
1.0
 40
2.0
 40
2.0
 40
2.0
 40
3.0
 40
3.0
 40
3.0
 40
4.0
 40
4.0
 40
4.0
 40
5.0
 40
5.0
 40
5.0
 40
6.0
 40
6.0
 40
6.0
 40
7.0
 40
7.0
 40
7.0
 40
8.0
 40
8.0
 40
8.0
 40
9.0
 40
9.0
 40
9.0
 40
10.0
 40
10.0
 40
10.0
 40
11.0
 40
11.0
 40
11.0
 40
12.0
 40
12.0
 40
12.0
 40
13.0
 40
13.0
 40
13.0
 40
14.0
 40
14.0
 40
14.0
 40
15.0
 40
15.0
 40
15.0
 40
16.0
 40
16.0
 40
16.0
 40
17.0
 40
17.0
 40
17.0
 40
18.0
 40
18.0
 40
18.0
 40
18.0
 10
49.39440104166666
 20
189.0932159288193
 10
49.39440104166666
 20
189.0932159288193
 10
51.24786241319444
 20
189.0932159288193
 10
51.24786241319444
 20
189.0932159288193
 10
51.24786241319444
 20
189.0932159288193
 10
54.04665798611111
 20
172.3887471788193
 10
54.04665798611111
 20
172.3887471788193
 10
54.04665798611111
 20
172.3887471788193
 10
56.83994140624999
 20
189.0932159288193
 10
56.83994140624999
 20
189.0932159288193
 10
56.83994140624999
 20
189.0932159288193
 10
58.69891493055553
 20
189.0932159288193
 10
58.69891493055553
 20
189.0932159288193
 10
58.69891493055553
 20
189.0932159288193
 10
58.69891493055553
 20
169.3358964843748
 10
58.69891493055553
 20
169.3358964843748
 10
58.69891493055553
 20
169.3358964843748
 10
57.46419270833333
 20
169.3358964843748
 10
57.46419270833333
 20
169.3358964843748
 10
57.46419270833333
 20
169.3358964843748
 10
57.46419270833333
 20
180.9964422743054
 10
57.46419270833333
 20
180.9964422743054
 10
57.46419270833333
 20
181.3996011284721
 10
57.47108289930555
 20
182.0677291666664
 10
57.48624131944444
 20
183.0001924913193
 10
57.50071072048609
 20
183.9326558159721
 10
57.50828993055553
 20
184.932312282986
 10
57.50828993055553
 20
185.9997957899304
 10
57.50828993055553
 20
185.9997957899304
 10
54.700537109375
 20
169.3358964843748
 10
54.700537109375
 20
169.3358964843748
 10
54.700537109375
 20
169.3358964843748
 10
53.38382161458333
 20
169.3358964843748
 10
53.38382161458333
 20
169.3358964843748
 10
53.38382161458333
 20
169.3358964843748
 10
50.58502604166665
 20
185.9997957899304
 10
50.58502604166665
 20
185.9997957899304
 10
50.58502604166665
 20
185.9997957899304
 10
50.58502604166665
 20
185.3944236111109
 10
50.58502604166665
 20
185.3944236111109
 10
50.58502604166665
 20
184.9101258680554
 10
50.59191623263888
 20
184.1729029947915
 10
50.60707465277777
 20
183.1821210937498
 10
50.62154405381942
 20
182.1913391927082
 10
50.62912326388889
 20
181.4629908854165
 10
50.62912326388889
 20
180.9964422743054
 10
50.62912326388889
 20
180.9964422743054
 10
50.62912326388889
 20
169.3358964843748
 10
50.62912326388889
 20
169.3358964843748
 10
50.62912326388889
 20
169.3358964843748
 10
49.39440104166666
 20
169.3358964843748
 10
49.39440104166666
 20
169.3358964843748
 10
49.39440104166666
 20
169.3358964843748
 10
49.39440104166666
 20
189.0932159288193
 10
49.39440104166666
 20
189.0932159288193
 97
        1
330
2739
 75
     0
 76
     1
 98
        1
 10
0.0
 20
0.0
  0
HATCH
  5
2752
330
2734
100
AcDbEntity
  8
0
  6
Continuous
100
AcDbHatch
 10
0.0
 20
0.0
 30
0.0
210
0.0
220
0.0
230
1.0
  2
SOLID
 70
     1
 71
     1
 91
        2
 92
       16
 93
        1
 72
     4
 94
        3
 73
     0
 74
     0
 95
       32
 96
       28
 40
0.0
 40
0.0
 40
0.0
 40
0.0
 40
1.0
 40
1.0
 40
1.0
 40
2.0
 40
2.0
 40
2.0
 40
3.0
 40
3.0
 40
3.0
 40
4.0
 40
4.0
 40
4.0
 40
5.0
 40
5.0
 40
5.0
 40
6.0
 40
6.0
 40
6.0
 40
7.0
 40
7.0
 40
7.0
 40
8.0
 40
8.0
 40
8.0
 40
9.0
 40
9.0
 40
9.0
 40
9.0
 10
91.70051812065969
 20
171.6077853732635
 10
91.70051812065969
 20
171.6077853732635
 10
91.70051812065969
 20
186.7401881510414
 10
91.70051812065969
 20
186.7401881510414
 10
91.70051812065969
 20
186.7401881510414
 10
93.98668348524305
 20
186.7401881510414
 10
93.98668348524305
 20
186.7401881510414
 10
95.02159016927082
 20
186.7401881510414
 10
95.77331000434028
 20
186.0644533420137
 10
96.24322102864582
 20
184.7142515190969
 10
96.71313205295138
 20
183.3640496961804
 10
96.94808756510417
 20
181.4680620659721
 10
96.94808756510417
 20
179.0262886284719
 10
96.94808756510417
 20
178.3911232638887
 10
96.91432562934028
 20
177.7027105034721
 10
96.84749077690971
 20
176.9604164496524
 10
96.7324245876736
 20
175.7167094184024
 10
96.55052354600693
 20
174.6974021267359
 10
96.30109863281248
 20
173.901860677083
 10
95.98414984809028
 20
172.9091770833332
 10
95.57693956163193
 20
172.2378795572914
 10
95.07877875434026
 20
171.8892358940971
 10
94.79076877170138
 20
171.7016022135415
 10
94.43178982204859
 20
171.6077853732635
 10
94.00115288628471
 20
171.6077853732635
 10
94.00115288628471
 20
171.6077853732635
 10
91.70051812065969
 20
171.6077853732635
 10
91.70051812065969
 20
171.6077853732635
 97
        1
330
273E
 92
        1
 93
        1
 72
     4
 94
        3
 73
     0
 74
     0
 95
       26
 96
       22
 40
0.0
 40
0.0
 40
0.0
 40
0.0
 40
1.0
 40
1.0
 40
1.0
 40
2.0
 40
2.0
 40
2.0
 40
3.0
 40
3.0
 40
3.0
 40
4.0
 40
4.0
 40
4.0
 40
5.0
 40
5.0
 40
5.0
 40
6.0
 40
6.0
 40
6.0
 40
7.0
 40
7.0
 40
7.0
 40
7.0
 10
90.37760145399305
 20
169.3358964843748
 10
90.37760145399305
 20
169.3358964843748
 10
94.22990722656248
 20
169.3358964843748
 10
94.22990722656248
 20
169.3358964843748
 10
95.87115071614581
 20
169.3358964843748
 10
97.03008083767359
 20
170.8331625434026
 10
97.70600857204859
 20
173.8283285590274
 10
98.08221299913194
 20
175.5227367621524
 10
98.27100423177082
 20
177.4187243923609
 10
98.27100423177082
 20
179.5169253472221
 10
98.27100423177082
 20
182.233810329861
 10
97.94716525607638
 20
184.4619602864582
 10
97.30086534288195
 20
186.2013752170135
 10
96.57601725260416
 20
188.1290577256941
 10
95.5576470269097
 20
189.0932159288193
 10
94.24437662760416
 20
189.0932159288193
 10
94.24437662760416
 20
189.0932159288193
 10
90.37760145399305
 20
189.0932159288193
 10
90.37760145399305
 20
189.0932159288193
 10
90.37760145399305
 20
189.0932159288193
 10
90.37760145399305
 20
169.3358964843748
 10
90.37760145399305
 20
169.3358964843748
 97
        0
 75
     0
 76
     1
 98
        0
  0
HATCH
  5
2753
330
2734
100
AcDbEntity
  8
0
  6
Continuous
100
AcDbHatch
 10
0.0
 20
0.0
 30
0.0
210
0.0
220
0.0
230
1.0
  2
SOLID
 70
     1
 71
     1
 91
        2
 92
       16
 93
        1
 72
     4
 94
        3
 73
     0
 74
     0
 95
       26
 96
       22
 40
0.0
 40
0.0
 40
0.0
 40
0.0
 40
1.0
 40
1.0
 40
1.0
 40
2.0
 40
2.0
 40
2.0
 40
3.0
 40
3.0
 40
3.0
 40
4.0
 40
4.0
 40
4.0
 40
5.0
 40
5.0
 40
5.0
 40
6.0
 40
6.0
 40
6.0
 40
7.0
 40
7.0
 40
7.0
 40
7.0
 10
100.5623372395832
 20
180.046229817708
 10
100.5623372395832
 20
180.046229817708
 10
100.5623372395832
 20
186.7401881510414
 10
100.5623372395832
 20
186.7401881510414
 10
100.5623372395832
 20
186.7401881510414
 10
103.6732584635416
 20
186.7401881510414
 10
103.6732584635416
 20
186.7401881510414
 10
104.1107855902777
 20
186.7401881510414
 10
104.4580512152777
 20
186.6064357638887
 10
104.7150553385415
 20
186.3401987847218
 10
105.2097710503471
 20
185.8330807291664
 10
105.4571289062497
 20
184.8822343749996
 10
105.4571289062497
 20
183.4863919270832
 10
105.4571289062497
 20
182.188169704861
 10
105.280740017361
 20
181.2905707465276
 10
104.9286512586804
 20
180.7929611545137
 10
104.5765624999999
 20
180.2947176649304
 10
104.1011393229166
 20
180.046229817708
 10
103.5023817274304
 20
180.046229817708
 10
103.5023817274304
 20
180.046229817708
 10
100.5623372395832
 20
180.046229817708
 10
100.5623372395832
 20
180.046229817708
 97
        1
330
273F
 92
        1
 93
        1
 72
     4
 94
        3
 73
     0
 74
     0
 95
       68
 96
       64
 40
0.0
 40
0.0
 40
0.0
 40
0.0
 40
1.0
 40
1.0
 40
1.0
 40
2.0
 40
2.0
 40
2.0
 40
3.0
 40
3.0
 40
3.0
 40
4.0
 40
4.0
 40
4.0
 40
5.0
 40
5.0
 40
5.0
 40
6.0
 40
6.0
 40
6.0
 40
7.0
 40
7.0
 40
7.0
 40
8.0
 40
8.0
 40
8.0
 40
9.0
 40
9.0
 40
9.0
 40
10.0
 40
10.0
 40
10.0
 40
11.0
 40
11.0
 40
11.0
 40
12.0
 40
12.0
 40
12.0
 40
13.0
 40
13.0
 40
13.0
 40
14.0
 40
14.0
 40
14.0
 40
15.0
 40
15.0
 40
15.0
 40
16.0
 40
16.0
 40
16.0
 40
17.0
 40
17.0
 40
17.0
 40
18.0
 40
18.0
 40
18.0
 40
19.0
 40
19.0
 40
19.0
 40
20.0
 40
20.0
 40
20.0
 40
21.0
 40
21.0
 40
21.0
 40
21.0
 10
99.23942057291661
 20
169.3358964843748
 10
99.23942057291661
 20
169.3358964843748
 10
100.5623372395832
 20
169.3358964843748
 10
100.5623372395832
 20
169.3358964843748
 10
100.5623372395832
 20
169.3358964843748
 10
100.5623372395832
 20
177.8149103732637
 10
100.5623372395832
 20
177.8149103732637
 10
100.5623372395832
 20
177.8149103732637
 10
103.4472601996527
 20
177.8149103732637
 10
103.4472601996527
 20
177.8149103732637
 10
103.9681586371527
 20
177.8149103732637
 10
104.3519422743053
 20
177.6938359374998
 10
104.5986111111109
 20
177.4516870659719
 10
105.0244249131943
 20
177.0117621527776
 10
105.2518012152777
 20
176.1458580729164
 10
105.280740017361
 20
174.8539748263887
 10
105.280740017361
 20
174.8539748263887
 10
105.3689344618053
 20
171.5564396701385
 10
105.3689344618053
 20
171.5564396701385
 10
105.3882269965277
 20
170.7843524305554
 10
105.4109646267359
 20
170.2639225260415
 10
105.4357693142359
 20
169.9951499565971
 10
105.4605740017358
 20
169.725743489583
 10
105.4970920138888
 20
169.5057810329859
 10
105.5467013888887
 20
169.3358964843748
 10
105.5467013888887
 20
169.3358964843748
 10
107.1769205729166
 20
169.3358964843748
 10
107.1769205729166
 20
169.3358964843748
 10
107.1769205729166
 20
169.3358964843748
 10
107.1769205729166
 20
169.7821603732635
 10
107.1769205729166
 20
169.7821603732635
 10
106.9750379774303
 20
169.9609194878471
 10
106.8337890624997
 20
170.3628105468748
 10
106.7538628472221
 20
170.9878335503471
 10
106.7028754340274
 20
171.3542263454858
 10
106.6677354600692
 20
171.9120562065971
 10
106.6477539062497
 20
172.6625909288193
 10
106.6477539062497
 20
172.6625909288193
 10
106.6036566840277
 20
175.3205234374999
 10
106.6036566840277
 20
175.3205234374999
 10
106.5836751302082
 20
176.4716814236109
 10
106.4768771701387
 20
177.3033550347219
 10
106.2839518229166
 20
177.8142764756941
 10
106.0903374565971
 20
178.3251979166665
 10
105.8002604166666
 20
178.7372313368054
 10
105.4130316840277
 20
179.0516445312498
 10
105.8443576388886
 20
179.5086846788193
 10
106.179909939236
 20
180.1134229600693
 10
106.4196885850692
 20
180.8664932725691
 10
106.6594672309027
 20
181.6189296874999
 10
106.7800455729166
 20
182.5868912760413
 10
106.7800455729166
 20
183.7697441406248
 10
106.7800455729166
 20
186.0371957465274
 10
106.3328721788193
 20
187.5921464843749
 10
105.4392144097221
 20
188.4345963541665
 10
104.9679253472221
 20
188.8732534722221
 10
104.3719238281249
 20
189.0932159288193
 10
103.6512098524303
 20
189.0932159288193
 10
103.6512098524303
 20
189.0932159288193
 10
99.23942057291661
 20
189.0932159288193
 10
99.23942057291661
 20
189.0932159288193
 10
99.23942057291661
 20
189.0932159288193
 10
99.23942057291661
 20
169.3358964843748
 10
99.23942057291661
 20
169.3358964843748
 97
        0
 75
     0
 76
     1
 98
        0
  0
HATCH
  5
2754
330
2734
100
AcDbEntity
  8
0
  6
Continuous
100
AcDbHatch
 10
0.0
 20
0.0
 30
0.0
210
0.0
220
0.0
230
1.0
  2
SOLID
 70
     1
 71
     1
 91
        2
 92
        1
 93
        8
 72
     1
 10
35.47828233506943
 20
189.0932159288193
 11
31.83957248263888
 21
169.3358964843748
 72
     1
 10
31.83957248263888
 20
169.3358964843748
 11
33.22450086805555
 21
169.3358964843748
 72
     1
 10
33.22450086805555
 20
169.3358964843748
 11
34.27043185763887
 21
175.2590353732638
 72
     1
 10
34.27043185763887
 20
175.2590353732638
 11
38.04694552951389
 21
175.2590353732638
 72
     1
 10
38.04694552951389
 20
175.2590353732638
 11
39.05015733506942
 21
169.3358964843748
 72
     1
 10
39.05015733506942
 20
169.3358964843748
 11
40.43508572048611
 21
169.3358964843748
 72
     1
 10
40.43508572048611
 20
169.3358964843748
 11
36.952783203125
 21
189.0932159288193
 72
     1
 10
36.952783203125
 20
189.0932159288193
 11
35.47828233506943
 21
189.0932159288193
 97
        8
330
274F
330
2748
330
2749
330
274A
330
274B
330
274C
330
274D
330
274E
 92
       16
 93
        3
 72
     1
 10
37.67556423611111
 20
177.4497853732638
 11
34.65766059027778
 21
177.4497853732638
 72
     1
 10
34.65766059027778
 20
177.4497853732638
 11
36.19830729166666
 21
186.1658769531249
 72
     1
 10
36.19830729166666
 20
186.1658769531249
 11
37.67556423611111
 21
177.4497853732638
 97
        3
330
2747
330
2745
330
2746
 75
     0
 76
     1
 98
        1
 10
0.0
 20
0.0
  0
HATCH
  5
2755
330
2734
100
AcDbEntity
  8
0
  6
Continuous
100
AcDbHatch
 10
0.0
 20
0.0
 30
0.0
210
0.0
220
0.0
230
1.0
  2
SOLID
 70
     1
 71
     1
 91
        1
 92
        1
 93
        1
 72
     4
 94
        3
 73
     0
 74
     0
 95
      113
 96
      109
 40
0.0
 40
0.0
 40
0.0
 40
0.0
 40
1.0
 40
1.0
 40
1.0
 40
2.0
 40
2.0
 40
2.0
 40
3.0
 40
3.0
 40
3.0
 40
4.0
 40
4.0
 40
4.0
 40
5.0
 40
5.0
 40
5.0
 40
6.0
 40
6.0
 40
6.0
 40
7.0
 40
7.0
 40
7.0
 40
8.0
 40
8.0
 40
8.0
 40
9.0
 40
9.0
 40
9.0
 40
10.0
 40
10.0
 40
10.0
 40
11.0
 40
11.0
 40
11.0
 40
12.0
 40
12.0
 40
12.0
 40
13.0
 40
13.0
 40
13.0
 40
14.0
 40
14.0
 40
14.0
 40
15.0
 40
15.0
 40
15.0
 40
16.0
 40
16.0
 40
16.0
 40
17.0
 40
17.0
 40
17.0
 40
18.0
 40
18.0
 40
18.0
 40
19.0
 40
19.0
 40
19.0
 40
20.0
 40
20.0
 40
20.0
 40
21.0
 40
21.0
 40
21.0
 40
22.0
 40
22.0
 40
22.0
 40
23.0
 40
23.0
 40
23.0
 40
24.0
 40
24.0
 40
24.0
 40
25.0
 40
25.0
 40
25.0
 40
26.0
 40
26.0
 40
26.0
 40
27.0
 40
27.0
 40
27.0
 40
28.0
 40
28.0
 40
28.0
 40
29.0
 40
29.0
 40
29.0
 40
30.0
 40
30.0
 40
30.0
 40
31.0
 40
31.0
 40
31.0
 40
32.0
 40
32.0
 40
32.0
 40
33.0
 40
33.0
 40
33.0
 40
34.0
 40
34.0
 40
34.0
 40
35.0
 40
35.0
 40
35.0
 40
36.0
 40
36.0
 40
36.0
 40
36.0
 10
193.3039632161458
 20
186.1548733181423
 10
193.3039632161458
 20
186.1860514322916
 10
193.3039632161458
 20
219.6932223849826
 10
193.3039632161458
 20
219.6932223849826
 10
193.3039632161458
 20
219.6932223849826
 10
193.2974175347219
 20
219.7488606770833
 10
193.2974175347219
 20
219.7488606770833
 10
191.5293945312499
 20
235.455740017361
 10
175.1458984374999
 20
235.2467949761284
 10
174.9808783637151
 20
235.2428331163193
 10
174.9808783637151
 20
235.2428331163193
 10
125.8827555338541
 20
235.2430053710937
 10
125.8827555338541
 20
235.2430053710937
 10
125.8827555338541
 20
235.2430053710937
 10
125.8827555338541
 20
255.5278998480901
 10
125.8827555338541
 20
255.5278998480901
 10
125.8827555338541
 20
255.5278998480901
 10
84.5626247829861
 20
255.5278998480901
 10
84.5626247829861
 20
255.5278998480901
 10
84.5626247829861
 20
255.5278998480901
 10
84.55711263020829
 20
233.7919311523436
 10
84.55711263020829
 20
233.7919311523436
 10
84.55711263020829
 20
233.7919311523436
 10
64.42052951388888
 20
233.7919311523436
 10
64.42052951388888
 20
233.7919311523436
 10
64.42052951388888
 20
233.7919311523436
 10
64.41501736111111
 20
255.5278998480901
 10
64.41501736111111
 20
255.5278998480901
 10
64.41501736111111
 20
255.5278998480901
 10
23.91757541232637
 20
255.5278998480901
 10
23.91757541232637
 20
255.5278998480901
 10
23.91757541232637
 20
255.5278998480901
 10
23.91757541232637
 20
233.2393378363715
 10
23.91757541232637
 20
233.2393378363715
 10
23.91757541232637
 20
233.2393378363715
 10
43.65624999999999
 20
233.2393378363715
 10
43.65624999999999
 20
233.2393378363715
 10
43.65624999999999
 20
233.2393378363715
 10
43.65624999999999
 20
211.5188720703125
 10
43.65624999999999
 20
211.5188720703125
 10
43.65624999999999
 20
211.5188720703125
 10
23.91757541232637
 20
211.5188720703125
 10
23.91757541232637
 20
211.5188720703125
 10
23.91757541232637
 20
211.5188720703125
 10
23.91757541232637
 20
189.2303100585936
 10
23.91757541232637
 20
189.2303100585936
 10
23.91757541232637
 20
189.2303100585936
 10
64.41501736111111
 20
189.2303100585936
 10
64.41501736111111
 20
189.2303100585936
 10
64.41501736111111
 20
189.2303100585936
 10
64.42052951388888
 20
211.069976128472
 10
64.42052951388888
 20
211.069976128472
 10
64.42052951388888
 20
211.069976128472
 10
84.55711263020829
 20
211.069976128472
 10
84.55711263020829
 20
211.069976128472
 10
84.55711263020829
 20
211.069976128472
 10
84.5626247829861
 20
189.2303100585936
 10
84.5626247829861
 20
189.2303100585936
 10
84.5626247829861
 20
189.2303100585936
 10
125.8827555338541
 20
189.2303100585936
 10
125.8827555338541
 20
189.2303100585936
 10
125.8827555338541
 20
189.2303100585936
 10
125.8827555338541
 20
211.5188720703125
 10
125.8827555338541
 20
211.5188720703125
 10
125.8827555338541
 20
211.5188720703125
 10
105.3213921440971
 20
211.5188720703125
 10
105.3213921440971
 20
211.5188720703125
 10
105.3213921440971
 20
211.5188720703125
 10
105.3213921440971
 20
233.2393378363715
 10
105.3213921440971
 20
233.2393378363715
 10
105.3213921440971
 20
233.2393378363715
 10
175.0046495225693
 20
233.243127441406
 10
175.0046495225693
 20
233.243127441406
 10
175.6268337673611
 20
233.2560465494791
 10
189.7165852864583
 20
233.3962619357638
 10
191.3037407769094
 20
219.5690266927083
 10
191.3037407769094
 20
219.4332899305555
 10
191.3037407769094
 20
186.1142211914062
 10
191.3037407769094
 20
186.1142211914062
 10
191.3037407769094
 20
186.1142211914062
 10
191.3051188151039
 20
186.0880384657115
 10
191.3051188151039
 20
186.0880384657115
 10
191.3054633246526
 20
186.0787367078991
 10
191.3109754774304
 20
185.9566080729166
 10
191.3109754774304
 20
185.7399115668401
 10
191.3109754774304
 20
184.2090833875865
 10
191.0488037109374
 20
177.9643310546874
 10
186.9866916232638
 20
173.5652886284722
 10
184.2540418836804
 20
170.6064683702255
 10
180.3224989149304
 20
169.0308539496526
 10
175.300927734375
 20
168.8825425889756
 10
175.300927734375
 20
168.8825425889756
 10
107.0094889322916
 20
168.8828870985243
 10
107.0094889322916
 20
168.8828870985243
 10
107.0094889322916
 20
168.8828870985243
 10
107.0094889322916
 20
166.8830091688368
 10
107.0094889322916
 20
166.8830091688368
 10
107.0094889322916
 20
166.8830091688368
 10
175.3305555555555
 20
166.8830091688368
 10
175.3305555555555
 20
166.8830091688368
 10
180.9467502170138
 20
167.0485460069444
 10
185.3571614583333
 20
168.8448187934026
 10
188.4687717013888
 20
172.2223904079861
 10
192.9649658203124
 20
177.1034016927083
 10
193.3136094835069
 20
183.7202243381076
 10
193.3136094835069
 20
185.6520616319443
 10
193.3136094835069
 20
185.9247409396701
 10
193.3070638020833
 20
186.0868326822916
 10
193.3039632161458
 20
186.1548733181423
 97
        1
330
2735
 75
     0
 76
     1
 98
        1
 10
0.0
 20
0.0
  0
HATCH
  5
2756
330
2734
100
AcDbEntity
  8
0
  6
Continuous
100
AcDbHatch
 10
0.0
 20
0.0
 30
0.0
210
0.0
220
0.0
230
1.0
  2
SOLID
 70
     1
 71
     1
 91
        2
 92
        1
 93
        1
 72
     4
 94
        3
 73
     0
 74
     0
 95
       23
 96
       19
 40
0.0
 40
0.0
 40
0.0
 40
0.0
 40
1.0
 40
1.0
 40
1.0
 40
2.0
 40
2.0
 40
2.0
 40
3.0
 40
3.0
 40
3.0
 40
4.0
 40
4.0
 40
4.0
 40
5.0
 40
5.0
 40
5.0
 40
6.0
 40
6.0
 40
6.0
 40
6.0
 10
148.6593153211804
 20
211.3929538302949
 10
148.6593153211804
 20
211.3929538302949
 10
148.6593153211804
 20
189.630802408854
 10
148.6593153211804
 20
189.630802408854
 10
148.6593153211804
 20
189.630802408854
 10
161.3152180989583
 20
189.630802408854
 10
161.3152180989583
 20
189.630802408854
 10
162.8431179470483
 20
189.630802408854
 10
170.4657362196178
 20
190.1880466037324
 10
170.4657362196178
 20
201.1911648220484
 10
170.4657362196178
 20
211.1288872612845
 10
162.3356553819444
 20
211.3914035373261
 10
162.2536621093749
 20
211.3927815755205
 10
162.2536621093749
 20
211.3927815755205
 10
149.6594265407986
 20
211.3929538302949
 10
149.6594265407986
 20
211.3929538302949
 10
149.6594265407986
 20
211.3929538302949
 10
148.6593153211804
 20
211.3929538302949
 10
148.6593153211804
 20
211.3929538302949
 97
        1
330
2736
 92
       16
 93
        1
 72
     4
 94
        3
 73
     0
 74
     0
 95
       20
 96
       16
 40
0.0
 40
0.0
 40
0.0
 40
0.0
 40
1.0
 40
1.0
 40
1.0
 40
2.0
 40
2.0
 40
2.0
 40
3.0
 40
3.0
 40
3.0
 40
4.0
 40
4.0
 40
4.0
 40
5.0
 40
5.0
 40
5.0
 40
5.0
 10
162.2354031032984
 20
209.3930759006075
 10
162.467947048611
 20
209.3861857096352
 10
168.4655137803819
 20
209.1283203124997
 10
168.4655137803819
 20
201.1911648220484
 10
168.4655137803819
 20
192.3202162000866
 10
162.9926350911458
 20
191.6306803385414
 10
161.3152180989583
 20
191.6306803385414
 10
161.3152180989583
 20
191.6306803385414
 10
152.3310980902776
 20
191.6306803385414
 10
150.6595377604166
 20
191.6306803385414
 10
150.6595377604166
 20
193.3373806423609
 10
150.6595377604166
 20
207.686375596788
 10
150.6595377604166
 20
209.3930759006075
 10
152.3538357204859
 20
209.3930759006075
 10
162.2354031032984
 20
209.3930759006075
 10
162.2354031032984
 20
209.3930759006075
 97
        0
 75
     0
 76
     1
 98
        0
  0
ENDBLK
  5
2758
330
2734
100
AcDbEntity
  8
0
100
AcDbBlockEnd
  0
BLOCK
  5
275B
330
2759
100
AcDbEntity
  8
0
100
AcDbBlockBegin
  2
HD logo-new
 70
     0
 10
0.0
 20
0.0
 30
0.0
  3
HD logo-new
  1

  0
INSERT
  5
275A
330
2759
100
AcDbEntity
  8
0
 62
     3
100
AcDbBlockReference
  2
HD_LLC_logo_OT5
 10
-27.1607188578505
 20
-68.37367811463031
 30
0.0
 41
0.2999999999999971
 42
0.3000000000000007
 43
0.3
  0
ENDBLK
  5
275C
330
2759
100
AcDbEntity
  8
0
100
AcDbBlockEnd
  0
BLOCK
  5
275F
330
275D
100
AcDbEntity
  8
0
100
AcDbBlockBegin
  2
HD Logo
 70
     0
 10
0.0
 20
0.0
 30
0.0
  3
HD Logo
  1

  0
INSERT
  5
275E
330
275D
100
AcDbEntity
  8
0
100
AcDbBlockReference
  2
HD logo-new
 10
0.9700256734946606
 20
7.273795608420527
 30
0.0
  0
ENDBLK
  5
2760
330
275D
100
AcDbEntity
  8
0
100
AcDbBlockEnd
  0
BLOCK
  5
276B
330
2769
100
AcDbEntity
  8
0
100
AcDbBlockBegin
  2
Harmonic Drive LLC
 70
     0
 10
0.0
 20
0.0
 30
0.0
  3
Harmonic Drive LLC
  1

  0
MTEXT
  5
276A
330
2769
100
AcDbEntity
  8
0
100
AcDbMText
 10
8.730232253264317
 20
-1.454758693481394
 30
0.0
 40
5.25
 41
158.5992
 71
     5
 72
     5
  1
{\fArial|b0|i0|c0|p34;Harmonic Drive LLC\P800-921-3332\Pwww.harmonicdrive.net}
 73
     1
 44
1.0
  0
ENDBLK
  5
276C
330
2769
100
AcDbEntity
  8
0
100
AcDbBlockEnd
  0
BLOCK
  5
2C6B
330
2C69
100
AcDbEntity
  8
0
100
AcDbBlockBegin
  2
HD LLC
 70
     0
 10
0.0
 20
0.0
 30
0.0
  3
HD LLC
  1

  0
MTEXT
  5
2C6A
330
2C69
100
AcDbEntity
  8
0
100
AcDbMText
 10
-2.314970886968865
 20
1.247205085865914
 30
0.0
 40
5.675387507387601
 41
236.1828726592229
 71
     5
 72
     5
  1
Harmonic Drive LLC\P800-921-3332\Pwww.harmonicdrive.net
 73
     1
 44
1.0
  0
ENDBLK
  5
2C6C
330
2C69
100
AcDbEntity
  8
0
100
AcDbBlockEnd
  0
BLOCK
  5
2C7C
330
2C79
100
AcDbEntity
  8
0
100
AcDbBlockBegin
  2
NTC
 70
     0
 10
0.0
 20
0.0
 30
0.0
  3
NTC
  1

  0
LWPOLYLINE
  5
2C7A
330
2C79
100
AcDbEntity
  8
0
100
AcDbPolyline
 90
        8
 70
     1
 43
0.0
 10
4.581008201925953
 20
-10.78862239032818
 10
319.3921777697513
 20
-10.78862239032818
 42
-0.4142135623730951
 10
324.9046777697513
 20
-16.30112239032816
 10
324.9046777697513
 20
-117.4075202476924
 42
-0.4142135623730951
 10
319.3921777697513
 20
-122.9200202476925
 10
4.581008201925838
 20
-122.9200202476925
 42
-0.4142135623730951
 10
-0.9314917980741483
 20
-117.4075202476924
 10
-0.9314917980740915
 20
-16.30112239032816
 42
-0.4142135623730951
  0
MTEXT
  5
2C7B
330
2C79
100
AcDbEntity
  8
0
  6
Continuous
370
    30
100
AcDbMText
 10
21.65307678143926
 20
-17.4535155144544
 30
0.0
 40
8.75
 41
294.5432999999998
 71
     1
 72
     5
  3
{\fTxt|b1|i0|c0|p2;Notice:\P\Ftxt.shx;\H0.5714x;All specifications and dimensions shown in the drawing are subject to change without notice. This drawing is the property of Harmonic Drive LLC.   This data is believed to be accurate, however, Harmonic
  1
 Drive LLC assumes no liability for any errors or omissions in the specifications, models, or drawings.\P\PHarmonic Drive LLC\PTel: 800-921-3332\Pwww.harmonicdrive.net}
 73
     1
 44
1.0
  0
ENDBLK
  5
2C7D
330
2C79
100
AcDbEntity
  8
0
100
AcDbBlockEnd
  0
ENDSEC
  0
SECTION
  2
ENTITIES
  0
TEXT
  5
26EC
330
2455
100
AcDbEntity
  8
1
 62
     3
100
AcDbText
 10
-148.6389234972433
 20
-99.80427673644648
 30
0.0
 40
4.5
  1
 
 41
0.9
100
AcDbText
  0
LINE
  5
29ED
330
2455
100
AcDbEntity
  8
2
  6
CENTER
 62
     3
100
AcDbLine
 10
171.1966936744299
 20
454.7534885984974
 30
0.0
 11
171.1966936744299
 21
644.753485744173
 31
0.0
  0
CIRCLE
  5
29EE
330
2455
100
AcDbEntity
  8
1
 62
     7
100
AcDbCircle
 10
171.1966936744299
 20
549.7534871719194
 30
0.0
 40
20.0
  0
CIRCLE
  5
29EF
330
2455
100
AcDbEntity
  8
1
  6
CENTER
 62
     3
100
AcDbCircle
 10
171.1966936744299
 20
549.7534871719194
 30
0.0
 40
30.0
  0
CIRCLE
  5
29F0
330
2455
100
AcDbEntity
  8
1
 62
     7
100
AcDbCircle
 10
201.1966936744299
 20
549.7534871719194
 30
0.0
 40
7.75
  0
CIRCLE
  5
29F1
330
2455
100
AcDbEntity
  8
1
 62
     7
100
AcDbCircle
 10
141.1966936744299
 20
549.7534871719194
 30
0.0
 40
7.749999999999968
  0
CIRCLE
  5
29F2
330
2455
100
AcDbEntity
  8
1
 62
     7
100
AcDbCircle
 10
171.1966936744299
 20
549.7534871719194
 30
0.0
 40
39.49999940681479
  0
ARC
  5
29F3
330
2455
100
AcDbEntity
  8
1
  6
CENTER
 62
     3
100
AcDbCircle
 10
171.1966936744299
 20
549.7534871719194
 30
0.0
 40
75.0
100
AcDbArc
 50
302.1841850836245
 51
58.0940898850054
  0
ARC
  5
29F4
330
2455
100
AcDbEntity
  8
1
 62
     7
100
AcDbCircle
 10
171.1966936744299
 20
549.7534871719194
 30
0.0
 40
84.99999872334219
100
AcDbArc
 50
61.93518756027241
 51
296.5237263788999
  0
ARC
  5
29F5
330
2455
100
AcDbEntity
  8
1
 62
     7
100
AcDbCircle
 10
171.1966936744299
 20
549.7534871719194
 30
0.0
 40
84.99999872334205
100
AcDbArc
 50
296.5237263788999
 51
61.93518756027241
  0
ARC
  5
29F6
330
2455
100
AcDbEntity
  8
1
 62
     7
100
AcDbCircle
 10
171.1966936744299
 20
549.7534871719194
 30
0.0
 40
67.49999898633736
100
AcDbArc
 50
306.3094635553182
 51
53.75014020913454
  0
ARC
  5
29F7
330
2455
100
AcDbEntity
  8
1
 62
     7
100
AcDbCircle
 10
171.1966936744299
 20
549.7534871719194
 30
0.0
 40
64.02100000038105
100
AcDbArc
 50
308.6556268444614
 51
51.34437315553849
  0
ARC
  5
29F8
330
2455
100
AcDbEntity
  8
1
 62
     7
100
AcDbCircle
 10
171.1966936744299
 20
549.7534871719194
 30
0.0
 40
62.10399906742517
100
AcDbArc
 50
310.0606974635589
 51
49.88436238850238
  0
ARC
  5
29F9
330
2455
100
AcDbEntity
  8
1
  6
CENTER
 62
     3
100
AcDbCircle
 10
171.1966936744299
 20
549.7534871719194
 30
0.0
 40
75.00000000000003
100
AcDbArc
 50
58.0940898850054
 51
302.1841850836245
  0
ARC
  5
29FA
330
2455
100
AcDbEntity
  8
1
 62
     7
100
AcDbCircle
 10
171.1966936744299
 20
549.7534871719194
 30
0.0
 40
67.49999898633733
100
AcDbArc
 50
53.75014020913454
 51
306.3094635553182
  0
ARC
  5
29FB
330
2455
100
AcDbEntity
  8
1
 62
     7
100
AcDbCircle
 10
171.1966936744299
 20
549.7534871719194
 30
0.0
 40
62.1039990674252
100
AcDbArc
 50
49.88436238850238
 51
310.0606974635589
  0
ARC
  5
29FC
330
2455
100
AcDbEntity
  8
1
 62
     7
100
AcDbCircle
 10
171.1966936744299
 20
549.7534871719194
 30
0.0
 40
64.021000000381
100
AcDbArc
 50
90.0
 51
308.6556268444614
  0
LINE
  5
29FD
330
2455
100
AcDbEntity
  8
1
  6
CENTER
 62
     3
100
AcDbLine
 10
266.0754762592594
 20
549.7534871719194
 30
0.0
 11
76.19669495108778
 21
549.7534871719192
 31
0.0
  0
CIRCLE
  5
29FE
330
2455
100
AcDbEntity
  8
1
 62
     7
100
AcDbCircle
 10
149.9834902388335
 20
528.5402837363228
 30
0.0
 40
7.750000000000006
  0
CIRCLE
  5
29FF
330
2455
100
AcDbEntity
  8
1
 62
     3
100
AcDbCircle
 10
151.7852652917408
 20
477.3090502002393
 30
0.0
 40
4.0
  0
CIRCLE
  5
2A00
330
2455
100
AcDbEntity
  8
1
 62
     7
100
AcDbCircle
 10
151.7852652917408
 20
477.3090502002393
 30
0.0
 40
3.199999999999899
  0
CIRCLE
  5
2A01
330
2455
100
AcDbEntity
  8
1
 62
     7
100
AcDbCircle
 10
133.69669367443
 20
484.8015818880866
 30
0.0
 40
4.500000000000019
  0
CIRCLE
  5
2A02
330
2455
100
AcDbEntity
  8
1
 62
     7
100
AcDbCircle
 10
106.2447883905971
 20
512.2534871719194
 30
0.0
 40
4.499999999999992
  0
CIRCLE
  5
2A03
330
2455
100
AcDbEntity
  8
1
 62
     7
100
AcDbCircle
 10
96.19669367443009
 20
549.7534871719194
 30
0.0
 40
4.5
  0
LINE
  5
2A04
330
2455
100
AcDbEntity
  8
1
  6
CENTER
 62
     3
100
AcDbLine
 10
141.7633739075399
 20
520.3201674050291
 30
0.0
 11
158.2036065701271
 21
536.7604000676163
 31
0.0
  0
LINE
  5
2A05
330
2455
100
AcDbEntity
  8
1
  6
CENTER
 62
     3
100
AcDbLine
 10
150.2323510211257
 20
471.5134952425049
 30
0.0
 11
153.338179562356
 21
483.1046051579737
 31
0.0
  0
LINE
  5
2A06
330
2455
100
AcDbEntity
  8
1
  6
CENTER
 62
     3
100
AcDbLine
 10
130.32169367443
 20
478.9559104125416
 30
0.0
 11
137.0716936744301
 21
490.6472533636314
 31
0.0
  0
LINE
  5
2A07
330
2455
100
AcDbEntity
  8
1
  6
CENTER
 62
     3
100
AcDbLine
 10
100.3991169150521
 20
508.8784871719193
 30
0.0
 11
112.0904598661421
 21
515.6284871719194
 31
0.0
  0
CIRCLE
  5
2A08
330
2455
100
AcDbEntity
  8
1
 62
     7
100
AcDbCircle
 10
208.69669367443
 20
484.8015818880866
 30
0.0
 40
4.49999999999992
  0
CIRCLE
  5
2A09
330
2455
100
AcDbEntity
  8
1
 62
     7
100
AcDbCircle
 10
236.1485989582627
 20
512.2534871719194
 30
0.0
 40
4.499999999999992
  0
CIRCLE
  5
2A0A
330
2455
100
AcDbEntity
  8
1
 62
     7
100
AcDbCircle
 10
246.19669367443
 20
549.7534871719194
 30
0.0
 40
4.5
  0
CIRCLE
  5
2A0B
330
2455
100
AcDbEntity
  8
1
 62
     7
100
AcDbCircle
 10
184.2079303748431
 20
518.3415830665357
 30
0.0
 40
3.199999999999995
  0
CIRCLE
  5
2A0C
330
2455
100
AcDbEntity
  8
1
 62
     3
100
AcDbCircle
 10
184.2079303748431
 20
518.3415830665357
 30
0.0
 40
4.00000000000002
  0
CIRCLE
  5
2A0D
330
2455
100
AcDbEntity
  8
1
 62
     7
100
AcDbCircle
 10
192.4098971100264
 20
528.5402837363228
 30
0.0
 40
7.750000000000076
  0
CIRCLE
  5
2A0E
330
2455
100
AcDbEntity
  8
1
 62
     7
100
AcDbCircle
 10
171.1966936744299
 20
519.7534871719194
 30
0.0
 40
7.75
  0
CIRCLE
  5
2A0F
330
2455
100
AcDbEntity
  8
1
 62
     7
100
AcDbCircle
 10
171.1966936744299
 20
474.7534871719195
 30
0.0
 40
4.5
  0
ARC
  5
2A10
330
2455
100
AcDbEntity
  8
1
  6
CENTER
 62
     3
100
AcDbCircle
 10
171.1966936744299
 20
549.7534871719194
 30
0.0
 40
34.00000000000009
100
AcDbArc
 50
283.2589803106531
 51
302.2921577888676
  0
ARC
  5
2A11
330
2455
100
AcDbEntity
  8
1
 62
     7
100
AcDbCircle
 10
171.1966936744299
 20
549.7534871719194
 30
0.0
 40
84.99999872334205
100
AcDbArc
 50
296.5237263788999
 51
298.0195136698
  0
LINE
  5
2A12
330
2455
100
AcDbEntity
  8
1
  6
CENTER
 62
     3
100
AcDbLine
 10
205.32169367443
 20
490.6472533636314
 30
0.0
 11
212.07169367443
 21
478.9559104125416
 31
0.0
  0
LINE
  5
2A13
330
2455
100
AcDbEntity
  8
1
  6
CENTER
 62
     3
100
AcDbLine
 10
230.3029274827179
 20
515.6284871719194
 30
0.0
 11
241.9942704338077
 21
508.8784871719193
 31
0.0
  0
LINE
  5
2A14
330
2455
100
AcDbEntity
  8
1
  6
CENTER
 62
     3
100
AcDbLine
 10
186.5040309690336
 20
512.7983058714679
 30
0.0
 11
181.9118297806525
 21
523.884860261603
 31
0.0
  0
LINE
  5
2A15
330
2455
100
AcDbEntity
  8
1
  6
CENTER
 62
     3
100
AcDbLine
 10
200.63001344132
 20
520.3201674050291
 30
0.0
 11
184.1897807787328
 21
536.7604000676163
 31
0.0
  0
ARC
  5
2A16
330
2455
100
AcDbEntity
  8
1
  6
CENTER
 62
     3
100
AcDbCircle
 10
171.1966936744299
 20
549.7534871719194
 30
0.0
 40
33.99999999999995
100
AcDbArc
 50
102.6952745806601
 51
122.0268251169235
  0
CIRCLE
  5
2A17
330
2455
100
AcDbEntity
  8
1
 62
     3
100
AcDbCircle
 10
158.1854569740169
 20
581.1653912773033
 30
0.0
 40
4.000000000000006
  0
CIRCLE
  5
2A18
330
2455
100
AcDbEntity
  8
1
 62
     7
100
AcDbCircle
 10
158.1854569740169
 20
581.1653912773033
 30
0.0
 40
3.200000000000069
  0
CIRCLE
  5
2A19
330
2455
100
AcDbEntity
  8
1
 62
     7
100
AcDbCircle
 10
149.9834902388335
 20
570.9666906075158
 30
0.0
 40
7.749999999999937
  0
CIRCLE
  5
2A1A
330
2455
100
AcDbEntity
  8
1
 62
     7
100
AcDbCircle
 10
106.2447883905971
 20
587.2534871719192
 30
0.0
 40
4.500000000000016
  0
CIRCLE
  5
2A1B
330
2455
100
AcDbEntity
  8
1
 62
     7
100
AcDbCircle
 10
133.69669367443
 20
614.7053924557523
 30
0.0
 40
4.500000000000023
  0
LINE
  5
2A1C
330
2455
100
AcDbEntity
  8
1
  6
CENTER
 62
     3
100
AcDbLine
 10
155.8893563798263
 20
586.7086684723708
 30
0.0
 11
160.4815575682074
 21
575.6221140822353
 31
0.0
  0
LINE
  5
2A1D
330
2455
100
AcDbEntity
  8
1
  6
CENTER
 62
     3
100
AcDbLine
 10
141.7633739075399
 20
579.1868069388093
 30
0.0
 11
158.2036065701271
 21
562.7465742762222
 31
0.0
  0
LINE
  5
2A1E
330
2455
100
AcDbEntity
  8
1
  6
CENTER
 62
     3
100
AcDbLine
 10
100.3991169150521
 20
590.628487171919
 30
0.0
 11
112.0904598661421
 21
583.8784871719192
 31
0.0
  0
LINE
  5
2A1F
330
2455
100
AcDbEntity
  8
1
  6
CENTER
 62
     3
100
AcDbLine
 10
130.32169367443
 20
620.5510639312972
 30
0.0
 11
137.0716936744302
 21
608.8597209802074
 31
0.0
  0
CIRCLE
  5
2A20
330
2455
100
AcDbEntity
  8
1
 62
     7
100
AcDbCircle
 10
236.1485989582627
 20
587.2534871719192
 30
0.0
 40
4.500000000000016
  0
CIRCLE
  5
2A21
330
2455
100
AcDbEntity
  8
1
 62
     7
100
AcDbCircle
 10
208.69669367443
 20
614.7053924557523
 30
0.0
 40
4.500000000000119
  0
CIRCLE
  5
2A22
330
2455
100
AcDbEntity
  8
1
 62
     7
100
AcDbCircle
 10
192.4098971100264
 20
570.9666906075158
 30
0.0
 40
7.750000000000076
  0
CIRCLE
  5
2A23
330
2455
100
AcDbEntity
  8
1
 62
     7
100
AcDbCircle
 10
171.1966936744299
 20
579.7534871719192
 30
0.0
 40
7.750000000000341
  0
CIRCLE
  5
2A24
330
2455
100
AcDbEntity
  8
1
 62
     7
100
AcDbCircle
 10
190.6081220571189
 20
622.1979241435994
 30
0.0
 40
3.200000000000101
  0
CIRCLE
  5
2A25
330
2455
100
AcDbEntity
  8
1
 62
     3
100
AcDbCircle
 10
190.6081220571189
 20
622.1979241435994
 30
0.0
 40
4.0
  0
CIRCLE
  5
2A26
330
2455
100
AcDbEntity
  8
1
 62
     7
100
AcDbCircle
 10
171.1966936744299
 20
624.753487171919
 30
0.0
 40
4.5
  0
ARC
  5
2A27
330
2455
100
AcDbEntity
  8
1
 62
     7
100
AcDbCircle
 10
171.1966936744299
 20
549.7534871719194
 30
0.0
 40
64.02100000038103
100
AcDbArc
 50
51.34437315553849
 51
90.0
  0
LINE
  5
2A28
330
2455
100
AcDbEntity
  8
1
  6
CENTER
 62
     3
100
AcDbLine
 10
230.3029274827179
 20
583.8784871719192
 30
0.0
 11
241.9942704338077
 21
590.628487171919
 31
0.0
  0
LINE
  5
2A29
330
2455
100
AcDbEntity
  8
1
  6
CENTER
 62
     3
100
AcDbLine
 10
205.3216936744298
 20
608.8597209802074
 30
0.0
 11
212.07169367443
 21
620.5510639312972
 31
0.0
  0
LINE
  5
2A2A
330
2455
100
AcDbEntity
  8
1
  6
CENTER
 62
     3
100
AcDbLine
 10
200.63001344132
 20
579.1868069388093
 30
0.0
 11
184.1897807787328
 21
562.7465742762223
 31
0.0
  0
LINE
  5
2A2B
330
2455
100
AcDbEntity
  8
1
  6
CENTER
 62
     3
100
AcDbLine
 10
192.1610363277341
 20
627.9934791013338
 30
0.0
 11
189.0552077865039
 21
616.4023691858652
 31
0.0
  0
LINE
  5
2A2C
330
2455
100
AcDbEntity
  8
2
  6
CENTER
 62
     3
100
AcDbLine
 10
555.1966936724572
 20
454.7534885984974
 30
0.0
 11
555.1966936724572
 21
644.753485744173
 31
0.0
  0
CIRCLE
  5
2A2D
330
2455
100
AcDbEntity
  8
1
  6
CENTER
 62
     3
100
AcDbCircle
 10
555.1966936724591
 20
549.7534871719194
 30
0.0
 40
74.99999999999996
  0
CIRCLE
  5
2A2E
330
2455
100
AcDbEntity
  8
1
 62
     7
100
AcDbCircle
 10
592.6966936724586
 20
484.8015818880866
 30
0.0
 40
4.500000000000023
  0
CIRCLE
  5
2A2F
330
2455
100
AcDbEntity
  8
1
 62
     7
100
AcDbCircle
 10
592.6966936724592
 20
614.7053924557523
 30
0.0
 40
4.499999999999943
  0
ARC
  5
2A30
330
2455
100
AcDbEntity
  8
1
 62
     7
100
AcDbCircle
 10
593.8652245424127
 20
585.8673739796184
 30
0.0
 40
6.455000000000063
100
AcDbArc
 50
96.26117301721208
 51
176.9650683310019
  0
ARC
  5
2A31
330
2455
100
AcDbEntity
  8
1
 62
     7
100
AcDbCircle
 10
582.6878804688319
 20
594.9608178664739
 30
0.0
 40
6.454999999999976
100
AcDbArc
 50
284.774062103781
 51
5.477957417570875
  0
ARC
  5
2A32
330
2455
100
AcDbEntity
  8
1
 62
     7
100
AcDbCircle
 10
555.1966936724572
 20
549.7534871719194
 30
0.0
 40
44.44999999999995
100
AcDbArc
 50
227.5471564729854
 51
0.0
  0
ARC
  5
2A33
330
2455
100
AcDbEntity
  8
1
 62
     7
100
AcDbCircle
 10
555.1966936724572
 20
549.7534871719194
 30
0.0
 40
44.45000000000002
100
AcDbArc
 50
0.0
 51
132.4528435270139
  0
ARC
  5
2A34
330
2455
100
AcDbEntity
  8
1
 62
     7
100
AcDbCircle
 10
555.1966936724572
 20
549.7534871719194
 30
0.0
 40
47.62499999999993
100
AcDbArc
 50
230.9510361359281
 51
0.0
  0
ARC
  5
2A35
330
2455
100
AcDbEntity
  8
1
 62
     7
100
AcDbCircle
 10
555.1966936724572
 20
549.7534871719194
 30
0.0
 40
47.625
100
AcDbArc
 50
0.0
 51
129.0489638640718
  0
ARC
  5
2A36
330
2455
100
AcDbEntity
  8
1
 62
     7
100
AcDbCircle
 10
555.1966936724572
 20
549.7534871719194
 30
0.0
 40
58.29500000000001
100
AcDbArc
 50
239.0242397082468
 51
0.0
  0
ARC
  5
2A37
330
2455
100
AcDbEntity
  8
1
 62
     7
100
AcDbCircle
 10
555.1966936724572
 20
549.7534871719194
 30
0.0
 40
58.29499999999989
100
AcDbArc
 50
0.0
 51
120.9757602917531
  0
ARC
  5
2A38
330
2455
100
AcDbEntity
  8
1
 62
     7
100
AcDbCircle
 10
555.1966936724572
 20
549.7534871719194
 30
0.0
 40
61.35349999999998
100
AcDbArc
 50
240.7239032748477
 51
0.0
  0
ARC
  5
2A39
330
2455
100
AcDbEntity
  8
1
 62
     7
100
AcDbCircle
 10
555.1966936724572
 20
549.7534871719194
 30
0.0
 40
61.35349999999998
100
AcDbArc
 50
0.0
 51
119.2760967251522
  0
ARC
  5
2A3A
330
2455
100
AcDbEntity
  8
1
 62
     7
100
AcDbCircle
 10
588.5875568067485
 20
508.7106027807483
 30
0.0
 40
5.953125000000013
100
AcDbArc
 50
335.7064347298274
 51
103.2475214653688
  0
ARC
  5
2A3B
330
2455
100
AcDbEntity
  8
1
 62
     7
100
AcDbCircle
 10
593.8652245424127
 20
585.8673739796184
 30
0.0
 40
5.953124999999913
100
AcDbArc
 50
69.61947820808813
 51
197.1605649436324
  0
ARC
  5
2A3C
330
2455
100
AcDbEntity
  8
1
 62
     7
100
AcDbCircle
 10
588.5875568067485
 20
508.7106027807483
 30
0.0
 40
5.953125000000007
100
AcDbArc
 50
155.0133480998463
 51
282.5544348353881
  0
ARC
  5
2A3D
330
2455
100
AcDbEntity
  8
1
 62
     7
100
AcDbCircle
 10
582.6878804688319
 20
594.9608178664739
 30
0.0
 40
5.95312500000004
100
AcDbArc
 50
264.5785654911536
 51
32.11965222669403
  0
ARC
  5
2A3E
330
2455
100
AcDbEntity
  8
1
 62
     7
100
AcDbCircle
 10
555.1966936724572
 20
549.7534871719194
 30
0.0
 40
84.99999872308801
100
AcDbArc
 50
249.3454829888913
 51
110.6694796051775
  0
ARC
  5
2A3F
330
2455
100
AcDbEntity
  8
1
 62
     7
100
AcDbCircle
 10
555.1966936724572
 20
549.7534871719194
 30
0.0
 40
64.02100000038092
100
AcDbArc
 50
242.0537446083458
 51
90.0
  0
ARC
  5
2A40
330
2455
100
AcDbEntity
  8
1
 62
     7
100
AcDbCircle
 10
555.1966936724572
 20
549.7534871719194
 30
0.0
 40
62.85299999999336
100
AcDbArc
 50
243.8513298362447
 51
90.0
  0
LINE
  5
2A41
330
2455
100
AcDbEntity
  8
2
  6
CENTER
 62
     3
100
AcDbLine
 10
461.1966936724568
 20
549.7534871719194
 30
0.0
 11
650.1966922463365
 21
549.7534871719194
 31
0.0
  0
CIRCLE
  5
2A42
330
2455
100
AcDbEntity
  8
1
 62
     7
100
AcDbCircle
 10
555.1966936724572
 20
549.7534871719194
 30
0.0
 40
15.99999975964022
  0
CIRCLE
  5
2A43
330
2455
100
AcDbEntity
  8
1
 62
     7
100
AcDbCircle
 10
555.1966936724572
 20
549.7534871719194
 30
0.0
 40
21.4999996767624
  0
ARC
  5
2A44
330
2455
100
AcDbEntity
  8
1
 62
     7
100
AcDbCircle
 10
555.1966936724572
 20
549.7534871719194
 30
0.0
 40
57.0100000000002
100
AcDbArc
 50
173.4638481410361
 51
178.7100649024415
  0
ARC
  5
2A45
330
2455
100
AcDbEntity
  8
1
 62
     7
100
AcDbCircle
 10
503.3933545931851
 20
560.5183448225342
 30
0.0
 40
6.455000000000055
100
AcDbArc
 50
221.4785643215611
 51
302.1824596353499
  0
ARC
  5
2A46
330
2455
100
AcDbEntity
  8
1
 62
     7
100
AcDbCircle
 10
503.3933545931851
 20
560.5183448225342
 30
0.0
 40
5.953125000000056
100
AcDbArc
 50
194.8368695124377
 51
322.3779562479782
  0
ARC
  5
2A47
330
2455
100
AcDbEntity
  8
1
 62
     7
100
AcDbCircle
 10
555.1966936724572
 20
549.7534871719194
 30
0.0
 40
61.3534999999999
100
AcDbArc
 50
60.72390327484779
 51
180.0
  0
ARC
  5
2A48
330
2455
100
AcDbEntity
  8
1
 62
     7
100
AcDbCircle
 10
555.1966936724572
 20
549.7534871719194
 30
0.0
 40
58.29499999999999
100
AcDbArc
 50
59.02423970824688
 51
180.0
  0
ARC
  5
2A49
330
2455
100
AcDbEntity
  8
1
 62
     7
100
AcDbCircle
 10
555.1966936724572
 20
549.7534871719194
 30
0.0
 40
47.62499999999988
100
AcDbArc
 50
50.95103613592811
 51
180.0
  0
ARC
  5
2A4A
330
2455
100
AcDbEntity
  8
1
 62
     7
100
AcDbCircle
 10
555.1966936724572
 20
549.7534871719194
 30
0.0
 40
44.44999999999985
100
AcDbArc
 50
47.54715647298886
 51
180.0
  0
ARC
  5
2A4B
330
2455
100
AcDbEntity
  8
1
 62
     7
100
AcDbCircle
 10
555.1966936724572
 20
549.7534871719194
 30
0.0
 40
62.85299999999327
100
AcDbArc
 50
118.512595979152
 51
243.8513298362447
  0
ARC
  5
2A4C
330
2455
100
AcDbEntity
  8
1
 62
     7
100
AcDbCircle
 10
555.1966936724572
 20
549.7534871719194
 30
0.0
 40
64.021000000381
100
AcDbArc
 50
117.9462553916541
 51
242.0537446083458
  0
ARC
  5
2A4D
330
2455
100
AcDbEntity
  8
1
 62
     7
100
AcDbCircle
 10
555.1966936724572
 20
549.7534871719194
 30
0.0
 40
84.9999987230881
100
AcDbArc
 50
110.6694796051775
 51
249.3454829888913
  0
ARC
  5
2A4E
330
2455
100
AcDbEntity
  8
1
 62
     7
100
AcDbCircle
 10
555.1966936722054
 20
549.7534871719194
 30
0.0
 40
9.499999857520274
100
AcDbArc
 50
108.4084801749743
 51
270.0000000015177
  0
ARC
  5
2A4F
330
2455
100
AcDbEntity
  8
0
 62
     7
100
AcDbCircle
 10
555.1966936724554
 20
550.6868204912673
 30
0.0
 40
17.67999973442129
100
AcDbArc
 50
289.2696388779719
 51
89.99999999999349
  0
ARC
  5
2A50
330
2455
100
AcDbEntity
  8
0
 62
     7
100
AcDbCircle
 10
555.1966936724591
 20
550.6868204912673
 30
0.0
 40
17.67999973442131
100
AcDbArc
 50
90.00000000000651
 51
250.730361122028
  0
ARC
  5
2A51
330
2455
100
AcDbEntity
  8
1
 62
     7
100
AcDbCircle
 10
555.1966936722054
 20
549.7534871719194
 30
0.0
 40
9.499999857520322
100
AcDbArc
 50
270.0000000015177
 51
71.59151984442774
  0
LINE
  5
2A52
330
2455
100
AcDbEntity
  8
1
 62
     7
100
AcDbLine
 10
336.1966936744301
 20
572.003487171919
 30
0.0
 11
336.1966936744302
 21
519.7534871719194
 31
0.0
  0
LINE
  5
2A53
330
2455
100
AcDbEntity
  8
1
 62
     7
100
AcDbLine
 10
331.1966936744301
 20
572.003487171919
 30
0.0
 11
331.1966936744302
 21
519.7534871719194
 31
0.0
  0
LINE
  5
2A54
330
2455
100
AcDbEntity
  8
0
 62
     7
100
AcDbLine
 10
395.196693672457
 20
565.2534869391417
 30
0.0
 11
395.196693672457
 21
549.7534871719194
 31
0.0
  0
LINE
  5
2A55
330
2455
100
AcDbEntity
  8
1
 62
     7
100
AcDbLine
 10
363.196693672795
 20
533.7534871719194
 30
0.0
 11
363.196693672795
 21
565.7534871719192
 31
0.0
  0
ARC
  5
2A56
330
2455
100
AcDbEntity
  8
1
 62
     7
100
AcDbCircle
 10
375.286215867611
 20
500.5909871719193
 30
0.0
 40
0.5
100
AcDbArc
 50
90.0
 51
186.9999999999895
  0
ARC
  5
2A57
330
2455
100
AcDbEntity
  8
1
 62
     7
100
AcDbCircle
 10
375.7910686744301
 20
493.235987171919
 30
0.0
 40
0.5
100
AcDbArc
 50
180.0
 51
270.0
  0
ARC
  5
2A58
330
2455
100
AcDbEntity
  8
1
 62
     7
100
AcDbCircle
 10
393.8966936744301
 20
488.0599084667653
 30
0.0
 40
0.299999999999951
100
AcDbArc
 50
0.0
 51
86.99999999999441
  0
ARC
  5
2A59
330
2455
100
AcDbEntity
  8
1
 62
     7
100
AcDbCircle
 10
393.8966936744301
 20
487.6277512406314
 30
0.0
 40
0.3000000000000082
100
AcDbArc
 50
314.9999999999895
 51
0.0
  0
ARC
  5
2A5A
330
2455
100
AcDbEntity
  8
1
 62
     7
100
AcDbCircle
 10
339.22169367443
 20
491.4324871719194
 30
0.0
 40
3.026652441229451
100
AcDbArc
 50
178.1066141542543
 51
268.1066141542526
  0
ARC
  5
2A5B
330
2455
100
AcDbEntity
  8
1
 62
     7
100
AcDbCircle
 10
334.5436936744302
 20
509.2534871719194
 30
0.0
 40
0.5
100
AcDbArc
 50
0.0
 51
90.0
  0
ARC
  5
2A5C
330
2455
100
AcDbEntity
  8
1
 62
     7
100
AcDbCircle
 10
338.8686936744301
 20
491.2794871719194
 30
0.0
 40
3.824999999999988
100
AcDbArc
 50
180.0
 51
270.0
  0
ARC
  5
2A5D
330
2455
100
AcDbEntity
  8
1
 62
     7
100
AcDbCircle
 10
383.6941936744302
 20
496.8359871719194
 30
0.0
 40
5.953125
100
AcDbArc
 50
270.0
 51
295.2349812870597
  0
ARC
  5
2A5E
330
2455
100
AcDbEntity
  8
1
 62
     7
100
AcDbCircle
 10
383.6941936744302
 20
496.8359871719194
 30
0.0
 40
5.953124999999976
100
AcDbArc
 50
295.2349812870597
 51
62.59422911437523
  0
ARC
  5
2A5F
330
2455
100
AcDbEntity
  8
1
 62
     7
100
AcDbCircle
 10
383.6941936744302
 20
496.8359871719194
 30
0.0
 40
5.953124999999982
100
AcDbArc
 50
62.59422911437523
 51
90.0
  0
ARC
  5
2A60
330
2455
100
AcDbEntity
  8
1
 62
     7
100
AcDbCircle
 10
383.6941936744302
 20
496.8359871719194
 30
0.0
 40
5.953125
100
AcDbArc
 50
90.0
 51
244.7650187129402
  0
ARC
  5
2A61
330
2455
100
AcDbEntity
  8
1
 62
     7
100
AcDbCircle
 10
383.6941936744302
 20
496.8359871719194
 30
0.0
 40
5.953125000000023
100
AcDbArc
 50
244.7650187129402
 51
270.0
  0
ARC
  5
2A62
330
2455
100
AcDbEntity
  8
1
 62
     7
100
AcDbCircle
 10
359.1553174492399
 20
437.5544871719196
 30
0.0
 40
49.90546628457353
100
AcDbArc
 50
75.42759696478667
 51
90.84803476064813
  0
ARC
  5
2A63
330
2455
100
AcDbEntity
  8
0
 62
     7
100
AcDbCircle
 10
370.7966936666973
 20
533.3534874183262
 30
0.0
 40
0.3999999939020977
100
AcDbArc
 50
89.99999997269913
 51
180.0000000090964
  0
ARC
  5
2A64
330
2455
100
AcDbEntity
  8
0
 62
     7
100
AcDbCircle
 10
371.8966936181828
 20
481.9534881904952
 30
0.0
 40
0.2999999954424197
100
AcDbArc
 50
0.0
 51
90.0
  0
LINE
  5
2A65
330
2455
100
AcDbEntity
  8
1
 62
     7
100
AcDbLine
 10
377.5410686744301
 20
501.0909871719193
 30
0.0
 11
379.5307008780361
 21
501.0909871719193
 31
0.0
  0
LINE
  5
2A66
330
2455
100
AcDbEntity
  8
1
 62
     7
100
AcDbLine
 10
377.5410686744301
 20
501.0909871719193
 30
0.0
 11
377.5410686744301
 21
492.7359871719192
 31
0.0
  0
LINE
  5
2A67
330
2455
100
AcDbEntity
  8
1
 62
     7
100
AcDbLine
 10
377.5410686744301
 20
501.0909871719193
 30
0.0
 11
375.286215867611
 21
501.0909871719193
 31
0.0
  0
LINE
  5
2A68
330
2455
100
AcDbEntity
  8
1
 62
     7
100
AcDbLine
 10
375.29106867443
 20
496.4487097079739
 30
0.0
 11
374.7899427917904
 21
500.5300525002169
 31
0.0
  0
LINE
  5
2A69
330
2455
100
AcDbEntity
  8
1
 62
     7
100
AcDbLine
 10
375.29106867443
 20
496.4487097079739
 30
0.0
 11
375.29106867443
 21
493.235987171919
 31
0.0
  0
LINE
  5
2A6A
330
2455
100
AcDbEntity
  8
1
 62
     7
100
AcDbLine
 10
377.5410686744301
 20
492.7359871719192
 30
0.0
 11
375.7910686744301
 21
492.7359871719192
 31
0.0
  0
LINE
  5
2A6B
330
2455
100
AcDbEntity
  8
1
 62
     7
100
AcDbLine
 10
379.3338667257555
 20
492.7829332410808
 30
0.0
 11
377.5410686744301
 21
492.7359871719192
 31
0.0
  0
LINE
  5
2A6C
330
2455
100
AcDbEntity
  8
1
 62
     7
100
AcDbLine
 10
383.6941936744302
 20
505.2959871719194
 30
0.0
 11
378.1441936744302
 21
505.2959871719194
 31
0.0
  0
LINE
  5
2A6D
330
2455
100
AcDbEntity
  8
1
 62
     7
100
AcDbLine
 10
380.9540345064938
 20
502.1209871719193
 30
0.0
 11
378.1441936744302
 21
502.1209871719193
 31
0.0
  0
LINE
  5
2A6E
330
2455
100
AcDbEntity
  8
1
 62
     7
100
AcDbLine
 10
378.1441936744302
 20
505.2959871719194
 30
0.0
 11
377.34419367443
 21
504.4959871719193
 31
0.0
  0
LINE
  5
2A6F
330
2455
100
AcDbEntity
  8
1
 62
     7
100
AcDbLine
 10
377.34419367443
 20
502.9209871719195
 30
0.0
 11
378.1441936744302
 21
502.1209871719193
 31
0.0
  0
LINE
  5
2A70
330
2455
100
AcDbEntity
  8
1
 62
     7
100
AcDbLine
 10
377.34419367443
 20
502.9209871719195
 30
0.0
 11
377.34419367443
 21
504.4959871719193
 31
0.0
  0
LINE
  5
2A71
330
2455
100
AcDbEntity
  8
1
 62
     7
100
AcDbLine
 10
374.65169367443
 20
491.1509871719194
 30
0.0
 11
374.65169367443
 21
501.3536288664406
 31
0.0
  0
LINE
  5
2A72
330
2455
100
AcDbEntity
  8
1
 62
     7
100
AcDbLine
 10
392.7366936744297
 20
501.3536288664406
 30
0.0
 11
392.7366936744297
 21
491.1509871719194
 31
0.0
  0
LINE
  5
2A73
330
2455
100
AcDbEntity
  8
1
 62
     7
100
AcDbLine
 10
392.03669367443
 20
488.3924871719194
 30
0.0
 11
383.6941936744302
 21
488.3924871719194
 31
0.0
  0
LINE
  5
2A74
330
2455
100
AcDbEntity
  8
1
 62
     7
100
AcDbLine
 10
392.7366936744297
 20
488.7966323603522
 30
0.0
 11
392.7366936744297
 21
491.1509871719194
 31
0.0
  0
LINE
  5
2A75
330
2455
100
AcDbEntity
  8
1
 62
     7
100
AcDbLine
 10
392.4366936744299
 20
491.4509871719194
 30
0.0
 11
386.2321992429079
 21
491.4509871719194
 31
0.0
  0
LINE
  5
2A76
330
2455
100
AcDbEntity
  8
1
 62
     7
100
AcDbLine
 10
389.2441936744301
 20
502.1209871719193
 30
0.0
 11
386.4343528423662
 21
502.1209871719193
 31
0.0
  0
LINE
  5
2A77
330
2455
100
AcDbEntity
  8
1
 62
     7
100
AcDbLine
 10
390.04419367443
 20
504.4959871719193
 30
0.0
 11
390.04419367443
 21
502.9209871719195
 31
0.0
  0
LINE
  5
2A78
330
2455
100
AcDbEntity
  8
1
 62
     7
100
AcDbLine
 10
389.2441936744301
 20
505.2959871719194
 30
0.0
 11
383.6941936744302
 21
505.2959871719194
 31
0.0
  0
LINE
  5
2A79
330
2455
100
AcDbEntity
  8
1
 62
     7
100
AcDbLine
 10
389.2441936744301
 20
502.1209871719193
 30
0.0
 11
390.04419367443
 21
502.9209871719195
 31
0.0
  0
LINE
  5
2A7A
330
2455
100
AcDbEntity
  8
1
 62
     7
100
AcDbLine
 10
390.04419367443
 20
504.4959871719193
 30
0.0
 11
389.2441936744301
 21
505.2959871719194
 31
0.0
  0
LINE
  5
2A7B
330
2455
100
AcDbEntity
  8
1
 62
     7
100
AcDbLine
 10
392.7366936744297
 20
491.1509871719194
 30
0.0
 11
392.4366936744299
 21
491.4509871719194
 31
0.0
  0
LINE
  5
2A7C
330
2455
100
AcDbEntity
  8
1
 62
     7
100
AcDbLine
 10
392.7366936744297
 20
488.7966323603522
 30
0.0
 11
392.03669367443
 21
488.3924871719194
 31
0.0
  0
LINE
  5
2A7D
330
2455
100
AcDbEntity
  8
1
 62
     7
100
AcDbLine
 10
375.35169367443
 20
488.3924871719194
 30
0.0
 11
374.65169367443
 21
488.7966323603522
 31
0.0
  0
LINE
  5
2A7E
330
2455
100
AcDbEntity
  8
1
 62
     7
100
AcDbLine
 10
374.9516936744301
 20
491.4509871719194
 30
0.0
 11
374.65169367443
 21
491.1509871719194
 31
0.0
  0
LINE
  5
2A7F
330
2455
100
AcDbEntity
  8
1
 62
     7
100
AcDbLine
 10
381.156188105952
 20
491.4509871719194
 30
0.0
 11
374.9516936744301
 21
491.4509871719194
 31
0.0
  0
LINE
  5
2A80
330
2455
100
AcDbEntity
  8
1
 62
     7
100
AcDbLine
 10
374.65169367443
 20
491.1509871719194
 30
0.0
 11
374.65169367443
 21
488.7966323603522
 31
0.0
  0
LINE
  5
2A81
330
2455
100
AcDbEntity
  8
1
 62
     7
100
AcDbLine
 10
383.6941936744302
 20
488.3924871719194
 30
0.0
 11
375.35169367443
 21
488.3924871719194
 31
0.0
  0
LINE
  5
2A82
330
2455
100
AcDbEntity
  8
1
 62
     7
100
AcDbLine
 10
336.1966936744302
 20
518.9534871719193
 30
0.0
 11
336.1966936744302
 21
512.5534871719194
 31
0.0
  0
LINE
  5
2A83
330
2455
100
AcDbEntity
  8
1
 62
     7
100
AcDbLine
 10
331.1966936744302
 20
518.9534871719193
 30
0.0
 11
331.1966936744302
 21
512.5534871719194
 31
0.0
  0
LINE
  5
2A84
330
2455
100
AcDbEntity
  8
1
 62
     7
100
AcDbLine
 10
331.1966936744302
 20
518.9534871719193
 30
0.0
 11
336.1966936744302
 21
518.9534871719193
 31
0.0
  0
LINE
  5
2A85
330
2455
100
AcDbEntity
  8
1
 62
     7
100
AcDbLine
 10
336.1966936744302
 20
512.5534871719194
 30
0.0
 11
336.1966936744302
 21
511.7534871719194
 31
0.0
  0
LINE
  5
2A86
330
2455
100
AcDbEntity
  8
1
 62
     7
100
AcDbLine
 10
331.1966936744302
 20
512.5534871719194
 30
0.0
 11
331.1966936744302
 21
511.7534871719194
 31
0.0
  0
LINE
  5
2A87
330
2455
100
AcDbEntity
  8
1
 62
     7
100
AcDbLine
 10
331.1966936744302
 20
512.5534871719194
 30
0.0
 11
336.1966936744302
 21
512.5534871719194
 31
0.0
  0
LINE
  5
2A88
330
2455
100
AcDbEntity
  8
1
  6
CENTER
 62
     3
100
AcDbLine
 10
330.1966936744302
 20
515.7534871719194
 30
0.0
 11
337.1966936744302
 21
515.7534871719194
 31
0.0
  0
LINE
  5
2A89
330
2455
100
AcDbEntity
  8
1
 62
     7
100
AcDbLine
 10
336.1966936744302
 20
519.7534871719194
 30
0.0
 11
336.1966936744302
 21
518.9534871719193
 31
0.0
  0
LINE
  5
2A8A
330
2455
100
AcDbEntity
  8
1
 62
     7
100
AcDbLine
 10
331.1966936744302
 20
519.7534871719194
 30
0.0
 11
331.1966936744302
 21
518.9534871719193
 31
0.0
  0
LINE
  5
2A8B
330
2455
100
AcDbEntity
  8
1
 62
     3
100
AcDbLine
 10
331.1966936744302
 20
519.7534871719194
 30
0.0
 11
336.1966936744302
 21
519.7534871719194
 31
0.0
  0
LINE
  5
2A8C
330
2455
100
AcDbEntity
  8
1
 62
     7
100
AcDbLine
 10
336.1966936744302
 20
511.7534871719194
 30
0.0
 11
336.1966936744302
 21
491.5324871719194
 31
0.0
  0
LINE
  5
2A8D
330
2455
100
AcDbEntity
  8
1
 62
     7
100
AcDbLine
 10
331.1966936744302
 20
511.7534871719194
 30
0.0
 11
331.1966936744302
 21
510.2534871719195
 31
0.0
  0
LINE
  5
2A8E
330
2455
100
AcDbEntity
  8
1
 62
     3
100
AcDbLine
 10
331.1966936744302
 20
511.7534871719194
 30
0.0
 11
336.1966936744302
 21
511.7534871719194
 31
0.0
  0
LINE
  5
2A8F
330
2455
100
AcDbEntity
  8
1
 62
     7
100
AcDbLine
 10
339.1216936744301
 20
488.4074871719195
 30
0.0
 11
392.99669367443
 21
488.4074871719195
 31
0.0
  0
LINE
  5
2A90
330
2455
100
AcDbEntity
  8
1
 62
     7
100
AcDbLine
 10
393.9123944613031
 20
488.3594973271917
 30
0.0
 11
392.99669367443
 21
488.4074871719195
 31
0.0
  0
LINE
  5
2A91
330
2455
100
AcDbEntity
  8
1
 62
     7
100
AcDbLine
 10
394.1966936744302
 20
488.0599084667653
 30
0.0
 11
394.1966936744302
 21
487.6277512406314
 31
0.0
  0
LINE
  5
2A92
330
2455
100
AcDbEntity
  8
1
 62
     7
100
AcDbLine
 10
394.108825708786
 20
487.4156192062754
 30
0.0
 11
392.4799604426794
 21
485.786753940169
 31
0.0
  0
LINE
  5
2A93
330
2455
100
AcDbEntity
  8
1
 62
     7
100
AcDbLine
 10
331.6966936744301
 20
509.7534871719195
 30
0.0
 11
331.1966936744302
 21
510.2534871719195
 31
0.0
  0
LINE
  5
2A94
330
2455
100
AcDbEntity
  8
1
 62
     7
100
AcDbLine
 10
331.1966936744302
 20
529.7534871719192
 30
0.0
 11
336.1966936744302
 21
529.7534871719192
 31
0.0
  0
LINE
  5
2A95
330
2455
100
AcDbEntity
  8
1
 62
     7
100
AcDbLine
 10
331.6966936744301
 20
509.7534871719195
 30
0.0
 11
334.5436936744302
 21
509.7534871719195
 31
0.0
  0
LINE
  5
2A96
330
2455
100
AcDbEntity
  8
1
 62
     7
100
AcDbLine
 10
371.71169367443
 20
485.8545180329054
 30
0.0
 11
381.6966936744302
 21
485.7324871719195
 31
0.0
  0
LINE
  5
2A97
330
2455
100
AcDbEntity
  8
1
 62
     7
100
AcDbLine
 10
392.4799604426794
 20
485.786753940169
 30
0.0
 11
387.6966936744302
 21
485.7324871719195
 31
0.0
  0
LINE
  5
2A98
330
2455
100
AcDbEntity
  8
1
 62
     7
100
AcDbLine
 10
387.6966936744302
 20
485.7324871719195
 30
0.0
 11
381.6966936744302
 21
485.7324871719195
 31
0.0
  0
LINE
  5
2A99
330
2455
100
AcDbEntity
  8
1
  6
CENTER
 62
     3
100
AcDbLine
 10
399.3444124407535
 20
549.7534871719194
 30
0.0
 11
323.5026995918077
 21
549.7534871719194
 31
0.0
  0
LINE
  5
2A9A
330
2455
100
AcDbEntity
  8
1
 62
     7
100
AcDbLine
 10
394.1966936744302
 20
505.2959871719194
 30
0.0
 11
394.1966936744302
 21
488.0599084667653
 31
0.0
  0
LINE
  5
2A9B
330
2455
100
AcDbEntity
  8
1
 62
     7
100
AcDbLine
 10
375.6966936727952
 20
505.3034878394915
 30
0.0
 11
375.6966936727952
 21
511.2534877502853
 31
0.0
  0
LINE
  5
2A9C
330
2455
100
AcDbEntity
  8
0
 62
     7
100
AcDbLine
 10
375.6966936727952
 20
511.2534877502853
 30
0.0
 11
375.6966936728182
 21
511.2534877502853
 31
0.0
  0
LINE
  5
2A9D
330
2455
100
AcDbEntity
  8
0
 62
     7
100
AcDbLine
 10
375.6966936727952
 20
533.7534874122284
 30
0.0
 11
391.1941935617866
 21
533.7534874122284
 31
0.0
  0
LINE
  5
2A9E
330
2455
100
AcDbEntity
  8
1
 62
     7
100
AcDbLine
 10
375.6966936727952
 20
533.7534874122284
 30
0.0
 11
375.6966936727952
 21
511.2534877502853
 31
0.0
  0
LINE
  5
2A9F
330
2455
100
AcDbEntity
  8
0
 62
     7
100
AcDbLine
 10
364.1966936755105
 20
530.7534874573214
 30
0.0
 11
370.8966936652858
 21
530.7534874573214
 31
0.0
  0
LINE
  5
2AA0
330
2455
100
AcDbEntity
  8
0
 62
     7
100
AcDbLine
 10
364.1966936755105
 20
530.7534874573214
 30
0.0
 11
364.1966936755105
 21
511.2534877502853
 31
0.0
  0
LINE
  5
2AA1
330
2455
100
AcDbEntity
  8
0
 62
     7
100
AcDbLine
 10
364.1966936755105
 20
511.2534877502853
 30
0.0
 11
371.9441938540815
 21
511.2534877502853
 31
0.0
  0
LINE
  5
2AA2
330
2455
100
AcDbEntity
  8
0
 62
     7
100
AcDbLine
 10
371.9441938540815
 20
511.2534877502853
 30
0.0
 11
371.9441938540815
 21
497.2534879606003
 31
0.0
  0
LINE
  5
2AA3
330
2455
100
AcDbEntity
  8
0
 62
     7
100
AcDbLine
 10
371.9441938540815
 20
497.2534879606003
 30
0.0
 11
373.7441938240459
 21
497.2534879606003
 31
0.0
  0
LINE
  5
2AA4
330
2455
100
AcDbEntity
  8
0
 62
     7
100
AcDbLine
 10
373.7441938240459
 20
497.2534879606003
 30
0.0
 11
373.7441938240459
 21
511.2534877502853
 31
0.0
  0
LINE
  5
2AA5
330
2455
100
AcDbEntity
  8
0
 62
     7
100
AcDbLine
 10
373.7441938240459
 20
511.2534877502853
 30
0.0
 11
375.6966936727952
 21
511.2534877502853
 31
0.0
  0
LINE
  5
2AA6
330
2455
100
AcDbEntity
  8
0
 62
     7
100
AcDbLine
 10
375.2441938015201
 20
532.0034874385685
 30
0.0
 11
370.8966936652858
 21
532.0034874385685
 31
0.0
  0
LINE
  5
2AA7
330
2455
100
AcDbEntity
  8
0
 62
     7
100
AcDbLine
 10
375.2441938015201
 20
532.0034874385685
 30
0.0
 11
375.2441938015201
 21
527.2534875098998
 31
0.0
  0
LINE
  5
2AA8
330
2455
100
AcDbEntity
  8
0
 62
     7
100
AcDbLine
 10
375.2441938015201
 20
527.2534875098998
 30
0.0
 11
375.6966936727952
 21
527.2534875098998
 31
0.0
  0
LINE
  5
2AA9
330
2455
100
AcDbEntity
  8
0
 62
     7
100
AcDbLine
 10
370.8966936652858
 20
532.0034874385685
 30
0.0
 11
370.8966936652858
 21
530.7534874573214
 31
0.0
  0
LINE
  5
2AAA
330
2455
100
AcDbEntity
  8
0
 62
     7
100
AcDbLine
 10
370.8966936652858
 20
532.0034874385685
 30
0.0
 11
370.8966936652858
 21
533.7534874122284
 31
0.0
  0
LINE
  5
2AAB
330
2455
100
AcDbEntity
  8
0
 62
     7
100
AcDbLine
 10
375.2441938015201
 20
532.0034874385685
 30
0.0
 11
375.2441938015201
 21
533.7534874122284
 31
0.0
  0
LINE
  5
2AAC
330
2455
100
AcDbEntity
  8
0
 62
     7
100
AcDbLine
 10
375.6966936727952
 20
505.3034878394915
 30
0.0
 11
389.9966936708671
 21
505.3034878394915
 31
0.0
  0
LINE
  5
2AAD
330
2455
100
AcDbEntity
  8
0
 62
     7
100
AcDbLine
 10
389.9966936717372
 20
505.3034878394915
 30
0.0
 11
389.9966936717372
 21
533.5034874159839
 31
0.0
  0
LINE
  5
2AAE
330
2455
100
AcDbEntity
  8
0
 62
     7
100
AcDbLine
 10
389.9966936718651
 20
533.5034874159839
 30
0.0
 11
375.6966936727952
 21
533.5034874159839
 31
0.0
  0
LINE
  5
2AAF
330
2455
100
AcDbEntity
  8
0
 62
     7
100
AcDbLine
 10
381.9441937008615
 20
533.5034874159839
 30
0.0
 11
381.9441937008615
 21
527.5034875061442
 31
0.0
  0
LINE
  5
2AB0
330
2455
100
AcDbEntity
  8
0
 62
     7
100
AcDbLine
 10
381.9441937008615
 20
527.5034875061442
 30
0.0
 11
375.6966936727724
 21
527.5034875061442
 31
0.0
  0
LINE
  5
2AB1
330
2455
100
AcDbEntity
  8
0
 62
     7
100
AcDbLine
 10
363.9966936784642
 20
511.0034871719193
 30
0.0
 11
370.3966936727953
 21
511.0034871719193
 31
0.0
  0
LINE
  5
2AB2
330
2455
100
AcDbEntity
  8
0
 62
     7
100
AcDbLine
 10
370.3966936727953
 20
511.0034871719193
 30
0.0
 11
370.3966936727953
 21
533.3534874182628
 31
0.0
  0
LINE
  5
2AB3
330
2455
100
AcDbEntity
  8
0
 62
     7
100
AcDbLine
 10
370.796693666888
 20
533.7534874122284
 30
0.0
 11
375.6966936727952
 21
533.7534874122284
 31
0.0
  0
LINE
  5
2AB4
330
2455
100
AcDbEntity
  8
0
 62
     7
100
AcDbLine
 10
391.1941935617866
 20
533.7534874122284
 30
0.0
 11
391.1941935617866
 21
534.603487399434
 31
0.0
  0
LINE
  5
2AB5
330
2455
100
AcDbEntity
  8
0
 62
     7
100
AcDbLine
 10
391.1941935617866
 20
534.603487399434
 30
0.0
 11
392.796693672457
 21
534.603487399434
 31
0.0
  0
LINE
  5
2AB6
330
2455
100
AcDbEntity
  8
0
 62
     7
100
AcDbLine
 10
392.796693672457
 20
534.603487399434
 30
0.0
 11
392.796693672457
 21
533.7534874122284
 31
0.0
  0
LINE
  5
2AB7
330
2455
100
AcDbEntity
  8
0
 62
     7
100
AcDbLine
 10
392.796693672457
 20
533.7534874122284
 30
0.0
 11
394.6966936799684
 21
533.7534874122284
 31
0.0
  0
LINE
  5
2AB8
330
2455
100
AcDbEntity
  8
0
 62
     7
100
AcDbLine
 10
394.6966936799684
 20
533.7534874122284
 30
0.0
 11
395.196693672457
 21
534.2534874047171
 31
0.0
  0
LINE
  5
2AB9
330
2455
100
AcDbEntity
  8
0
 62
     7
100
AcDbLine
 10
395.196693672457
 20
534.2534874047171
 30
0.0
 11
395.196693672457
 21
549.7534871719194
 31
0.0
  0
LINE
  5
2ABA
330
2455
100
AcDbEntity
  8
1
 62
     7
100
AcDbLine
 10
363.9966936784642
 20
511.0034871719193
 30
0.0
 11
363.9966935853757
 21
533.7534871719194
 31
0.0
  0
LINE
  5
2ABB
330
2455
100
AcDbEntity
  8
1
 62
     7
100
AcDbLine
 10
363.9966935853757
 20
533.7534871719194
 30
0.0
 11
363.196693672795
 21
533.7534871719194
 31
0.0
  0
LINE
  5
2ABC
330
2455
100
AcDbEntity
  8
0
 62
     7
100
AcDbLine
 10
373.5966935937875
 20
485.7324871719195
 30
0.0
 11
391.3910941586775
 21
485.7324871719195
 31
0.0
  0
LINE
  5
2ABD
330
2455
100
AcDbEntity
  8
0
 62
     7
100
AcDbLine
 10
371.0539511172679
 20
486.9004871718328
 30
0.0
 11
393.1910717095849
 21
486.9004871715787
 31
0.0
  0
LINE
  5
2ABE
330
2455
100
AcDbEntity
  8
0
 62
     7
100
AcDbLine
 10
363.9966935894676
 20
532.7534874272762
 30
0.0
 11
370.3966936727953
 21
532.7534874272762
 31
0.0
  0
LINE
  5
2ABF
330
2455
100
AcDbEntity
  8
0
 62
     7
100
AcDbLine
 10
363.196694273695
 20
540.2534873146329
 30
0.0
 11
395.196693672457
 21
540.2534873146329
 31
0.0
  0
LINE
  5
2AC0
330
2455
100
AcDbEntity
  8
0
 62
     7
100
AcDbLine
 10
389.996693671733
 20
528.2534874948521
 30
0.0
 11
391.1941935617866
 21
528.2534874948521
 31
0.0
  0
LINE
  5
2AC1
330
2455
100
AcDbEntity
  8
0
 62
     7
100
AcDbLine
 10
391.1941935617866
 20
528.2534874948521
 30
0.0
 11
391.1941935617866
 21
533.7534874122284
 31
0.0
  0
LINE
  5
2AC2
330
2455
100
AcDbEntity
  8
0
 62
     7
100
AcDbLine
 10
391.1941935617866
 20
532.7534874272762
 30
0.0
 11
389.996693671733
 21
532.7534874272762
 31
0.0
  0
LINE
  5
2AC3
330
2455
100
AcDbEntity
  8
0
 62
     7
100
AcDbLine
 10
391.1941935617866
 20
530.7534874573214
 30
0.0
 11
392.796693672457
 21
530.7534874573214
 31
0.0
  0
LINE
  5
2AC4
330
2455
100
AcDbEntity
  8
0
 62
     7
100
AcDbLine
 10
392.796693672457
 20
530.7534874573214
 30
0.0
 11
392.796693672457
 21
533.7534874122284
 31
0.0
  0
LINE
  5
2AC5
330
2455
100
AcDbEntity
  8
0
 62
     7
100
AcDbLine
 10
394.1966936740427
 20
486.1004871836475
 30
0.0
 11
393.3966936860624
 21
486.9004871718328
 31
0.0
  0
LINE
  5
2AC6
330
2455
100
AcDbEntity
  8
0
 62
     7
100
AcDbLine
 10
393.3966936860624
 20
486.9004871718328
 30
0.0
 11
368.9966936621543
 21
486.9004871720867
 31
0.0
  0
LINE
  5
2AC7
330
2455
100
AcDbEntity
  8
0
 62
     7
100
AcDbLine
 10
368.9966936619005
 20
486.9004871720867
 30
0.0
 11
368.1966936739689
 21
486.1004871839015
 31
0.0
  0
LINE
  5
2AC8
330
2455
100
AcDbEntity
  8
0
 62
     7
100
AcDbLine
 10
394.1966936739551
 20
465.1534884426699
 30
0.0
 11
393.7966936799595
 21
464.7534884485773
 31
0.0
  0
LINE
  5
2AC9
330
2455
100
AcDbEntity
  8
0
 62
     7
100
AcDbLine
 10
393.7966936799595
 20
464.7534884485773
 30
0.0
 11
372.5966936074637
 21
464.7534884485773
 31
0.0
  0
LINE
  5
2ACA
330
2455
100
AcDbEntity
  8
0
 62
     7
100
AcDbLine
 10
372.5966936074637
 20
464.7534884485773
 30
0.0
 11
372.1966936136252
 21
465.1534884426699
 31
0.0
  0
LINE
  5
2ACB
330
2455
100
AcDbEntity
  8
0
 62
     7
100
AcDbLine
 10
372.1966936136252
 20
465.1534884426699
 30
0.0
 11
372.1966936136252
 21
470.2534882986064
 31
0.0
  0
LINE
  5
2ACC
330
2455
100
AcDbEntity
  8
0
 62
     7
100
AcDbLine
 10
371.8966936181828
 20
482.2534881859377
 30
0.0
 11
368.9966936619005
 21
482.2534881859377
 31
0.0
  0
LINE
  5
2ACD
330
2455
100
AcDbEntity
  8
0
 62
     7
100
AcDbLine
 10
368.9966936619005
 20
482.2534881859377
 30
0.0
 11
368.1966936739689
 21
483.0534881738689
 31
0.0
  0
LINE
  5
2ACE
330
2455
100
AcDbEntity
  8
0
 62
     7
100
AcDbLine
 10
394.1966936739991
 20
486.1004871836475
 30
0.0
 11
394.1966936739894
 21
483.2534871719194
 31
0.0
  0
LINE
  5
2ACF
330
2455
100
AcDbEntity
  8
0
 62
     7
100
AcDbLine
 10
368.1966936739689
 20
486.1004871839015
 30
0.0
 11
368.1966936739689
 21
483.0534881738689
 31
0.0
  0
LINE
  5
2AD0
330
2455
100
AcDbEntity
  8
0
 62
     7
100
AcDbLine
 10
368.196693674223
 20
485.7324871719195
 30
0.0
 11
394.1966936741804
 21
485.7324871719195
 31
0.0
  0
LINE
  5
2AD1
330
2455
100
AcDbEntity
  8
1
  6
CENTER
 62
     3
100
AcDbLine
 10
366.1966937037273
 20
474.7534882986064
 30
0.0
 11
401.144193411444
 21
474.7534882986064
 31
0.0
  0
LINE
  5
2AD2
330
2455
100
AcDbEntity
  8
1
 62
     7
100
AcDbLine
 10
372.1966936136252
 20
470.2534882986064
 30
0.0
 11
394.1966936739758
 21
470.2534882986064
 31
0.0
  0
LINE
  5
2AD3
330
2455
100
AcDbEntity
  8
0
 62
     7
100
AcDbLine
 10
372.1966936136252
 20
470.2534882986064
 30
0.0
 11
372.1966936136252
 21
479.2534882986063
 31
0.0
  0
LINE
  5
2AD4
330
2455
100
AcDbEntity
  8
0
 62
     7
100
AcDbLine
 10
394.1966936739758
 20
470.2534882986064
 30
0.0
 11
394.1966936739551
 21
465.1534884426699
 31
0.0
  0
LINE
  5
2AD5
330
2455
100
AcDbEntity
  8
1
 62
     7
100
AcDbLine
 10
372.1966936136252
 20
479.2534882986063
 30
0.0
 11
394.1966936739758
 21
479.2534882986063
 31
0.0
  0
LINE
  5
2AD6
330
2455
100
AcDbEntity
  8
0
 62
     7
100
AcDbLine
 10
372.1966936136252
 20
479.2534882986063
 30
0.0
 11
372.1966936136252
 21
481.9534881904952
 31
0.0
  0
LINE
  5
2AD7
330
2455
100
AcDbEntity
  8
0
 62
     7
100
AcDbLine
 10
394.1966936739758
 20
479.2534882986063
 30
0.0
 11
394.1966936739758
 21
470.2534882986064
 31
0.0
  0
LINE
  5
2AD8
330
2455
100
AcDbEntity
  8
1
  6
DIVIDE
 62
     7
100
AcDbLine
 10
394.1966936739894
 20
483.2534871719194
 30
0.0
 11
396.1966936739894
 21
483.2534871719194
 31
0.0
  0
LINE
  5
2AD9
330
2455
100
AcDbEntity
  8
0
 62
     7
100
AcDbLine
 10
394.1966936739894
 20
483.2534871719194
 30
0.0
 11
394.1966936739758
 21
479.2534882986063
 31
0.0
  0
LINE
  5
2ADA
330
2455
100
AcDbEntity
  8
1
  6
DIVIDE
 62
     7
100
AcDbLine
 10
396.1966936739894
 20
483.2534871719194
 30
0.0
 11
396.1966936739894
 21
499.2291250505096
 31
0.0
  0
LINE
  5
2ADB
330
2455
100
AcDbEntity
  8
1
  6
DIVIDE
 62
     7
100
AcDbLine
 10
344.9908830587746
 20
483.2534871719194
 30
0.0
 11
333.1966936136253
 21
483.2534871719194
 31
0.0
  0
LINE
  5
2ADC
330
2455
100
AcDbEntity
  8
1
  6
DIVIDE
 62
     7
100
AcDbLine
 10
333.1966936136253
 20
483.2534871719194
 30
0.0
 11
333.1966936136253
 21
499.2291250505096
 31
0.0
  0
LINE
  5
2ADD
330
2455
100
AcDbEntity
  8
1
 62
     7
100
AcDbLine
 10
335.0436936744302
 20
509.2534871719194
 30
0.0
 11
335.0436936744302
 21
491.2794871719194
 31
0.0
  0
LINE
  5
2ADE
330
2455
100
AcDbEntity
  8
1
 62
     7
100
AcDbLine
 10
358.4166936744301
 20
487.4544871719195
 30
0.0
 11
338.8686936744301
 21
487.4544871719195
 31
0.0
  0
CIRCLE
  5
2ADF
330
2455
100
AcDbEntity
  8
1
 62
     7
100
AcDbCircle
 10
517.6966936724552
 20
484.8015818880866
 30
0.0
 40
4.500000000000023
  0
CIRCLE
  5
2AE0
330
2455
100
AcDbEntity
  8
1
 62
     7
100
AcDbCircle
 10
490.2447883886224
 20
512.2534871719194
 30
0.0
 40
4.500000000000023
  0
CIRCLE
  5
2AE1
330
2455
100
AcDbEntity
  8
1
 62
     7
100
AcDbCircle
 10
480.1966936724552
 20
549.7534871719194
 30
0.0
 40
4.5
  0
CIRCLE
  5
2AE2
330
2455
100
AcDbEntity
  8
1
 62
     7
100
AcDbCircle
 10
574.6081220538167
 20
477.3090501998825
 30
0.0
 40
4.500000000000023
  0
CIRCLE
  5
2AE3
330
2455
100
AcDbEntity
  8
0
 62
     7
100
AcDbCircle
 10
558.0233602966655
 20
532.3134874338747
 30
0.0
 40
1.066666650644322
  0
CIRCLE
  5
2AE4
330
2455
100
AcDbEntity
  8
0
 62
     7
100
AcDbCircle
 10
552.370027048257
 20
532.3134874338747
 30
0.0
 40
1.066666650638919
  0
CIRCLE
  5
2AE5
330
2455
100
AcDbEntity
  8
1
 62
     7
100
AcDbCircle
 10
555.1966936724591
 20
474.7534871719195
 30
0.0
 40
4.5
  0
CIRCLE
  5
2AE6
330
2455
100
AcDbEntity
  8
1
 62
     7
100
AcDbCircle
 10
574.6081220538906
 20
477.309050199607
 30
0.0
 40
3.199999999999898
  0
CIRCLE
  5
2AE7
330
2455
100
AcDbEntity
  8
1
 62
     3
100
AcDbCircle
 10
574.6081220538906
 20
477.309050199607
 30
0.0
 40
3.999999999999931
  0
ARC
  5
2AE8
330
2455
100
AcDbEntity
  8
1
 62
     7
100
AcDbCircle
 10
555.1966936724572
 20
549.7534871719194
 30
0.0
 40
48.65500000000015
100
AcDbArc
 50
173.744420109449
 51
178.4294929340304
  0
ARC
  5
2AE9
330
2455
100
AcDbEntity
  8
1
 62
     7
100
AcDbCircle
 10
502.4100390945857
 20
546.1427810807945
 30
0.0
 40
6.454999999999945
100
AcDbArc
 50
49.9914534081277
 51
130.695348721919
  0
ARC
  5
2AEA
330
2455
100
AcDbEntity
  8
1
 62
     7
100
AcDbCircle
 10
555.1966936724572
 20
549.7534871719194
 30
0.0
 40
57.01000000000011
100
AcDbArc
 50
189.1160220540803
 51
194.3622388154854
  0
ARC
  5
2AEB
330
2455
100
AcDbEntity
  8
1
 62
     7
100
AcDbCircle
 10
502.4100390945857
 20
546.1427810807945
 30
0.0
 40
6.454999999999952
100
AcDbArc
 50
237.1307382346035
 51
317.8346335483933
  0
ARC
  5
2AEC
330
2455
100
AcDbEntity
  8
1
 62
     7
100
AcDbCircle
 10
555.1966936724572
 20
549.7534871719194
 30
0.0
 40
48.65500000000018
100
AcDbArc
 50
189.3965940224931
 51
194.0816668470747
  0
ARC
  5
2AED
330
2455
100
AcDbEntity
  8
1
 62
     7
100
AcDbCircle
 10
505.3416682831501
 20
532.0350068919525
 30
0.0
 40
6.455000000000008
100
AcDbArc
 50
65.64362732117178
 51
146.3475226349616
  0
ARC
  5
2AEE
330
2455
100
AcDbEntity
  8
1
 62
     7
100
AcDbCircle
 10
555.1966936724572
 20
549.7534871719194
 30
0.0
 40
57.01000000000011
100
AcDbArc
 50
204.7681959671217
 51
210.0144127285297
  0
ARC
  5
2AEF
330
2455
100
AcDbEntity
  8
1
 62
     7
100
AcDbCircle
 10
505.3416682831501
 20
532.0350068919525
 30
0.0
 40
6.454999999999968
100
AcDbArc
 50
252.7829121476463
 51
333.486807461438
  0
ARC
  5
2AF0
330
2455
100
AcDbEntity
  8
1
 62
     7
100
AcDbCircle
 10
555.1966936724572
 20
549.7534871719194
 30
0.0
 40
48.65500000000017
100
AcDbArc
 50
205.048767935535
 51
209.7338407601151
  0
ARC
  5
2AF1
330
2455
100
AcDbEntity
  8
1
 62
     7
100
AcDbCircle
 10
511.9708166332744
 20
519.2413313288217
 30
0.0
 40
6.454999999999927
100
AcDbArc
 50
81.29580123421559
 51
161.9996965480051
  0
ARC
  5
2AF2
330
2455
100
AcDbEntity
  8
1
 62
     7
100
AcDbCircle
 10
555.1966936724572
 20
549.7534871719194
 30
0.0
 40
57.01000000000017
100
AcDbArc
 50
220.4203698801649
 51
225.666586641573
  0
ARC
  5
2AF3
330
2455
100
AcDbEntity
  8
1
 62
     7
100
AcDbCircle
 10
511.9708166332744
 20
519.2413313288217
 30
0.0
 40
6.455000000000111
100
AcDbArc
 50
268.4350860606896
 51
349.1389813744798
  0
ARC
  5
2AF4
330
2455
100
AcDbEntity
  8
1
 62
     7
100
AcDbCircle
 10
555.1966936724572
 20
549.7534871719194
 30
0.0
 40
48.65500000000015
100
AcDbArc
 50
220.7009418485795
 51
225.3860146731604
  0
ARC
  5
2AF5
330
2455
100
AcDbEntity
  8
1
 62
     7
100
AcDbCircle
 10
521.8058305381657
 20
508.7106027807483
 30
0.0
 40
6.455000000000055
100
AcDbArc
 50
96.94797514726106
 51
177.6518704610474
  0
ARC
  5
2AF6
330
2455
100
AcDbEntity
  8
1
 62
     7
100
AcDbCircle
 10
555.1966936724572
 20
549.7534871719194
 30
0.0
 40
57.01000000000013
100
AcDbArc
 50
236.072543793209
 51
241.3187605546173
  0
ARC
  5
2AF7
330
2455
100
AcDbEntity
  8
1
 62
     7
100
AcDbCircle
 10
521.8058305381657
 20
508.7106027807483
 30
0.0
 40
6.454999999999881
100
AcDbArc
 50
284.0872599737301
 51
4.791155287523199
  0
ARC
  5
2AF8
330
2455
100
AcDbEntity
  8
1
 62
     7
100
AcDbCircle
 10
555.1966936724572
 20
549.7534871719194
 30
0.0
 40
48.65500000000002
100
AcDbArc
 50
236.353115761622
 51
241.0381885862026
  0
ARC
  5
2AF9
330
2455
100
AcDbEntity
  8
1
 62
     7
100
AcDbCircle
 10
534.1172920086925
 20
501.2238372092658
 30
0.0
 40
6.455000000000062
100
AcDbArc
 50
112.6001490603022
 51
193.3040443740942
  0
ARC
  5
2AFA
330
2455
100
AcDbEntity
  8
1
 62
     7
100
AcDbCircle
 10
555.1966936724572
 20
549.7534871719194
 30
0.0
 40
57.00999999999989
100
AcDbArc
 50
251.7247177062515
 51
256.9709344676611
  0
ARC
  5
2AFB
330
2455
100
AcDbEntity
  8
1
 62
     7
100
AcDbCircle
 10
534.1172920086925
 20
501.2238372092658
 30
0.0
 40
6.454999999999992
100
AcDbArc
 50
299.7394338867767
 51
20.44332920056827
  0
ARC
  5
2AFC
330
2455
100
AcDbEntity
  8
1
 62
     7
100
AcDbCircle
 10
555.1966936724572
 20
549.7534871719194
 30
0.0
 40
48.6549999999999
100
AcDbArc
 50
252.0052896746653
 51
256.6903624992473
  0
ARC
  5
2AFD
330
2455
100
AcDbEntity
  8
1
 62
     7
100
AcDbCircle
 10
547.9921162687746
 20
497.3362937671372
 30
0.0
 40
6.455000000000072
100
AcDbArc
 50
128.2523229733465
 51
208.9562182871361
  0
ARC
  5
2AFE
330
2455
100
AcDbEntity
  8
1
 62
     7
100
AcDbCircle
 10
555.1966936724572
 20
549.7534871719194
 30
0.0
 40
57.00999999999993
100
AcDbArc
 50
267.3768916192968
 51
272.6231083807031
  0
ARC
  5
2AFF
330
2455
100
AcDbEntity
  8
1
 62
     7
100
AcDbCircle
 10
547.9921162687746
 20
497.3362937671372
 30
0.0
 40
6.455000000000017
100
AcDbArc
 50
315.3916077998204
 51
36.09550311360986
  0
ARC
  5
2B00
330
2455
100
AcDbEntity
  8
1
 62
     7
100
AcDbCircle
 10
555.1966936724572
 20
549.7534871719194
 30
0.0
 40
48.65499999999993
100
AcDbArc
 50
267.6574635877098
 51
272.34253641229
  0
ARC
  5
2B01
330
2455
100
AcDbEntity
  8
1
 62
     7
100
AcDbCircle
 10
562.4012710761396
 20
497.3362937671372
 30
0.0
 40
6.454999999999999
100
AcDbArc
 50
143.9044968863901
 51
224.6083922001796
  0
ARC
  5
2B02
330
2455
100
AcDbEntity
  8
1
 62
     7
100
AcDbCircle
 10
555.1966936724572
 20
549.7534871719194
 30
0.0
 40
57.00999999999993
100
AcDbArc
 50
283.0290655323388
 51
288.2752822937484
  0
ARC
  5
2B03
330
2455
100
AcDbEntity
  8
1
 62
     7
100
AcDbCircle
 10
562.4012710761396
 20
497.3362937671372
 30
0.0
 40
6.455000000000056
100
AcDbArc
 50
331.0437817128637
 51
51.7476770266534
  0
ARC
  5
2B04
330
2455
100
AcDbEntity
  8
1
 62
     7
100
AcDbCircle
 10
555.1966936724572
 20
549.7534871719194
 30
0.0
 40
48.65499999999993
100
AcDbArc
 50
283.3096375007525
 51
287.9947103253346
  0
ARC
  5
2B05
330
2455
100
AcDbEntity
  8
1
 62
     7
100
AcDbCircle
 10
576.2760953362215
 20
501.2238372092659
 30
0.0
 40
6.454999999999945
100
AcDbArc
 50
159.5566707994317
 51
240.2605661132231
  0
ARC
  5
2B06
330
2455
100
AcDbEntity
  8
1
 62
     7
100
AcDbCircle
 10
555.1966936724572
 20
549.7534871719194
 30
0.0
 40
57.00999999999988
100
AcDbArc
 50
298.6812394453826
 51
301.754191348436
  0
ARC
  5
2B07
330
2455
100
AcDbEntity
  8
1
 62
     7
100
AcDbCircle
 10
576.2760953362215
 20
501.2238372092659
 30
0.0
 40
6.455000000000009
100
AcDbArc
 50
346.6959556259058
 51
67.3998509396978
  0
ARC
  5
2B08
330
2455
100
AcDbEntity
  8
1
 62
     7
100
AcDbCircle
 10
555.1966936724572
 20
549.7534871719194
 30
0.0
 40
48.65499999999993
100
AcDbArc
 50
298.9618114137974
 51
303.6468842383779
  0
ARC
  5
2B09
330
2455
100
AcDbEntity
  8
1
 62
     7
100
AcDbCircle
 10
588.5875568067485
 20
508.7106027807483
 30
0.0
 40
6.455
100
AcDbArc
 50
175.2088447124767
 51
238.3423303459986
  0
ARC
  5
2B0A
330
2455
100
AcDbEntity
  8
1
 62
     7
100
AcDbCircle
 10
521.8058305381657
 20
508.7106027807483
 30
0.0
 40
6.455000000000032
100
AcDbArc
 50
301.657669654
 51
4.791155287523199
  0
ARC
  5
2B0B
330
2455
100
AcDbEntity
  8
1
 62
     7
100
AcDbCircle
 10
555.1966936724572
 20
549.7534871719194
 30
0.0
 40
48.65500000000002
100
AcDbArc
 50
236.353115761622
 51
241.0381885862026
  0
ARC
  5
2B0C
330
2455
100
AcDbEntity
  8
1
 62
     7
100
AcDbCircle
 10
534.1172920086925
 20
501.2238372092658
 30
0.0
 40
6.455000000000062
100
AcDbArc
 50
112.6001490603022
 51
193.3040443740942
  0
ARC
  5
2B0D
330
2455
100
AcDbEntity
  8
1
 62
     7
100
AcDbCircle
 10
555.1966936724572
 20
549.7534871719194
 30
0.0
 40
57.00999999999989
100
AcDbArc
 50
238.245808651564
 51
241.3187605546173
  0
ARC
  5
2B0E
330
2455
100
AcDbEntity
  8
1
 62
     7
100
AcDbCircle
 10
534.1172920086925
 20
501.2238372092658
 30
0.0
 40
6.454999999999992
100
AcDbArc
 50
299.7394338867767
 51
20.44332920056827
  0
ARC
  5
2B0F
330
2455
100
AcDbEntity
  8
1
 62
     7
100
AcDbCircle
 10
555.1966936724572
 20
549.7534871719194
 30
0.0
 40
48.6549999999999
100
AcDbArc
 50
252.0052896746653
 51
256.6903624992473
  0
ARC
  5
2B10
330
2455
100
AcDbEntity
  8
1
 62
     7
100
AcDbCircle
 10
547.9921162687746
 20
497.3362937671372
 30
0.0
 40
6.455000000000072
100
AcDbArc
 50
128.2523229733465
 51
208.9562182871361
  0
ARC
  5
2B11
330
2455
100
AcDbEntity
  8
1
 62
     7
100
AcDbCircle
 10
555.1966936724572
 20
549.7534871719194
 30
0.0
 40
57.00999999999989
100
AcDbArc
 50
251.7247177062515
 51
256.9709344676611
  0
ARC
  5
2B12
330
2455
100
AcDbEntity
  8
1
 62
     7
100
AcDbCircle
 10
547.9921162687746
 20
497.3362937671372
 30
0.0
 40
6.455000000000017
100
AcDbArc
 50
315.3916077998204
 51
36.09550311360986
  0
ARC
  5
2B13
330
2455
100
AcDbEntity
  8
1
 62
     7
100
AcDbCircle
 10
555.1966936724572
 20
549.7534871719194
 30
0.0
 40
48.65499999999993
100
AcDbArc
 50
267.6574635877098
 51
272.34253641229
  0
ARC
  5
2B14
330
2455
100
AcDbEntity
  8
1
 62
     7
100
AcDbCircle
 10
562.4012710761396
 20
497.3362937671372
 30
0.0
 40
6.454999999999999
100
AcDbArc
 50
143.9044968863901
 51
224.6083922001796
  0
ARC
  5
2B15
330
2455
100
AcDbEntity
  8
1
 62
     7
100
AcDbCircle
 10
555.1966936724572
 20
549.7534871719194
 30
0.0
 40
57.00999999999993
100
AcDbArc
 50
267.3768916192968
 51
272.6231083807031
  0
ARC
  5
2B16
330
2455
100
AcDbEntity
  8
1
 62
     7
100
AcDbCircle
 10
562.4012710761396
 20
497.3362937671372
 30
0.0
 40
6.455000000000056
100
AcDbArc
 50
331.0437817128637
 51
51.7476770266534
  0
ARC
  5
2B17
330
2455
100
AcDbEntity
  8
1
 62
     7
100
AcDbCircle
 10
555.1966936724572
 20
549.7534871719194
 30
0.0
 40
48.65499999999993
100
AcDbArc
 50
283.3096375007525
 51
287.9947103253346
  0
ARC
  5
2B18
330
2455
100
AcDbEntity
  8
1
 62
     7
100
AcDbCircle
 10
576.2760953362215
 20
501.2238372092659
 30
0.0
 40
6.454999999999945
100
AcDbArc
 50
159.5566707994317
 51
240.2605661132231
  0
ARC
  5
2B19
330
2455
100
AcDbEntity
  8
1
 62
     7
100
AcDbCircle
 10
555.1966936724572
 20
549.7534871719194
 30
0.0
 40
57.00999999999993
100
AcDbArc
 50
283.0290655323388
 51
288.2752822937484
  0
ARC
  5
2B1A
330
2455
100
AcDbEntity
  8
1
 62
     7
100
AcDbCircle
 10
576.2760953362215
 20
501.2238372092659
 30
0.0
 40
6.455000000000009
100
AcDbArc
 50
346.6959556259058
 51
67.3998509396978
  0
ARC
  5
2B1B
330
2455
100
AcDbEntity
  8
1
 62
     7
100
AcDbCircle
 10
555.1966936724572
 20
549.7534871719194
 30
0.0
 40
48.65499999999993
100
AcDbArc
 50
298.9618114137974
 51
303.6468842383779
  0
ARC
  5
2B1C
330
2455
100
AcDbEntity
  8
1
 62
     7
100
AcDbCircle
 10
588.5875568067485
 20
508.7106027807483
 30
0.0
 40
6.455
100
AcDbArc
 50
175.2088447124767
 51
255.9127400262666
  0
ARC
  5
2B1D
330
2455
100
AcDbEntity
  8
1
 62
     7
100
AcDbCircle
 10
555.1966936724572
 20
549.7534871719194
 30
0.0
 40
57.00999999999988
100
AcDbArc
 50
298.6812394453826
 51
303.9274562067909
  0
ARC
  5
2B1E
330
2455
100
AcDbEntity
  8
1
 62
     7
100
AcDbCircle
 10
521.8058305381657
 20
508.7106027807483
 30
0.0
 40
5.953125000000007
100
AcDbArc
 50
304.6867599773357
 51
24.98665190015371
  0
ARC
  5
2B1F
330
2455
100
AcDbEntity
  8
1
 62
     7
100
AcDbCircle
 10
534.1172920086925
 20
501.2238372092658
 30
0.0
 40
5.953124999999894
100
AcDbArc
 50
273.0977390776544
 51
40.63882581319721
  0
ARC
  5
2B20
330
2455
100
AcDbEntity
  8
1
 62
     7
100
AcDbCircle
 10
547.9921162687746
 20
497.3362937671372
 30
0.0
 40
5.953124999999872
100
AcDbArc
 50
288.7499129906952
 51
56.29099972623961
  0
ARC
  5
2B21
330
2455
100
AcDbEntity
  8
1
 62
     7
100
AcDbCircle
 10
562.4012710761396
 20
497.3362937671372
 30
0.0
 40
5.953124999999825
100
AcDbArc
 50
304.4020869037392
 51
71.94317363928073
  0
ARC
  5
2B22
330
2455
100
AcDbEntity
  8
1
 62
     7
100
AcDbCircle
 10
576.2760953362215
 20
501.2238372092659
 30
0.0
 40
5.953124999999857
100
AcDbArc
 50
320.0542608167832
 51
87.59534755232493
  0
ARC
  5
2B23
330
2455
100
AcDbEntity
  8
1
 62
     7
100
AcDbCircle
 10
534.1172920086925
 20
501.2238372092658
 30
0.0
 40
5.953124999999982
100
AcDbArc
 50
92.40465244767342
 51
219.9457391832167
  0
ARC
  5
2B24
330
2455
100
AcDbEntity
  8
1
 62
     7
100
AcDbCircle
 10
547.9921162687746
 20
497.3362937671372
 30
0.0
 40
5.953125000000007
100
AcDbArc
 50
108.0568263607192
 51
235.5979130962594
  0
ARC
  5
2B25
330
2455
100
AcDbEntity
  8
1
 62
     7
100
AcDbCircle
 10
562.4012710761396
 20
497.3362937671372
 30
0.0
 40
5.953124999999982
100
AcDbArc
 50
123.7090002737617
 51
251.2500870093032
  0
ARC
  5
2B26
330
2455
100
AcDbEntity
  8
1
 62
     7
100
AcDbCircle
 10
576.2760953362215
 20
501.2238372092659
 30
0.0
 40
5.95312499999999
100
AcDbArc
 50
139.3611741868063
 51
266.9022609223455
  0
ARC
  5
2B27
330
2455
100
AcDbEntity
  8
1
 62
     7
100
AcDbCircle
 10
502.4100390945857
 20
546.1427810807945
 30
0.0
 40
5.953124999999937
100
AcDbArc
 50
210.4890434254782
 51
338.0301301610212
  0
ARC
  5
2B28
330
2455
100
AcDbEntity
  8
1
 62
     7
100
AcDbCircle
 10
505.3416682831501
 20
532.0350068919525
 30
0.0
 40
5.953124999999968
100
AcDbArc
 50
226.1412173385221
 51
353.6823040740645
  0
ARC
  5
2B29
330
2455
100
AcDbEntity
  8
1
 62
     7
100
AcDbCircle
 10
511.9708166332744
 20
519.2413313288217
 30
0.0
 40
5.953125000000023
100
AcDbArc
 50
241.7933912515673
 51
9.334477987104801
  0
ARC
  5
2B2A
330
2455
100
AcDbEntity
  8
1
 62
     7
100
AcDbCircle
 10
521.8058305381657
 20
508.7106027807483
 30
0.0
 40
5.953125000000016
100
AcDbArc
 50
257.4455651646079
 51
24.98665190015371
  0
ARC
  5
2B2B
330
2455
100
AcDbEntity
  8
1
 62
     7
100
AcDbCircle
 10
534.1172920086925
 20
501.2238372092658
 30
0.0
 40
5.953124999999894
100
AcDbArc
 50
273.0977390776544
 51
40.63882581319721
  0
ARC
  5
2B2C
330
2455
100
AcDbEntity
  8
1
 62
     7
100
AcDbCircle
 10
547.9921162687746
 20
497.3362937671372
 30
0.0
 40
5.953124999999872
100
AcDbArc
 50
288.7499129906952
 51
56.29099972623961
  0
ARC
  5
2B2D
330
2455
100
AcDbEntity
  8
1
 62
     7
100
AcDbCircle
 10
562.4012710761396
 20
497.3362937671372
 30
0.0
 40
5.953124999999825
100
AcDbArc
 50
304.4020869037392
 51
71.94317363928073
  0
ARC
  5
2B2E
330
2455
100
AcDbEntity
  8
1
 62
     7
100
AcDbCircle
 10
576.2760953362215
 20
501.2238372092659
 30
0.0
 40
5.953124999999857
100
AcDbArc
 50
320.0542608167832
 51
87.59534755232493
  0
ARC
  5
2B2F
330
2455
100
AcDbEntity
  8
1
 62
     7
100
AcDbCircle
 10
502.4100390945857
 20
546.1427810807945
 30
0.0
 40
5.953124999999976
100
AcDbArc
 50
29.79595679550363
 51
157.3370435310413
  0
ARC
  5
2B30
330
2455
100
AcDbEntity
  8
1
 62
     7
100
AcDbCircle
 10
505.3416682831501
 20
532.0350068919525
 30
0.0
 40
5.953125000000013
100
AcDbArc
 50
45.44813070854435
 51
172.9892174440854
  0
ARC
  5
2B31
330
2455
100
AcDbEntity
  8
1
 62
     7
100
AcDbCircle
 10
511.9708166332744
 20
519.2413313288217
 30
0.0
 40
5.953124999999913
100
AcDbArc
 50
61.10030462158857
 51
188.6413913571299
  0
ARC
  5
2B32
330
2455
100
AcDbEntity
  8
1
 62
     7
100
AcDbCircle
 10
521.8058305381657
 20
508.7106027807483
 30
0.0
 40
5.953125000000007
100
AcDbArc
 50
76.75247853463431
 51
204.2935652701692
  0
ARC
  5
2B33
330
2455
100
AcDbEntity
  8
1
 62
     7
100
AcDbCircle
 10
534.1172920086925
 20
501.2238372092658
 30
0.0
 40
5.953124999999982
100
AcDbArc
 50
92.40465244767342
 51
219.9457391832167
  0
ARC
  5
2B34
330
2455
100
AcDbEntity
  8
1
 62
     7
100
AcDbCircle
 10
547.9921162687746
 20
497.3362937671372
 30
0.0
 40
5.953125000000007
100
AcDbArc
 50
108.0568263607192
 51
235.5979130962594
  0
ARC
  5
2B35
330
2455
100
AcDbEntity
  8
1
 62
     7
100
AcDbCircle
 10
562.4012710761396
 20
497.3362937671372
 30
0.0
 40
5.953124999999982
100
AcDbArc
 50
123.7090002737617
 51
251.2500870093032
  0
ARC
  5
2B36
330
2455
100
AcDbEntity
  8
1
 62
     7
100
AcDbCircle
 10
576.2760953362215
 20
501.2238372092659
 30
0.0
 40
5.95312499999999
100
AcDbArc
 50
139.3611741868063
 51
266.9022609223455
  0
ARC
  5
2B37
330
2455
100
AcDbEntity
  8
1
 62
     7
100
AcDbCircle
 10
588.5875568067485
 20
508.7106027807483
 30
0.0
 40
5.953125000000007
100
AcDbArc
 50
155.0133480998463
 51
235.313240022661
  0
ARC
  5
2B38
330
2455
100
AcDbEntity
  8
1
 62
     7
100
AcDbCircle
 10
555.1966936724572
 20
549.7534871719194
 30
0.0
 40
61.3535000000003
100
AcDbArc
 50
180.0
 51
299.2760967251522
  0
ARC
  5
2B39
330
2455
100
AcDbEntity
  8
1
 62
     7
100
AcDbCircle
 10
555.1966936724572
 20
549.7534871719194
 30
0.0
 40
58.29500000000019
100
AcDbArc
 50
180.0
 51
300.9757602917531
  0
ARC
  5
2B3A
330
2455
100
AcDbEntity
  8
1
 62
     7
100
AcDbCircle
 10
555.1966936724572
 20
549.7534871719194
 30
0.0
 40
47.62500000000027
100
AcDbArc
 50
180.0
 51
309.0489638640718
  0
ARC
  5
2B3B
330
2455
100
AcDbEntity
  8
1
 62
     7
100
AcDbCircle
 10
555.1966936724572
 20
549.7534871719194
 30
0.0
 40
44.45000000000027
100
AcDbArc
 50
180.0
 51
312.4528435270139
  0
ARC
  5
2B3C
330
2455
100
AcDbEntity
  8
1
 62
     7
100
AcDbCircle
 10
555.1966936724572
 20
549.7534871719194
 30
0.0
 40
62.85299999999336
100
AcDbArc
 50
241.4874040208479
 51
243.8513298362447
  0
ARC
  5
2B3D
330
2455
100
AcDbEntity
  8
0
 62
     7
100
AcDbCircle
 10
559.2500269449126
 20
530.8201541230292
 30
0.0
 40
1.066666650667289
100
AcDbArc
 50
270.0000000007946
 51
0.0000000000781653
  0
ARC
  5
2B3E
330
2455
100
AcDbEntity
  8
0
 62
     7
100
AcDbCircle
 10
561.3833602462055
 20
532.9904181094135
 30
0.0
 40
1.066666650650704
100
AcDbArc
 50
109.2696388775079
 51
180.0
  0
ARC
  5
2B3F
330
2455
100
AcDbEntity
  8
0
 62
     7
100
AcDbCircle
 10
551.1433604000192
 20
530.8201541230309
 30
0.0
 40
1.066666650668707
100
AcDbArc
 50
180.0
 51
269.9999999985393
  0
ARC
  5
2B40
330
2455
100
AcDbEntity
  8
0
 62
     7
100
AcDbCircle
 10
549.0100270987158
 20
532.9904181094034
 30
0.0
 40
1.066666650661374
100
AcDbArc
 50
0.0000000005471572
 51
70.73036112249515
  0
LINE
  5
2B41
330
2455
100
AcDbEntity
  8
1
  6
CENTER
 62
     3
100
AcDbLine
 10
521.0716936724552
 20
490.6472533636314
 30
0.0
 11
514.3216936724552
 21
478.9559104125416
 31
0.0
  0
LINE
  5
2B42
330
2455
100
AcDbEntity
  8
1
  6
CENTER
 62
     3
100
AcDbLine
 10
496.0904598641672
 20
515.6284871719194
 30
0.0
 11
484.3991169130773
 21
508.8784871719193
 31
0.0
  0
LINE
  5
2B43
330
2455
100
AcDbEntity
  8
0
 62
     7
100
AcDbLine
 10
555.7300269977798
 20
533.8163817613688
 30
0.0
 11
555.7300269977798
 21
529.753487472362
 31
0.0
  0
LINE
  5
2B44
330
2455
100
AcDbEntity
  8
0
 62
     7
100
AcDbLine
 10
555.7300269977798
 20
529.753487472362
 30
0.0
 11
559.2500269449277
 21
529.753487472362
 31
0.0
  0
LINE
  5
2B45
330
2455
100
AcDbEntity
  8
0
 62
     7
100
AcDbLine
 10
560.3166935955557
 20
530.8201541230309
 30
0.0
 11
560.3166935955557
 21
532.9904181094135
 31
0.0
  0
LINE
  5
2B46
330
2455
100
AcDbEntity
  8
0
 62
     7
100
AcDbLine
 10
554.6633603471364
 20
533.8163817613688
 30
0.0
 11
554.6633603471364
 21
529.753487472362
 31
0.0
  0
LINE
  5
2B47
330
2455
100
AcDbEntity
  8
0
 62
     7
100
AcDbLine
 10
554.6633603471364
 20
529.753487472362
 30
0.0
 11
551.1433603999916
 21
529.753487472362
 31
0.0
  0
LINE
  5
2B48
330
2455
100
AcDbEntity
  8
0
 62
     7
100
AcDbLine
 10
550.0766937493771
 20
530.8201541230309
 30
0.0
 11
550.0766937493771
 21
532.9904181094135
 31
0.0
  0
LINE
  5
2B49
330
2455
100
AcDbEntity
  8
1
  6
CENTER
 62
     3
100
AcDbLine
 10
576.1610363245053
 20
471.5134952418725
 30
0.0
 11
573.0552077832753
 21
483.1046051573413
 31
0.0
  0
ARC
  5
2B4A
330
2455
100
AcDbEntity
  8
1
 62
     7
100
AcDbCircle
 10
375.7910686744301
 20
606.2559871719193
 30
0.0
 40
0.5
100
AcDbArc
 50
90.0
 51
180.0
  0
ARC
  5
2B4B
330
2455
100
AcDbEntity
  8
1
 62
     7
100
AcDbCircle
 10
375.286215867611
 20
598.9009871719194
 30
0.0
 40
0.5000000000000201
100
AcDbArc
 50
173.0000000000005
 51
270.0
  0
ARC
  5
2B4C
330
2455
100
AcDbEntity
  8
1
 62
     7
100
AcDbCircle
 10
393.8966936744301
 20
611.4470658770735
 30
0.0
 40
0.3000000000000402
100
AcDbArc
 50
273.0000000000056
 51
0.0
  0
ARC
  5
2B4D
330
2455
100
AcDbEntity
  8
1
 62
     7
100
AcDbCircle
 10
393.8966936744301
 20
611.8792231032074
 30
0.0
 40
0.299999999999951
100
AcDbArc
 50
0.0
 51
45.0
  0
ARC
  5
2B4E
330
2455
100
AcDbEntity
  8
1
 62
     7
100
AcDbCircle
 10
339.22169367443
 20
608.0744871719192
 30
0.0
 40
3.026652441229403
100
AcDbArc
 50
91.89338584574729
 51
181.8933858457456
  0
ARC
  5
2B4F
330
2455
100
AcDbEntity
  8
1
 62
     7
100
AcDbCircle
 10
334.5436936744302
 20
590.2534871719192
 30
0.0
 40
0.5
100
AcDbArc
 50
270.0
 51
0.0
  0
ARC
  5
2B50
330
2455
100
AcDbEntity
  8
1
 62
     7
100
AcDbCircle
 10
338.8686936744301
 20
608.2274871719193
 30
0.0
 40
3.824999999999988
100
AcDbArc
 50
90.0
 51
180.0
  0
ARC
  5
2B51
330
2455
100
AcDbEntity
  8
1
 62
     7
100
AcDbCircle
 10
383.6941936744302
 20
602.6559871719193
 30
0.0
 40
5.953125
100
AcDbArc
 50
90.0
 51
115.2349812870596
  0
ARC
  5
2B52
330
2455
100
AcDbEntity
  8
1
 62
     7
100
AcDbCircle
 10
383.6941936744302
 20
602.6559871719193
 30
0.0
 40
5.953125000000016
100
AcDbArc
 50
115.2349812870596
 51
270.0
  0
ARC
  5
2B53
330
2455
100
AcDbEntity
  8
1
 62
     7
100
AcDbCircle
 10
383.6941936744302
 20
602.6559871719193
 30
0.0
 40
5.953125
100
AcDbArc
 50
270.0
 51
297.4057708856248
  0
ARC
  5
2B54
330
2455
100
AcDbEntity
  8
1
 62
     7
100
AcDbCircle
 10
383.6941936744302
 20
602.6559871719193
 30
0.0
 40
5.953125000000013
100
AcDbArc
 50
297.4057708856248
 51
64.76501871294033
  0
ARC
  5
2B55
330
2455
100
AcDbEntity
  8
1
 62
     7
100
AcDbCircle
 10
383.6941936744302
 20
602.6559871719193
 30
0.0
 40
5.953124999999968
100
AcDbArc
 50
64.76501871294033
 51
90.0
  0
ARC
  5
2B56
330
2455
100
AcDbEntity
  8
1
 62
     7
100
AcDbCircle
 10
359.1553174492399
 20
661.9524871719193
 30
0.0
 40
49.90546628457356
100
AcDbArc
 50
269.1519652393518
 51
284.5724030352133
  0
ARC
  5
2B57
330
2455
100
AcDbEntity
  8
0
 62
     7
100
AcDbCircle
 10
370.796693666705
 20
566.1534869255276
 30
0.0
 40
0.3999999939098871
100
AcDbArc
 50
179.9999999897961
 51
270.0000000261853
  0
ARC
  5
2B58
330
2455
100
AcDbEntity
  8
0
 62
     7
100
AcDbCircle
 10
371.8966936189191
 20
617.5534861536991
 30
0.0
 40
0.2999999954679424
100
AcDbArc
 50
270.0000000048528
 51
0.0000000048397356
  0
LINE
  5
2B59
330
2455
100
AcDbEntity
  8
1
 62
     7
100
AcDbLine
 10
377.5410686744301
 20
606.7559871719192
 30
0.0
 11
379.3338667257555
 21
606.7090411027578
 31
0.0
  0
LINE
  5
2B5A
330
2455
100
AcDbEntity
  8
1
 62
     7
100
AcDbLine
 10
375.7910686744301
 20
606.7559871719192
 30
0.0
 11
377.5410686744301
 21
606.7559871719192
 31
0.0
  0
LINE
  5
2B5B
330
2455
100
AcDbEntity
  8
1
 62
     7
100
AcDbLine
 10
375.29106867443
 20
606.2559871719193
 30
0.0
 11
375.29106867443
 21
603.0432646358648
 31
0.0
  0
LINE
  5
2B5C
330
2455
100
AcDbEntity
  8
1
 62
     7
100
AcDbLine
 10
374.7899427917904
 20
598.9619218436218
 30
0.0
 11
375.29106867443
 21
603.0432646358648
 31
0.0
  0
LINE
  5
2B5D
330
2455
100
AcDbEntity
  8
1
 62
     7
100
AcDbLine
 10
375.286215867611
 20
598.400987171919
 30
0.0
 11
377.5410686744301
 21
598.400987171919
 31
0.0
  0
LINE
  5
2B5E
330
2455
100
AcDbEntity
  8
1
 62
     7
100
AcDbLine
 10
377.5410686744301
 20
606.7559871719192
 30
0.0
 11
377.5410686744301
 21
598.400987171919
 31
0.0
  0
LINE
  5
2B5F
330
2455
100
AcDbEntity
  8
1
 62
     7
100
AcDbLine
 10
379.5307008780361
 20
598.400987171919
 30
0.0
 11
377.5410686744301
 21
598.400987171919
 31
0.0
  0
LINE
  5
2B60
330
2455
100
AcDbEntity
  8
1
 62
     7
100
AcDbLine
 10
375.35169367443
 20
611.0994871719194
 30
0.0
 11
383.6941936744302
 21
611.0994871719194
 31
0.0
  0
LINE
  5
2B61
330
2455
100
AcDbEntity
  8
1
 62
     7
100
AcDbLine
 10
374.65169367443
 20
610.6953419834865
 30
0.0
 11
374.65169367443
 21
608.3409871719193
 31
0.0
  0
LINE
  5
2B62
330
2455
100
AcDbEntity
  8
1
 62
     7
100
AcDbLine
 10
374.9516936744301
 20
608.0409871719195
 30
0.0
 11
381.156188105952
 21
608.0409871719195
 31
0.0
  0
LINE
  5
2B63
330
2455
100
AcDbEntity
  8
1
 62
     7
100
AcDbLine
 10
374.65169367443
 20
608.3409871719193
 30
0.0
 11
374.9516936744301
 21
608.0409871719195
 31
0.0
  0
LINE
  5
2B64
330
2455
100
AcDbEntity
  8
1
 62
     7
100
AcDbLine
 10
374.65169367443
 20
610.6953419834865
 30
0.0
 11
375.35169367443
 21
611.0994871719194
 31
0.0
  0
LINE
  5
2B65
330
2455
100
AcDbEntity
  8
1
 62
     7
100
AcDbLine
 10
392.03669367443
 20
611.0994871719194
 30
0.0
 11
392.7366936744297
 21
610.6953419834865
 31
0.0
  0
LINE
  5
2B66
330
2455
100
AcDbEntity
  8
1
 62
     7
100
AcDbLine
 10
392.4366936744299
 20
608.0409871719195
 30
0.0
 11
392.7366936744297
 21
608.3409871719193
 31
0.0
  0
LINE
  5
2B67
330
2455
100
AcDbEntity
  8
1
 62
     7
100
AcDbLine
 10
389.2441936744301
 20
594.1959871719193
 30
0.0
 11
390.04419367443
 21
594.9959871719194
 31
0.0
  0
LINE
  5
2B68
330
2455
100
AcDbEntity
  8
1
 62
     7
100
AcDbLine
 10
390.04419367443
 20
596.5709871719191
 30
0.0
 11
389.2441936744301
 21
597.3709871719194
 31
0.0
  0
LINE
  5
2B69
330
2455
100
AcDbEntity
  8
1
 62
     7
100
AcDbLine
 10
383.6941936744302
 20
594.1959871719193
 30
0.0
 11
389.2441936744301
 21
594.1959871719193
 31
0.0
  0
LINE
  5
2B6A
330
2455
100
AcDbEntity
  8
1
 62
     7
100
AcDbLine
 10
390.04419367443
 20
596.5709871719191
 30
0.0
 11
390.04419367443
 21
594.9959871719194
 31
0.0
  0
LINE
  5
2B6B
330
2455
100
AcDbEntity
  8
1
 62
     7
100
AcDbLine
 10
386.4343528423662
 20
597.3709871719194
 30
0.0
 11
389.2441936744301
 21
597.3709871719194
 31
0.0
  0
LINE
  5
2B6C
330
2455
100
AcDbEntity
  8
1
 62
     7
100
AcDbLine
 10
386.2321992429079
 20
608.0409871719195
 30
0.0
 11
392.4366936744299
 21
608.0409871719195
 31
0.0
  0
LINE
  5
2B6D
330
2455
100
AcDbEntity
  8
1
 62
     7
100
AcDbLine
 10
392.7366936744297
 20
608.3409871719193
 30
0.0
 11
392.7366936744297
 21
610.6953419834865
 31
0.0
  0
LINE
  5
2B6E
330
2455
100
AcDbEntity
  8
1
 62
     7
100
AcDbLine
 10
383.6941936744302
 20
611.0994871719194
 30
0.0
 11
392.03669367443
 21
611.0994871719194
 31
0.0
  0
LINE
  5
2B6F
330
2455
100
AcDbEntity
  8
1
 62
     7
100
AcDbLine
 10
392.7366936744297
 20
608.3409871719193
 30
0.0
 11
392.7366936744297
 21
598.1383454773976
 31
0.0
  0
LINE
  5
2B70
330
2455
100
AcDbEntity
  8
1
 62
     7
100
AcDbLine
 10
374.65169367443
 20
598.1383454773976
 30
0.0
 11
374.65169367443
 21
608.3409871719193
 31
0.0
  0
LINE
  5
2B71
330
2455
100
AcDbEntity
  8
1
 62
     7
100
AcDbLine
 10
377.34419367443
 20
594.9959871719194
 30
0.0
 11
377.34419367443
 21
596.5709871719191
 31
0.0
  0
LINE
  5
2B72
330
2455
100
AcDbEntity
  8
1
 62
     7
100
AcDbLine
 10
378.1441936744302
 20
597.3709871719194
 30
0.0
 11
377.34419367443
 21
596.5709871719191
 31
0.0
  0
LINE
  5
2B73
330
2455
100
AcDbEntity
  8
1
 62
     7
100
AcDbLine
 10
377.34419367443
 20
594.9959871719194
 30
0.0
 11
378.1441936744302
 21
594.1959871719193
 31
0.0
  0
LINE
  5
2B74
330
2455
100
AcDbEntity
  8
1
 62
     7
100
AcDbLine
 10
378.1441936744302
 20
597.3709871719194
 30
0.0
 11
380.9540345064938
 21
597.3709871719194
 31
0.0
  0
LINE
  5
2B75
330
2455
100
AcDbEntity
  8
1
 62
     7
100
AcDbLine
 10
378.1441936744302
 20
594.1959871719193
 30
0.0
 11
383.6941936744302
 21
594.1959871719193
 31
0.0
  0
LINE
  5
2B76
330
2455
100
AcDbEntity
  8
1
  6
DIVIDE
 62
     7
100
AcDbLine
 10
396.1966936739894
 20
600.2778492933288
 30
0.0
 11
396.1966936739894
 21
616.2534871719195
 31
0.0
  0
LINE
  5
2B77
330
2455
100
AcDbEntity
  8
1
  6
DIVIDE
 62
     7
100
AcDbLine
 10
396.1966936739894
 20
616.2534871719195
 30
0.0
 11
394.1966936739894
 21
616.2534871719195
 31
0.0
  0
LINE
  5
2B78
330
2455
100
AcDbEntity
  8
1
  6
DIVIDE
 62
     7
100
AcDbLine
 10
396.1966936739894
 20
600.2778492933288
 30
0.0
 11
396.1966936739894
 21
616.2534871719195
 31
0.0
  0
LINE
  5
2B79
330
2455
100
AcDbEntity
  8
1
  6
DIVIDE
 62
     7
100
AcDbLine
 10
333.1966936136253
 20
616.2534871719195
 30
0.0
 11
344.9908830587746
 21
616.2534871719195
 31
0.0
  0
LINE
  5
2B7A
330
2455
100
AcDbEntity
  8
1
  6
DIVIDE
 62
     7
100
AcDbLine
 10
333.1966936136253
 20
600.2778492933288
 30
0.0
 11
333.1966936136253
 21
616.2534871719195
 31
0.0
  0
LINE
  5
2B7B
330
2455
100
AcDbEntity
  8
1
  6
CENTER
 62
     3
100
AcDbLine
 10
328.6261776792668
 20
579.7534871719192
 30
0.0
 11
338.2711971234638
 21
579.7534871719192
 31
0.0
  0
LINE
  5
2B7C
330
2455
100
AcDbEntity
  8
1
 62
     7
100
AcDbLine
 10
331.1966936744301
 20
572.003487171919
 30
0.0
 11
336.1966936744301
 21
572.003487171919
 31
0.0
  0
LINE
  5
2B7D
330
2455
100
AcDbEntity
  8
1
 62
     7
100
AcDbLine
 10
336.1966936744301
 20
587.5034871719192
 30
0.0
 11
336.1966936744301
 21
572.003487171919
 31
0.0
  0
LINE
  5
2B7E
330
2455
100
AcDbEntity
  8
1
 62
     7
100
AcDbLine
 10
331.1966936744301
 20
587.5034871719192
 30
0.0
 11
331.1966936744301
 21
572.003487171919
 31
0.0
  0
LINE
  5
2B7F
330
2455
100
AcDbEntity
  8
1
 62
     7
100
AcDbLine
 10
331.1966936744301
 20
587.5034871719192
 30
0.0
 11
336.1966936744301
 21
587.5034871719192
 31
0.0
  0
LINE
  5
2B80
330
2455
100
AcDbEntity
  8
1
 62
     7
100
AcDbLine
 10
394.1966936744302
 20
611.4470658770735
 30
0.0
 11
394.1966936744302
 21
595.3634692994438
 31
0.0
  0
LINE
  5
2B81
330
2455
100
AcDbEntity
  8
1
 62
     7
100
AcDbLine
 10
392.99669367443
 20
611.0994871719194
 30
0.0
 11
339.1216936744301
 21
611.0994871719194
 31
0.0
  0
LINE
  5
2B82
330
2455
100
AcDbEntity
  8
1
 62
     7
100
AcDbLine
 10
392.99669367443
 20
611.0994871719194
 30
0.0
 11
393.9123944613031
 21
611.1474770166467
 31
0.0
  0
LINE
  5
2B83
330
2455
100
AcDbEntity
  8
1
 62
     7
100
AcDbLine
 10
394.1966936744302
 20
611.8792231032074
 30
0.0
 11
394.1966936744302
 21
611.4470658770735
 31
0.0
  0
LINE
  5
2B84
330
2455
100
AcDbEntity
  8
1
 62
     7
100
AcDbLine
 10
392.4799604426794
 20
613.7202204036698
 30
0.0
 11
394.108825708786
 21
612.0913551375633
 31
0.0
  0
LINE
  5
2B85
330
2455
100
AcDbEntity
  8
1
 62
     7
100
AcDbLine
 10
331.1966936744302
 20
589.2534871719191
 30
0.0
 11
331.6966936744301
 21
589.7534871719192
 31
0.0
  0
LINE
  5
2B86
330
2455
100
AcDbEntity
  8
1
 62
     7
100
AcDbLine
 10
331.1966936744302
 20
589.2534871719191
 30
0.0
 11
331.1966936744301
 21
587.5034871719192
 31
0.0
  0
LINE
  5
2B87
330
2455
100
AcDbEntity
  8
1
 62
     7
100
AcDbLine
 10
336.1966936744302
 20
607.9744871719194
 30
0.0
 11
336.1966936744301
 21
587.5034871719192
 31
0.0
  0
LINE
  5
2B88
330
2455
100
AcDbEntity
  8
1
 62
     7
100
AcDbLine
 10
336.1966936744302
 20
569.7534871719192
 30
0.0
 11
331.1966936744302
 21
569.7534871719192
 31
0.0
  0
LINE
  5
2B89
330
2455
100
AcDbEntity
  8
1
 62
     7
100
AcDbLine
 10
334.5436936744302
 20
589.7534871719192
 30
0.0
 11
331.6966936744301
 21
589.7534871719192
 31
0.0
  0
LINE
  5
2B8A
330
2455
100
AcDbEntity
  8
1
 62
     7
100
AcDbLine
 10
338.8686936744301
 20
612.0524871719194
 30
0.0
 11
358.4166936744301
 21
612.0524871719194
 31
0.0
  0
LINE
  5
2B8B
330
2455
100
AcDbEntity
  8
1
 62
     7
100
AcDbLine
 10
381.6966936744302
 20
613.7744871719189
 30
0.0
 11
371.71169367443
 21
613.6524563109332
 31
0.0
  0
LINE
  5
2B8C
330
2455
100
AcDbEntity
  8
1
 62
     7
100
AcDbLine
 10
387.6966936744302
 20
613.7744871719189
 30
0.0
 11
392.4799604426794
 21
613.7202204036698
 31
0.0
  0
LINE
  5
2B8D
330
2455
100
AcDbEntity
  8
1
 62
     7
100
AcDbLine
 10
381.6966936744302
 20
613.7744871719189
 30
0.0
 11
387.6966936744302
 21
613.7744871719189
 31
0.0
  0
LINE
  5
2B8E
330
2455
100
AcDbEntity
  8
0
 62
     7
100
AcDbLine
 10
370.3966936727953
 20
588.2534865936804
 30
0.0
 11
371.9441938540815
 21
588.2534865936804
 31
0.0
  0
LINE
  5
2B8F
330
2455
100
AcDbEntity
  8
0
 62
     7
100
AcDbLine
 10
371.9441938540815
 20
588.2534865936804
 30
0.0
 11
371.9441938540815
 21
602.2534863835688
 31
0.0
  0
LINE
  5
2B90
330
2455
100
AcDbEntity
  8
0
 62
     7
100
AcDbLine
 10
371.9441938540815
 20
602.2534863835688
 30
0.0
 11
373.7441938240459
 21
602.2534863835688
 31
0.0
  0
LINE
  5
2B91
330
2455
100
AcDbEntity
  8
0
 62
     7
100
AcDbLine
 10
373.7441938240459
 20
602.2534863835688
 30
0.0
 11
373.7441938240459
 21
588.2534865936804
 31
0.0
  0
LINE
  5
2B92
330
2455
100
AcDbEntity
  8
0
 62
     7
100
AcDbLine
 10
373.7441938240459
 20
588.2534865936804
 30
0.0
 11
381.7441937039065
 21
588.2534865936804
 31
0.0
  0
LINE
  5
2B93
330
2455
100
AcDbEntity
  8
0
 62
     7
100
AcDbLine
 10
381.7441937039065
 20
588.2534865936804
 30
0.0
 11
381.7441937039065
 21
572.2534868339945
 31
0.0
  0
LINE
  5
2B94
330
2455
100
AcDbEntity
  8
0
 62
     7
100
AcDbLine
 10
381.7441937039065
 20
572.2534868339945
 30
0.0
 11
375.2441938015201
 21
572.2534868339945
 31
0.0
  0
LINE
  5
2B95
330
2455
100
AcDbEntity
  8
0
 62
     7
100
AcDbLine
 10
375.2441938015201
 20
567.503486905331
 30
0.0
 11
370.8966936652858
 21
567.503486905331
 31
0.0
  0
LINE
  5
2B96
330
2455
100
AcDbEntity
  8
0
 62
     7
100
AcDbLine
 10
370.8966936652858
 20
567.503486905331
 30
0.0
 11
370.8966936652858
 21
568.7534868865683
 31
0.0
  0
LINE
  5
2B97
330
2455
100
AcDbEntity
  8
0
 62
     7
100
AcDbLine
 10
370.8966936652858
 20
568.7534868865683
 30
0.0
 11
370.3966936727953
 21
568.7534868865683
 31
0.0
  0
LINE
  5
2B98
330
2455
100
AcDbEntity
  8
0
 62
     7
100
AcDbLine
 10
375.2441938015201
 20
567.503486905331
 30
0.0
 11
375.2441938015201
 21
572.2534868339945
 31
0.0
  0
LINE
  5
2B99
330
2455
100
AcDbEntity
  8
0
 62
     7
100
AcDbLine
 10
370.8966936652858
 20
567.503486905331
 30
0.0
 11
370.8966936652858
 21
565.7534869316179
 31
0.0
  0
LINE
  5
2B9A
330
2455
100
AcDbEntity
  8
0
 62
     7
100
AcDbLine
 10
375.2441938015201
 20
567.503486905331
 30
0.0
 11
375.2441938015201
 21
565.7534869316179
 31
0.0
  0
LINE
  5
2B9B
330
2455
100
AcDbEntity
  8
0
 62
     7
100
AcDbLine
 10
375.6966936727952
 20
566.003486927857
 30
0.0
 11
375.6966936727952
 21
594.2034865043474
 31
0.0
  0
LINE
  5
2B9C
330
2455
100
AcDbEntity
  8
0
 62
     7
100
AcDbLine
 10
375.6966936727952
 20
594.2034865043474
 30
0.0
 11
389.9966936727953
 21
594.2034865043474
 31
0.0
  0
LINE
  5
2B9D
330
2455
100
AcDbEntity
  8
0
 62
     7
100
AcDbLine
 10
389.9966936727953
 20
594.2034865043474
 30
0.0
 11
389.9966936727953
 21
566.003486927857
 31
0.0
  0
LINE
  5
2B9E
330
2455
100
AcDbEntity
  8
0
 62
     7
100
AcDbLine
 10
389.9966936727953
 20
566.003486927857
 30
0.0
 11
375.6966936727952
 21
566.003486927857
 31
0.0
  0
LINE
  5
2B9F
330
2455
100
AcDbEntity
  8
0
 62
     7
100
AcDbLine
 10
381.9441937008615
 20
566.003486927857
 30
0.0
 11
381.9441937008615
 21
594.2034865043474
 31
0.0
  0
LINE
  5
2BA0
330
2455
100
AcDbEntity
  8
0
 62
     7
100
AcDbLine
 10
381.8441937008616
 20
572.0034868377551
 30
0.0
 11
375.6966936727952
 21
572.0034868377551
 31
0.0
  0
LINE
  5
2BA1
330
2455
100
AcDbEntity
  8
0
 62
     7
100
AcDbLine
 10
363.9966936784642
 20
588.5034871719192
 30
0.0
 11
370.3966936727953
 21
588.5034871719192
 31
0.0
  0
LINE
  5
2BA2
330
2455
100
AcDbEntity
  8
0
 62
     7
100
AcDbLine
 10
370.3966936727953
 20
588.5034871719192
 30
0.0
 11
370.3966936727953
 21
566.1534869255988
 31
0.0
  0
LINE
  5
2BA3
330
2455
100
AcDbEntity
  8
0
 62
     7
100
AcDbLine
 10
370.796693666888
 20
565.7534869316179
 30
0.0
 11
391.1941935617866
 21
565.7534869316179
 31
0.0
  0
LINE
  5
2BA4
330
2455
100
AcDbEntity
  8
0
 62
     7
100
AcDbLine
 10
391.1941935617866
 20
565.7534869316179
 30
0.0
 11
391.1941935617866
 21
564.9034869444099
 31
0.0
  0
LINE
  5
2BA5
330
2455
100
AcDbEntity
  8
0
 62
     7
100
AcDbLine
 10
391.1941935617866
 20
564.9034869444099
 30
0.0
 11
392.796693672457
 21
564.9034869444099
 31
0.0
  0
LINE
  5
2BA6
330
2455
100
AcDbEntity
  8
0
 62
     7
100
AcDbLine
 10
392.796693672457
 20
564.9034869444099
 30
0.0
 11
392.796693672457
 21
565.7534869316179
 31
0.0
  0
LINE
  5
2BA7
330
2455
100
AcDbEntity
  8
0
 62
     7
100
AcDbLine
 10
392.796693672457
 20
565.7534869316179
 30
0.0
 11
394.6966936799684
 21
565.7534869316179
 31
0.0
  0
LINE
  5
2BA8
330
2455
100
AcDbEntity
  8
0
 62
     7
100
AcDbLine
 10
394.6966936799684
 20
565.7534869316179
 30
0.0
 11
395.196693672457
 21
565.2534869391417
 31
0.0
  0
LINE
  5
2BA9
330
2455
100
AcDbEntity
  8
1
 62
     7
100
AcDbLine
 10
363.196693672795
 20
565.7534871719192
 30
0.0
 11
363.9966935853757
 21
565.7534871719192
 31
0.0
  0
LINE
  5
2BAA
330
2455
100
AcDbEntity
  8
1
 62
     7
100
AcDbLine
 10
363.9966935853757
 20
565.7534871719192
 30
0.0
 11
363.9966936784642
 21
588.5034871719192
 31
0.0
  0
LINE
  5
2BAB
330
2455
100
AcDbEntity
  8
0
 62
     7
100
AcDbLine
 10
373.5966935937875
 20
613.7744871723005
 30
0.0
 11
391.3910941586775
 21
613.7744871723005
 31
0.0
  0
LINE
  5
2BAC
330
2455
100
AcDbEntity
  8
0
 62
     7
100
AcDbLine
 10
371.0539511172679
 20
612.6064871718274
 30
0.0
 11
393.1910717095849
 21
612.6064871720051
 31
0.0
  0
LINE
  5
2BAD
330
2455
100
AcDbEntity
  8
0
 62
     7
100
AcDbLine
 10
363.196694273695
 20
559.2534870292434
 30
0.0
 11
395.196693672457
 21
559.2534870292434
 31
0.0
  0
LINE
  5
2BAE
330
2455
100
AcDbEntity
  8
0
 62
     7
100
AcDbLine
 10
363.196694273695
 20
562.0534869871782
 30
0.0
 11
395.196693672457
 21
562.0534869871782
 31
0.0
  0
LINE
  5
2BAF
330
2455
100
AcDbEntity
  8
0
 62
     7
100
AcDbLine
 10
390.0441935790879
 20
571.2534868490422
 30
0.0
 11
391.1941935617866
 21
571.2534868490422
 31
0.0
  0
LINE
  5
2BB0
330
2455
100
AcDbEntity
  8
0
 62
     7
100
AcDbLine
 10
391.1941935617866
 20
571.2534868490422
 30
0.0
 11
391.1941935617866
 21
565.7534869316179
 31
0.0
  0
LINE
  5
2BB1
330
2455
100
AcDbEntity
  8
0
 62
     7
100
AcDbLine
 10
391.1941935617866
 20
566.7534869165701
 30
0.0
 11
389.9966936728046
 21
566.7534869165701
 31
0.0
  0
LINE
  5
2BB2
330
2455
100
AcDbEntity
  8
0
 62
     7
100
AcDbLine
 10
391.1941935617866
 20
568.7534868865683
 30
0.0
 11
392.796693672457
 21
568.7534868865683
 31
0.0
  0
LINE
  5
2BB3
330
2455
100
AcDbEntity
  8
0
 62
     7
100
AcDbLine
 10
392.796693672457
 20
568.7534868865683
 30
0.0
 11
392.796693672457
 21
565.7534869316179
 31
0.0
  0
LINE
  5
2BB4
330
2455
100
AcDbEntity
  8
0
 62
     7
100
AcDbLine
 10
394.1966936745949
 20
613.4064871597841
 30
0.0
 11
393.3966936867965
 21
612.6064871718274
 31
0.0
  0
LINE
  5
2BB5
330
2455
100
AcDbEntity
  8
0
 62
     7
100
AcDbLine
 10
393.3966936867965
 20
612.6064871718274
 30
0.0
 11
368.9966936624082
 21
612.6064871720051
 31
0.0
  0
LINE
  5
2BB6
330
2455
100
AcDbEntity
  8
0
 62
     7
100
AcDbLine
 10
368.9966936624082
 20
612.6064871720051
 30
0.0
 11
368.1966936744771
 21
613.4064871597841
 31
0.0
  0
LINE
  5
2BB7
330
2455
100
AcDbEntity
  8
0
 62
     7
100
AcDbLine
 10
394.1966936746824
 20
634.3534859010929
 30
0.0
 11
393.7966936806935
 21
634.7534858952616
 31
0.0
  0
LINE
  5
2BB8
330
2455
100
AcDbEntity
  8
0
 62
     7
100
AcDbLine
 10
393.7966936806935
 20
634.7534858952616
 30
0.0
 11
372.596693608226
 21
634.7534858950838
 31
0.0
  0
LINE
  5
2BB9
330
2455
100
AcDbEntity
  8
0
 62
     7
100
AcDbLine
 10
372.596693608226
 20
634.7534858950838
 30
0.0
 11
372.1966936143873
 21
634.3534859010929
 31
0.0
  0
LINE
  5
2BBA
330
2455
100
AcDbEntity
  8
0
 62
     7
100
AcDbLine
 10
371.8966936189447
 20
617.2534861582313
 30
0.0
 11
368.9966936626622
 21
617.2534861584091
 31
0.0
  0
LINE
  5
2BBB
330
2455
100
AcDbEntity
  8
0
 62
     7
100
AcDbLine
 10
368.9966936626622
 20
617.2534861584091
 30
0.0
 11
368.1966936744771
 21
616.4534861704524
 31
0.0
  0
LINE
  5
2BBC
330
2455
100
AcDbEntity
  8
0
 62
     7
100
AcDbLine
 10
394.1966936746824
 20
634.3534859010929
 30
0.0
 11
394.1966936744908
 21
629.2534871719192
 31
0.0
  0
LINE
  5
2BBD
330
2455
100
AcDbEntity
  8
0
 62
     7
100
AcDbLine
 10
368.1966936744771
 20
616.4534861704524
 30
0.0
 11
368.196693674223
 21
613.4064871597841
 31
0.0
  0
LINE
  5
2BBE
330
2455
100
AcDbEntity
  8
0
 62
     7
100
AcDbLine
 10
368.1966936744771
 20
613.7744871719189
 30
0.0
 11
394.1966936744572
 21
613.7744871719189
 31
0.0
  0
LINE
  5
2BBF
330
2455
100
AcDbEntity
  8
0
 62
     7
100
AcDbLine
 10
394.1966936744908
 20
628.7534860453595
 30
0.0
 11
394.1966936744908
 21
627.9534860453595
 31
0.0
  0
LINE
  5
2BC0
330
2455
100
AcDbEntity
  8
1
 62
     7
100
AcDbLine
 10
394.1966936744908
 20
628.7534860453595
 30
0.0
 11
394.1966936744908
 21
627.9534860453595
 31
0.0
  0
LINE
  5
2BC1
330
2455
100
AcDbEntity
  8
0
 62
     7
100
AcDbLine
 10
394.1966936744908
 20
620.7534860453596
 30
0.0
 11
394.1966936744908
 21
620.2534871719192
 31
0.0
  0
LINE
  5
2BC2
330
2455
100
AcDbEntity
  8
0
 62
     7
100
AcDbLine
 10
394.1966936744908
 20
627.9534860453595
 30
0.0
 11
394.1966936744908
 21
621.5534860453594
 31
0.0
  0
LINE
  5
2BC3
330
2455
100
AcDbEntity
  8
1
 62
     7
100
AcDbLine
 10
394.1966936744908
 20
627.9534860453595
 30
0.0
 11
394.1966936744908
 21
621.5534860453594
 31
0.0
  0
LINE
  5
2BC4
330
2455
100
AcDbEntity
  8
0
 62
     7
100
AcDbLine
 10
394.1966936744908
 20
621.5534860453594
 30
0.0
 11
394.1966936744908
 21
620.7534860453596
 31
0.0
  0
LINE
  5
2BC5
330
2455
100
AcDbEntity
  8
1
 62
     7
100
AcDbLine
 10
394.1966936744908
 20
621.5534860453594
 30
0.0
 11
394.1966936744908
 21
620.7534860453596
 31
0.0
  0
LINE
  5
2BC6
330
2455
100
AcDbEntity
  8
1
 62
     3
100
AcDbLine
 10
372.1966936143873
 20
628.7534871719191
 30
0.0
 11
384.908018479792
 21
628.7534871719191
 31
0.0
  0
LINE
  5
2BC7
330
2455
100
AcDbEntity
  8
0
 62
     7
100
AcDbLine
 10
372.1966936143873
 20
620.753487171919
 30
0.0
 11
372.1966936143873
 21
621.5534871719195
 31
0.0
  0
LINE
  5
2BC8
330
2455
100
AcDbEntity
  8
1
 62
     7
100
AcDbLine
 10
372.1966936143873
 20
627.9534871719193
 30
0.0
 11
384.4461382644406
 21
627.9534871719193
 31
0.0
  0
LINE
  5
2BC9
330
2455
100
AcDbEntity
  8
0
 62
     7
100
AcDbLine
 10
372.1966936143873
 20
627.9534871719193
 30
0.0
 11
372.1966936143873
 21
628.7534871719191
 31
0.0
  0
LINE
  5
2BCA
330
2455
100
AcDbEntity
  8
0
 62
     7
100
AcDbLine
 10
372.1966936143873
 20
621.5534871719195
 30
0.0
 11
372.1966936143873
 21
627.9534871719193
 31
0.0
  0
LINE
  5
2BCB
330
2455
100
AcDbEntity
  8
1
  6
DASHDOT
 62
     3
100
AcDbLine
 10
366.1966937045384
 20
624.753487171919
 30
0.0
 11
401.1441934119096
 21
624.753487171919
 31
0.0
  0
LINE
  5
2BCC
330
2455
100
AcDbEntity
  8
0
 62
     7
100
AcDbLine
 10
372.1966936143873
 20
620.753487171919
 30
0.0
 11
372.1966936143873
 21
617.5534861537244
 31
0.0
  0
LINE
  5
2BCD
330
2455
100
AcDbEntity
  8
0
 62
     7
100
AcDbLine
 10
394.1966936744908
 20
620.2534871719192
 30
0.0
 11
394.196693674275
 21
613.4064871597841
 31
0.0
  0
LINE
  5
2BCE
330
2455
100
AcDbEntity
  8
0
 62
     7
100
AcDbLine
 10
372.1966936143873
 20
634.3534859010929
 30
0.0
 11
372.1966936143873
 21
628.7534871719191
 31
0.0
  0
LINE
  5
2BCF
330
2455
100
AcDbEntity
  8
0
 62
     7
100
AcDbLine
 10
394.1966936744908
 20
629.2534871719192
 30
0.0
 11
394.1966936744908
 21
628.7534860453595
 31
0.0
  0
LINE
  5
2BD0
330
2455
100
AcDbEntity
  8
1
 62
     7
100
AcDbLine
 10
385.196693614387
 20
629.2534871719192
 30
0.0
 11
384.4461382644406
 21
627.9534871719193
 31
0.0
  0
LINE
  5
2BD1
330
2455
100
AcDbEntity
  8
1
 62
     7
100
AcDbLine
 10
385.196693614387
 20
629.2534871719192
 30
0.0
 11
394.1966936744908
 21
629.2534871719192
 31
0.0
  0
LINE
  5
2BD2
330
2455
100
AcDbEntity
  8
1
 62
     7
100
AcDbLine
 10
384.4461382644406
 20
627.9534871719193
 30
0.0
 11
384.4461382644406
 21
621.5534871719195
 31
0.0
  0
LINE
  5
2BD3
330
2455
100
AcDbEntity
  8
1
 62
     7
100
AcDbLine
 10
384.4461382644406
 20
621.5534871719195
 30
0.0
 11
372.1966936143873
 21
621.5534871719195
 31
0.0
  0
LINE
  5
2BD4
330
2455
100
AcDbEntity
  8
1
 62
     7
100
AcDbLine
 10
384.4461382644406
 20
621.5534871719195
 30
0.0
 11
385.196693614387
 21
620.2534871719192
 31
0.0
  0
LINE
  5
2BD5
330
2455
100
AcDbEntity
  8
1
 62
     7
100
AcDbLine
 10
385.196693614387
 20
620.2534871719192
 30
0.0
 11
394.1966936744908
 21
620.2534871719192
 31
0.0
  0
LINE
  5
2BD6
330
2455
100
AcDbEntity
  8
1
 62
     7
100
AcDbLine
 10
385.196693614387
 20
620.2534871719192
 30
0.0
 11
385.196693614387
 21
629.2534871719192
 31
0.0
  0
LINE
  5
2BD7
330
2455
100
AcDbEntity
  8
1
 62
     3
100
AcDbLine
 10
384.908018479792
 20
620.753487171919
 30
0.0
 11
372.1966936143873
 21
620.753487171919
 31
0.0
  0
LINE
  5
2BD8
330
2455
100
AcDbEntity
  8
1
 62
     7
100
AcDbLine
 10
335.0436936744302
 20
608.2274871719193
 30
0.0
 11
335.0436936744302
 21
590.2534871719192
 31
0.0
  0
CIRCLE
  5
2BD9
330
2455
100
AcDbEntity
  8
1
 62
     7
100
AcDbCircle
 10
490.2447883886224
 20
587.2534871719192
 30
0.0
 40
4.500000000000031
  0
CIRCLE
  5
2BDA
330
2455
100
AcDbEntity
  8
1
 62
     7
100
AcDbCircle
 10
517.696693672455
 20
614.7053924557523
 30
0.0
 40
4.49999999999992
  0
CIRCLE
  5
2BDB
330
2455
100
AcDbEntity
  8
1
 62
     7
100
AcDbCircle
 10
535.7852652884387
 20
622.1979241432426
 30
0.0
 40
4.49999999999992
  0
CIRCLE
  5
2BDC
330
2455
100
AcDbEntity
  8
1
 62
     7
100
AcDbCircle
 10
555.1966936724591
 20
624.753487171919
 30
0.0
 40
4.5
  0
CIRCLE
  5
2BDD
330
2455
100
AcDbEntity
  8
1
 62
     3
100
AcDbCircle
 10
535.7852652885124
 20
622.1979241429669
 30
0.0
 40
4.000000000000031
  0
CIRCLE
  5
2BDE
330
2455
100
AcDbEntity
  8
1
 62
     7
100
AcDbCircle
 10
535.7852652885124
 20
622.1979241429669
 30
0.0
 40
3.200000000000152
  0
ARC
  5
2BDF
330
2455
100
AcDbEntity
  8
1
 62
     7
100
AcDbCircle
 10
555.1966936724572
 20
549.7534871719194
 30
0.0
 40
57.01000000000003
100
AcDbArc
 50
95.20297857581802
 51
100.4491953372258
  0
ARC
  5
2BE0
330
2455
100
AcDbEntity
  8
1
 62
     7
100
AcDbCircle
 10
555.1966936724572
 20
602.6634871719195
 30
0.0
 40
6.454999999999985
100
AcDbArc
 50
143.2176947563417
 51
223.9215900701327
  0
ARC
  5
2BE1
330
2455
100
AcDbEntity
  8
1
 62
     7
100
AcDbCircle
 10
555.1966936724572
 20
549.7534871719194
 30
0.0
 40
48.655
100
AcDbArc
 50
95.48355054423211
 51
100.168623368813
  0
ARC
  5
2BE2
330
2455
100
AcDbEntity
  8
1
 62
     7
100
AcDbCircle
 10
540.9217465105391
 20
600.7014408454909
 30
0.0
 40
6.455000000000016
100
AcDbArc
 50
331.730583842912
 51
52.43447915670091
  0
ARC
  5
2BE3
330
2455
100
AcDbEntity
  8
1
 62
     7
100
AcDbCircle
 10
555.1966936724572
 20
549.7534871719194
 30
0.0
 40
57.00999999999993
100
AcDbArc
 50
110.8551524888611
 51
116.1013692502691
  0
ARC
  5
2BE4
330
2455
100
AcDbEntity
  8
1
 62
     7
100
AcDbCircle
 10
540.9217465105391
 20
600.7014408454909
 30
0.0
 40
6.454999999999952
100
AcDbArc
 50
158.8698686693876
 51
239.5737639831752
  0
ARC
  5
2BE5
330
2455
100
AcDbEntity
  8
1
 62
     7
100
AcDbCircle
 10
555.1966936724572
 20
549.7534871719194
 30
0.0
 40
48.65500000000007
100
AcDbArc
 50
111.1357244572744
 51
115.8207972818566
  0
ARC
  5
2BE6
330
2455
100
AcDbEntity
  8
1
 62
     7
100
AcDbCircle
 10
527.7055068760825
 20
594.9608178664739
 30
0.0
 40
6.455000000000024
100
AcDbArc
 50
347.3827577559525
 51
68.08665306974493
  0
ARC
  5
2BE7
330
2455
100
AcDbEntity
  8
1
 62
     7
100
AcDbCircle
 10
555.1966936724572
 20
549.7534871719194
 30
0.0
 40
57.01000000000014
100
AcDbArc
 50
126.5073264019047
 51
131.7535431633137
  0
ARC
  5
2BE8
330
2455
100
AcDbEntity
  8
1
 62
     7
100
AcDbCircle
 10
527.7055068760825
 20
594.9608178664739
 30
0.0
 40
6.455000000000262
100
AcDbArc
 50
174.5220425824291
 51
255.2259378962173
  0
ARC
  5
2BE9
330
2455
100
AcDbEntity
  8
1
 62
     7
100
AcDbCircle
 10
555.1966936724572
 20
549.7534871719194
 30
0.0
 40
48.65500000000015
100
AcDbArc
 50
126.7878983703184
 51
131.4729711949001
  0
ARC
  5
2BEA
330
2455
100
AcDbEntity
  8
1
 62
     7
100
AcDbCircle
 10
516.5281628025016
 20
585.8673739796184
 30
0.0
 40
6.454999999999927
100
AcDbArc
 50
3.034931668998031
 51
83.73882698278791
  0
ARC
  5
2BEB
330
2455
100
AcDbEntity
  8
1
 62
     7
100
AcDbCircle
 10
555.1966936724572
 20
549.7534871719194
 30
0.0
 40
57.01000000000018
100
AcDbArc
 50
142.1595003149479
 51
147.4057170763573
  0
ARC
  5
2BEC
330
2455
100
AcDbEntity
  8
1
 62
     7
100
AcDbCircle
 10
516.5281628025016
 20
585.8673739796184
 30
0.0
 40
6.455000000000102
100
AcDbArc
 50
190.174216495473
 51
270.8781118092618
  0
ARC
  5
2BED
330
2455
100
AcDbEntity
  8
1
 62
     7
100
AcDbCircle
 10
555.1966936724572
 20
549.7534871719194
 30
0.0
 40
48.65500000000015
100
AcDbArc
 50
142.4400722833635
 51
147.1251451079437
  0
ARC
  5
2BEE
330
2455
100
AcDbEntity
  8
1
 62
     7
100
AcDbCircle
 10
508.2186867667874
 20
574.0955283182744
 30
0.0
 40
6.455000000000016
100
AcDbArc
 50
18.68710558204014
 51
99.39100089583142
  0
ARC
  5
2BEF
330
2455
100
AcDbEntity
  8
1
 62
     7
100
AcDbCircle
 10
555.1966936724572
 20
549.7534871719194
 30
0.0
 40
57.01000000000014
100
AcDbArc
 50
157.811674227993
 51
163.0578909894005
  0
ARC
  5
2BF0
330
2455
100
AcDbEntity
  8
1
 62
     7
100
AcDbCircle
 10
508.2186867667874
 20
574.0955283182744
 30
0.0
 40
6.454999999999992
100
AcDbArc
 50
205.8263904085161
 51
286.5302857223072
  0
ARC
  5
2BF1
330
2455
100
AcDbEntity
  8
1
 62
     7
100
AcDbCircle
 10
555.1966936724572
 20
549.7534871719194
 30
0.0
 40
48.65500000000021
100
AcDbArc
 50
158.0922461964035
 51
162.7773190209857
  0
ARC
  5
2BF2
330
2455
100
AcDbEntity
  8
1
 62
     7
100
AcDbCircle
 10
503.3933545931851
 20
560.5183448225342
 30
0.0
 40
6.454999999999927
100
AcDbArc
 50
34.33927949508505
 51
115.0431748088763
  0
ARC
  5
2BF3
330
2455
100
AcDbEntity
  8
1
 62
     7
100
AcDbCircle
 10
555.1966936724572
 20
549.7534871719194
 30
0.0
 40
57.00999999999993
100
AcDbArc
 50
63.89863074973081
 51
69.14484751113883
  0
ARC
  5
2BF4
330
2455
100
AcDbEntity
  8
1
 62
     7
100
AcDbCircle
 10
582.6878804688319
 20
594.9608178664739
 30
0.0
 40
6.455000000000063
100
AcDbArc
 50
111.9133469302577
 51
192.6172422440442
  0
ARC
  5
2BF5
330
2455
100
AcDbEntity
  8
1
 62
     7
100
AcDbCircle
 10
555.1966936724572
 20
549.7534871719194
 30
0.0
 40
48.65499999999999
100
AcDbArc
 50
64.17920271814335
 51
68.86427554272555
  0
ARC
  5
2BF6
330
2455
100
AcDbEntity
  8
1
 62
     7
100
AcDbCircle
 10
569.4716408343754
 20
600.7014408454909
 30
0.0
 40
6.454999999999945
100
AcDbArc
 50
300.4262360168248
 51
21.13013133061238
  0
ARC
  5
2BF7
330
2455
100
AcDbEntity
  8
1
 62
     7
100
AcDbCircle
 10
555.1966936724572
 20
602.6634871719195
 30
0.0
 40
6.455000000000119
100
AcDbArc
 50
316.0784099298661
 51
36.78230524365829
  0
ARC
  5
2BF8
330
2455
100
AcDbEntity
  8
1
 62
     7
100
AcDbCircle
 10
555.1966936724572
 20
549.7534871719194
 30
0.0
 40
48.6549999999999
100
AcDbArc
 50
79.83137663118691
 51
84.51644945576788
  0
ARC
  5
2BF9
330
2455
100
AcDbEntity
  8
1
 62
     7
100
AcDbCircle
 10
569.4716408343754
 20
600.7014408454909
 30
0.0
 40
6.455000000000048
100
AcDbArc
 50
127.565520843299
 51
208.269416157088
  0
ARC
  5
2BFA
330
2455
100
AcDbEntity
  8
1
 62
     7
100
AcDbCircle
 10
555.1966936724572
 20
549.7534871719194
 30
0.0
 40
57.00999999999993
100
AcDbArc
 50
79.55080466277411
 51
84.79702142418197
  0
ARC
  5
2BFB
330
2455
100
AcDbEntity
  8
1
 62
     7
100
AcDbCircle
 10
555.1966936724572
 20
549.7534871719194
 30
0.0
 40
57.01000000000003
100
AcDbArc
 50
95.20297857581802
 51
100.4491953372258
  0
ARC
  5
2BFC
330
2455
100
AcDbEntity
  8
1
 62
     7
100
AcDbCircle
 10
540.9217465105391
 20
600.7014408454909
 30
0.0
 40
6.455000000000016
100
AcDbArc
 50
331.730583842912
 51
52.43447915670091
  0
ARC
  5
2BFD
330
2455
100
AcDbEntity
  8
1
 62
     7
100
AcDbCircle
 10
555.1966936724572
 20
549.7534871719194
 30
0.0
 40
48.655
100
AcDbArc
 50
95.48355054423211
 51
100.168623368813
  0
ARC
  5
2BFE
330
2455
100
AcDbEntity
  8
1
 62
     7
100
AcDbCircle
 10
555.1966936724572
 20
602.6634871719195
 30
0.0
 40
6.454999999999985
100
AcDbArc
 50
143.2176947563417
 51
223.9215900701327
  0
ARC
  5
2BFF
330
2455
100
AcDbEntity
  8
1
 62
     7
100
AcDbCircle
 10
540.9217465105391
 20
600.7014408454909
 30
0.0
 40
6.454999999999952
100
AcDbArc
 50
158.8698686693876
 51
239.5737639831752
  0
ARC
  5
2C00
330
2455
100
AcDbEntity
  8
1
 62
     7
100
AcDbCircle
 10
555.1966936724572
 20
549.7534871719194
 30
0.0
 40
48.65500000000007
100
AcDbArc
 50
111.1357244572744
 51
115.8207972818566
  0
ARC
  5
2C01
330
2455
100
AcDbEntity
  8
1
 62
     7
100
AcDbCircle
 10
527.7055068760825
 20
594.9608178664739
 30
0.0
 40
6.455000000000024
100
AcDbArc
 50
347.3827577559525
 51
68.08665306974493
  0
ARC
  5
2C02
330
2455
100
AcDbEntity
  8
1
 62
     7
100
AcDbCircle
 10
555.1966936724572
 20
549.7534871719194
 30
0.0
 40
57.00999999999993
100
AcDbArc
 50
110.8551524888611
 51
116.1013692502691
  0
ARC
  5
2C03
330
2455
100
AcDbEntity
  8
1
 62
     7
100
AcDbCircle
 10
555.1966936724572
 20
549.7534871719194
 30
0.0
 40
48.6549999999999
100
AcDbArc
 50
48.52702880510107
 51
53.21210162968152
  0
ARC
  5
2C04
330
2455
100
AcDbEntity
  8
1
 62
     7
100
AcDbCircle
 10
582.6878804688319
 20
594.9608178664739
 30
0.0
 40
6.455000000000063
100
AcDbArc
 50
111.9133469302577
 51
192.6172422440442
  0
ARC
  5
2C05
330
2455
100
AcDbEntity
  8
1
 62
     7
100
AcDbCircle
 10
555.1966936724572
 20
549.7534871719194
 30
0.0
 40
48.65499999999999
100
AcDbArc
 50
64.17920271814335
 51
68.86427554272555
  0
ARC
  5
2C06
330
2455
100
AcDbEntity
  8
1
 62
     7
100
AcDbCircle
 10
569.4716408343754
 20
600.7014408454909
 30
0.0
 40
6.454999999999945
100
AcDbArc
 50
300.4262360168248
 51
21.13013133061238
  0
ARC
  5
2C07
330
2455
100
AcDbEntity
  8
1
 62
     7
100
AcDbCircle
 10
555.1966936724572
 20
549.7534871719194
 30
0.0
 40
57.00999999999993
100
AcDbArc
 50
63.89863074973081
 51
69.14484751113883
  0
ARC
  5
2C08
330
2455
100
AcDbEntity
  8
1
 62
     7
100
AcDbCircle
 10
569.4716408343754
 20
600.7014408454909
 30
0.0
 40
6.455000000000048
100
AcDbArc
 50
127.565520843299
 51
208.269416157088
  0
ARC
  5
2C09
330
2455
100
AcDbEntity
  8
1
 62
     7
100
AcDbCircle
 10
555.1966936724572
 20
549.7534871719194
 30
0.0
 40
48.6549999999999
100
AcDbArc
 50
79.83137663118691
 51
84.51644945576788
  0
ARC
  5
2C0A
330
2455
100
AcDbEntity
  8
1
 62
     7
100
AcDbCircle
 10
555.1966936724572
 20
602.6634871719195
 30
0.0
 40
6.455000000000119
100
AcDbArc
 50
316.0784099298661
 51
36.78230524365829
  0
ARC
  5
2C0B
330
2455
100
AcDbEntity
  8
1
 62
     7
100
AcDbCircle
 10
555.1966936724572
 20
549.7534871719194
 30
0.0
 40
57.00999999999993
100
AcDbArc
 50
79.55080466277411
 51
84.79702142418197
  0
ARC
  5
2C0C
330
2455
100
AcDbEntity
  8
1
 62
     7
100
AcDbCircle
 10
555.1966936724572
 20
602.6634871719195
 30
0.0
 40
5.953124999999927
100
AcDbArc
 50
116.5759999472222
 51
244.1170866827585
  0
ARC
  5
2C0D
330
2455
100
AcDbEntity
  8
1
 62
     7
100
AcDbCircle
 10
555.1966936724572
 20
602.6634871719195
 30
0.0
 40
5.953125000000135
100
AcDbArc
 50
295.8829133172385
 51
63.42400005278061
  0
ARC
  5
2C0E
330
2455
100
AcDbEntity
  8
1
 62
     7
100
AcDbCircle
 10
540.9217465105391
 20
600.7014408454909
 30
0.0
 40
5.953124999999943
100
AcDbArc
 50
132.2281738602637
 51
259.7692605958044
  0
ARC
  5
2C0F
330
2455
100
AcDbEntity
  8
1
 62
     7
100
AcDbCircle
 10
527.7055068760825
 20
594.9608178664739
 30
0.0
 40
5.953124999999912
100
AcDbArc
 50
245.0433630604869
 51
275.4214345088447
  0
ARC
  5
2C10
330
2455
100
AcDbEntity
  8
1
 62
     7
100
AcDbCircle
 10
582.6878804688319
 20
594.9608178664739
 30
0.0
 40
5.953124999999905
100
AcDbArc
 50
85.27165212113356
 51
212.8127388566719
  0
ARC
  5
2C11
330
2455
100
AcDbEntity
  8
1
 62
     7
100
AcDbCircle
 10
569.4716408343754
 20
600.7014408454909
 30
0.0
 40
5.953125000000031
100
AcDbArc
 50
100.9238260341783
 51
228.4649127697147
  0
ARC
  5
2C12
330
2455
100
AcDbEntity
  8
1
 62
     7
100
AcDbCircle
 10
540.9217465105391
 20
600.7014408454909
 30
0.0
 40
5.953125000000047
100
AcDbArc
 50
311.535087230284
 51
79.07617396582326
  0
ARC
  5
2C13
330
2455
100
AcDbEntity
  8
1
 62
     7
100
AcDbCircle
 10
527.7055068760825
 20
594.9608178664739
 30
0.0
 40
5.953125000000013
100
AcDbArc
 50
327.1872611433276
 51
94.72834787886808
  0
ARC
  5
2C14
330
2455
100
AcDbEntity
  8
1
 62
     7
100
AcDbCircle
 10
569.4716408343754
 20
600.7014408454909
 30
0.0
 40
5.953125000000013
100
AcDbArc
 50
280.2307394041971
 51
47.77182613973746
  0
ARC
  5
2C15
330
2455
100
AcDbEntity
  8
1
 62
     7
100
AcDbCircle
 10
540.9217465105391
 20
600.7014408454909
 30
0.0
 40
5.953124999999943
100
AcDbArc
 50
132.2281738602637
 51
259.7692605958044
  0
ARC
  5
2C16
330
2455
100
AcDbEntity
  8
1
 62
     7
100
AcDbCircle
 10
527.7055068760825
 20
594.9608178664739
 30
0.0
 40
5.953125000000191
100
AcDbArc
 50
147.8803477733059
 51
275.4214345088447
  0
ARC
  5
2C17
330
2455
100
AcDbEntity
  8
1
 62
     7
100
AcDbCircle
 10
516.5281628025016
 20
585.8673739796184
 30
0.0
 40
5.953124999999982
100
AcDbArc
 50
163.5325216863514
 51
291.0736084218903
  0
ARC
  5
2C18
330
2455
100
AcDbEntity
  8
1
 62
     7
100
AcDbCircle
 10
508.2186867667874
 20
574.0955283182744
 30
0.0
 40
5.953124999999927
100
AcDbArc
 50
179.1846955993924
 51
306.7257823349346
  0
ARC
  5
2C19
330
2455
100
AcDbEntity
  8
1
 62
     7
100
AcDbCircle
 10
582.6878804688319
 20
594.9608178664739
 30
0.0
 40
5.953124999999905
100
AcDbArc
 50
85.27165212113356
 51
212.8127388566719
  0
ARC
  5
2C1A
330
2455
100
AcDbEntity
  8
1
 62
     7
100
AcDbCircle
 10
569.4716408343754
 20
600.7014408454909
 30
0.0
 40
5.953125000000031
100
AcDbArc
 50
100.9238260341783
 51
228.4649127697147
  0
ARC
  5
2C1B
330
2455
100
AcDbEntity
  8
1
 62
     7
100
AcDbCircle
 10
540.9217465105391
 20
600.7014408454909
 30
0.0
 40
5.953125000000047
100
AcDbArc
 50
311.535087230284
 51
79.07617396582326
  0
ARC
  5
2C1C
330
2455
100
AcDbEntity
  8
1
 62
     7
100
AcDbCircle
 10
527.7055068760825
 20
594.9608178664739
 30
0.0
 40
5.953125000000013
100
AcDbArc
 50
327.1872611433276
 51
94.72834787886808
  0
ARC
  5
2C1D
330
2455
100
AcDbEntity
  8
1
 62
     7
100
AcDbCircle
 10
516.5281628025016
 20
585.8673739796184
 30
0.0
 40
5.953124999999943
100
AcDbArc
 50
342.8394350563676
 51
110.3805217919103
  0
ARC
  5
2C1E
330
2455
100
AcDbEntity
  8
1
 62
     7
100
AcDbCircle
 10
508.2186867667874
 20
574.0955283182744
 30
0.0
 40
5.953125000000047
100
AcDbArc
 50
358.4916089694128
 51
126.0326957049524
  0
ARC
  5
2C1F
330
2455
100
AcDbEntity
  8
1
 62
     7
100
AcDbCircle
 10
503.3933545931851
 20
560.5183448225342
 30
0.0
 40
5.953124999999982
100
AcDbArc
 50
14.14378288245648
 51
141.6848696179963
  0
ARC
  5
2C20
330
2455
100
AcDbEntity
  8
1
 62
     7
100
AcDbCircle
 10
582.6878804688319
 20
594.9608178664739
 30
0.0
 40
5.95312500000004
100
AcDbArc
 50
264.5785654911536
 51
294.9566369395116
  0
ARC
  5
2C21
330
2455
100
AcDbEntity
  8
1
 62
     7
100
AcDbCircle
 10
569.4716408343754
 20
600.7014408454909
 30
0.0
 40
5.953125000000013
100
AcDbArc
 50
280.2307394041971
 51
47.77182613973746
  0
ARC
  5
2C22
330
2455
100
AcDbEntity
  8
1
 62
     7
100
AcDbCircle
 10
555.1966936724572
 20
602.6634871719195
 30
0.0
 40
5.953124999999927
100
AcDbArc
 50
116.5759999472222
 51
244.1170866827585
  0
ARC
  5
2C23
330
2455
100
AcDbEntity
  8
1
 62
     7
100
AcDbCircle
 10
555.1966936724572
 20
602.6634871719195
 30
0.0
 40
5.953125000000135
100
AcDbArc
 50
295.8829133172385
 51
63.42400005278061
  0
ARC
  5
2C24
330
2455
100
AcDbEntity
  8
1
 62
     7
100
AcDbCircle
 10
555.1966936724572
 20
549.7534871719194
 30
0.0
 40
64.021000000381
100
AcDbArc
 50
90.0
 51
117.9462553916541
  0
ARC
  5
2C25
330
2455
100
AcDbEntity
  8
1
 62
     7
100
AcDbCircle
 10
555.1966936724572
 20
549.7534871719194
 30
0.0
 40
62.85299999999339
100
AcDbArc
 50
90.0
 51
118.512595979152
  0
LINE
  5
2C26
330
2455
100
AcDbEntity
  8
1
  6
CENTER
 62
     3
100
AcDbLine
 10
496.0904598641672
 20
583.8784871719192
 30
0.0
 11
484.3991169130773
 21
590.628487171919
 31
0.0
  0
LINE
  5
2C27
330
2455
100
AcDbEntity
  8
1
  6
CENTER
 62
     3
100
AcDbLine
 10
521.071693672455
 20
608.8597209802074
 30
0.0
 11
514.321693672455
 21
620.5510639312969
 31
0.0
  0
LINE
  5
2C28
330
2455
100
AcDbEntity
  8
1
  6
CENTER
 62
     3
100
AcDbLine
 10
534.2323510178972
 20
627.9934791007015
 30
0.0
 11
537.3381795591276
 21
616.4023691852328
 31
0.0
  0
LINE
  5
2C29
330
2455
100
AcDbEntity
  8
1
 62
     7
100
AcDbLine
 10
558.1966936248496
 20
562.0534869871934
 30
0.0
 11
552.1966937165086
 21
562.0534869871934
 31
0.0
  0
LINE
  5
2C2A
330
2455
100
AcDbEntity
  8
1
 62
     7
100
AcDbLine
 10
558.1966936248496
 20
558.7673652266338
 30
0.0
 11
558.1966936248496
 21
562.0534869871934
 31
0.0
  0
LINE
  5
2C2B
330
2455
100
AcDbEntity
  8
1
 62
     7
100
AcDbLine
 10
552.1966937165086
 20
562.0534869871934
 30
0.0
 11
552.1966937165086
 21
558.7673652251604
 31
0.0
  0
ARC
  5
2C2C
330
2455
100
AcDbEntity
  8
1
 62
     7
100
AcDbCircle
 10
607.0000327517286
 20
560.5183448225342
 30
0.0
 40
6.454999999999927
100
AcDbArc
 50
237.81754036465
 51
318.5214356784389
  0
ARC
  5
2C2D
330
2455
100
AcDbEntity
  8
1
 62
     7
100
AcDbCircle
 10
555.1966936724572
 20
549.7534871719194
 30
0.0
 40
57.00999999999996
100
AcDbArc
 50
1.28993509755848
 51
6.536151858963878
  0
ARC
  5
2C2E
330
2455
100
AcDbEntity
  8
1
 62
     7
100
AcDbCircle
 10
607.0000327517286
 20
560.5183448225342
 30
0.0
 40
5.953125000000023
100
AcDbArc
 50
217.6220437520217
 51
345.1631304875622
  0
CIRCLE
  5
2C2F
330
2455
100
AcDbEntity
  8
1
 62
     7
100
AcDbCircle
 10
620.1485989562919
 20
512.2534871719194
 30
0.0
 40
4.500000000000023
  0
CIRCLE
  5
2C30
330
2455
100
AcDbEntity
  8
1
 62
     7
100
AcDbCircle
 10
630.1966936724591
 20
549.7534871719194
 30
0.0
 40
4.5
  0
ARC
  5
2C31
330
2455
100
AcDbEntity
  8
1
 62
     7
100
AcDbCircle
 10
588.5875568067485
 20
508.7106027807483
 30
0.0
 40
6.454999999999985
100
AcDbArc
 50
2.348129538952598
 51
83.05202485274055
  0
ARC
  5
2C32
330
2455
100
AcDbEntity
  8
1
 62
     7
100
AcDbCircle
 10
555.1966936724572
 20
549.7534871719194
 30
0.0
 40
48.65499999999993
100
AcDbArc
 50
314.6139853268395
 51
319.2990581514199
  0
ARC
  5
2C33
330
2455
100
AcDbEntity
  8
1
 62
     7
100
AcDbCircle
 10
598.4225707116397
 20
519.2413313288217
 30
0.0
 40
6.455000000000024
100
AcDbArc
 50
190.86101862552
 51
271.5649139393103
  0
ARC
  5
2C34
330
2455
100
AcDbEntity
  8
1
 62
     7
100
AcDbCircle
 10
555.1966936724572
 20
549.7534871719194
 30
0.0
 40
57.00999999999988
100
AcDbArc
 50
314.3334133584269
 51
319.5796301198345
  0
ARC
  5
2C35
330
2455
100
AcDbEntity
  8
1
 62
     7
100
AcDbCircle
 10
598.4225707116397
 20
519.2413313288217
 30
0.0
 40
6.455000000000032
100
AcDbArc
 50
18.00030345199455
 51
98.7041987657844
  0
ARC
  5
2C36
330
2455
100
AcDbEntity
  8
1
 62
     7
100
AcDbCircle
 10
555.1966936724572
 20
549.7534871719194
 30
0.0
 40
48.65499999999993
100
AcDbArc
 50
330.2661592398848
 51
334.9512320644649
  0
ARC
  5
2C37
330
2455
100
AcDbEntity
  8
1
 62
     7
100
AcDbCircle
 10
605.0517190617638
 20
532.0350068919525
 30
0.0
 40
6.454999999999959
100
AcDbArc
 50
206.5131925385619
 51
287.2170878523536
  0
ARC
  5
2C38
330
2455
100
AcDbEntity
  8
1
 62
     7
100
AcDbCircle
 10
555.1966936724572
 20
549.7534871719194
 30
0.0
 40
57.00999999999996
100
AcDbArc
 50
329.9855872714702
 51
335.2318040328782
  0
ARC
  5
2C39
330
2455
100
AcDbEntity
  8
1
 62
     7
100
AcDbCircle
 10
605.0517190617638
 20
532.0350068919525
 30
0.0
 40
6.455000000000009
100
AcDbArc
 50
33.6524773650384
 51
114.3563726788282
  0
ARC
  5
2C3A
330
2455
100
AcDbEntity
  8
1
 62
     7
100
AcDbCircle
 10
555.1966936724572
 20
549.7534871719194
 30
0.0
 40
48.6549999999999
100
AcDbArc
 50
345.9183331529253
 51
350.6034059775068
  0
ARC
  5
2C3B
330
2455
100
AcDbEntity
  8
1
 62
     7
100
AcDbCircle
 10
607.9833482503285
 20
546.1427810807945
 30
0.0
 40
6.454999999999993
100
AcDbArc
 50
222.1653664516066
 51
302.8692617653965
  0
ARC
  5
2C3C
330
2455
100
AcDbEntity
  8
1
 62
     7
100
AcDbCircle
 10
555.1966936724572
 20
549.7534871719194
 30
0.0
 40
57.00999999999988
100
AcDbArc
 50
345.6377611845145
 51
350.8839779459197
  0
ARC
  5
2C3D
330
2455
100
AcDbEntity
  8
1
 62
     7
100
AcDbCircle
 10
607.9833482503285
 20
546.1427810807945
 30
0.0
 40
6.455000000000096
100
AcDbArc
 50
49.30465127808095
 51
130.0085465918722
  0
ARC
  5
2C3E
330
2455
100
AcDbEntity
  8
1
 62
     7
100
AcDbCircle
 10
555.1966936724572
 20
549.7534871719194
 30
0.0
 40
48.65499999999996
100
AcDbArc
 50
1.570507065969538
 51
6.255579890550958
  0
ARC
  5
2C3F
330
2455
100
AcDbEntity
  8
1
 62
     7
100
AcDbCircle
 10
598.4225707116397
 20
519.2413313288217
 30
0.0
 40
5.953125000000052
100
AcDbArc
 50
351.35860864287
 51
118.8996953784114
  0
ARC
  5
2C40
330
2455
100
AcDbEntity
  8
1
 62
     7
100
AcDbCircle
 10
605.0517190617638
 20
532.0350068919525
 30
0.0
 40
5.953124999999982
100
AcDbArc
 50
7.010782555914542
 51
134.5518692914556
  0
ARC
  5
2C41
330
2455
100
AcDbEntity
  8
1
 62
     7
100
AcDbCircle
 10
607.9833482503285
 20
546.1427810807945
 30
0.0
 40
5.953125
100
AcDbArc
 50
22.66295646895869
 51
150.2040432044963
  0
ARC
  5
2C42
330
2455
100
AcDbEntity
  8
1
 62
     7
100
AcDbCircle
 10
598.4225707116397
 20
519.2413313288217
 30
0.0
 40
5.953124999999959
100
AcDbArc
 50
170.6655220128919
 51
298.2066087484326
  0
ARC
  5
2C43
330
2455
100
AcDbEntity
  8
1
 62
     7
100
AcDbCircle
 10
605.0517190617638
 20
532.0350068919525
 30
0.0
 40
5.953125000000062
100
AcDbArc
 50
186.3176959259354
 51
313.8587826614744
  0
ARC
  5
2C44
330
2455
100
AcDbEntity
  8
1
 62
     7
100
AcDbCircle
 10
607.9833482503285
 20
546.1427810807945
 30
0.0
 40
5.95312499999996
100
AcDbArc
 50
201.9698698389787
 51
329.5109565745217
  0
LINE
  5
2C45
330
2455
100
AcDbEntity
  8
1
  6
CENTER
 62
     3
100
AcDbLine
 10
596.071693672459
 20
478.9559104125416
 30
0.0
 11
589.3216936724586
 21
490.6472533636314
 31
0.0
  0
LINE
  5
2C46
330
2455
100
AcDbEntity
  8
1
  6
CENTER
 62
     3
100
AcDbLine
 10
625.9942704318367
 20
508.8784871719193
 30
0.0
 11
614.3029274807467
 21
515.6284871719194
 31
0.0
  0
CIRCLE
  5
2C47
330
2455
100
AcDbEntity
  8
1
 62
     7
100
AcDbCircle
 10
620.1485989562919
 20
587.2534871719192
 30
0.0
 40
4.500000000000031
  0
ARC
  5
2C48
330
2455
100
AcDbEntity
  8
1
 62
     7
100
AcDbCircle
 10
607.0000327517286
 20
560.5183448225342
 30
0.0
 40
6.454999999999968
100
AcDbArc
 50
64.9568251911237
 51
145.6607205049149
  0
ARC
  5
2C49
330
2455
100
AcDbEntity
  8
1
 62
     7
100
AcDbCircle
 10
555.1966936724572
 20
549.7534871719194
 30
0.0
 40
48.65499999999998
100
AcDbArc
 50
17.22268097901428
 51
21.90775380359642
  0
ARC
  5
2C4A
330
2455
100
AcDbEntity
  8
1
 62
     7
100
AcDbCircle
 10
602.1747005781268
 20
574.0955283182744
 30
0.0
 40
6.455000000000024
100
AcDbArc
 50
253.4697142776942
 51
334.1736095914837
  0
ARC
  5
2C4B
330
2455
100
AcDbEntity
  8
1
 62
     7
100
AcDbCircle
 10
555.1966936724572
 20
549.7534871719194
 30
0.0
 40
57.00999999999989
100
AcDbArc
 50
16.94210901059947
 51
22.18832577200693
  0
ARC
  5
2C4C
330
2455
100
AcDbEntity
  8
1
 62
     7
100
AcDbCircle
 10
602.1747005781268
 20
574.0955283182744
 30
0.0
 40
6.454999999999999
100
AcDbArc
 50
80.60899910416857
 51
161.3128944179598
  0
ARC
  5
2C4D
330
2455
100
AcDbEntity
  8
1
 62
     7
100
AcDbCircle
 10
555.1966936724572
 20
549.7534871719194
 30
0.0
 40
48.65499999999997
100
AcDbArc
 50
32.8748548920563
 51
37.55992771663648
  0
ARC
  5
2C4E
330
2455
100
AcDbEntity
  8
1
 62
     7
100
AcDbCircle
 10
593.8652245424127
 20
585.8673739796184
 30
0.0
 40
6.455000000000008
100
AcDbArc
 50
269.1218881907381
 51
349.8257835045269
  0
ARC
  5
2C4F
330
2455
100
AcDbEntity
  8
1
 62
     7
100
AcDbCircle
 10
555.1966936724572
 20
549.7534871719194
 30
0.0
 40
57.00999999999986
100
AcDbArc
 50
32.59428292364582
 51
37.84049968505257
  0
ARC
  5
2C50
330
2455
100
AcDbEntity
  8
1
 62
     7
100
AcDbCircle
 10
555.1966936724572
 20
549.7534871719194
 30
0.0
 40
57.00999999999993
100
AcDbArc
 50
48.24645683668627
 51
53.49267359809523
  0
ARC
  5
2C51
330
2455
100
AcDbEntity
  8
1
 62
     7
100
AcDbCircle
 10
607.0000327517286
 20
560.5183448225342
 30
0.0
 40
5.953124999999927
100
AcDbArc
 50
38.31513038200372
 51
165.8562171175435
  0
ARC
  5
2C52
330
2455
100
AcDbEntity
  8
1
 62
     7
100
AcDbCircle
 10
602.1747005781268
 20
574.0955283182744
 30
0.0
 40
5.95312499999984
100
AcDbArc
 50
53.96730429504759
 51
181.508391030587
  0
ARC
  5
2C53
330
2455
100
AcDbEntity
  8
1
 62
     7
100
AcDbCircle
 10
602.1747005781268
 20
574.0955283182744
 30
0.0
 40
5.953125000000039
100
AcDbArc
 50
233.2742176650653
 51
0.8153044006043437
  0
ARC
  5
2C54
330
2455
100
AcDbEntity
  8
1
 62
     7
100
AcDbCircle
 10
593.8652245424127
 20
585.8673739796184
 30
0.0
 40
5.953124999999936
100
AcDbArc
 50
248.9263915781112
 51
16.46747831364853
  0
LINE
  5
2C55
330
2455
100
AcDbEntity
  8
1
  6
CENTER
 62
     3
100
AcDbLine
 10
625.9942704318367
 20
590.628487171919
 30
0.0
 11
614.3029274807467
 21
583.8784871719192
 31
0.0
  0
LINE
  5
2C56
330
2455
100
AcDbEntity
  8
1
  6
CENTER
 62
     3
100
AcDbLine
 10
596.0716936724592
 20
620.5510639312969
 30
0.0
 11
589.3216936724591
 21
608.8597209802074
 31
0.0
  0
TEXT
  5
2C5F
330
2455
100
AcDbEntity
  8
1
 62
     0
100
AcDbText
 10
505.9122585168992
 20
396.1707038669908
 30
0.0
 40
9.0
  1
CSF-50-XXX-2A-GR.dxf
 41
0.9
100
AcDbText
  0
TEXT
  5
2C60
330
2455
100
AcDbEntity
  8
1
 62
     0
100
AcDbText
 10
549.9586131018633
 20
370.6338417629868
 30
0.0
 40
9.0
  1
2002/3
 41
0.9
 72
     1
 11
567.0335251064354
 21
375.1338417629868
 31
0.0
100
AcDbText
 73
     2
  0
TEXT
  5
2C68
330
2455
100
AcDbEntity
  8
1
 62
     0
100
AcDbText
 10
286.7126803515861
 20
391.7842039034461
 30
0.0
 40
6.48
  1
REMARKS:  M.H.C = MINIMUM HOUSING CLEARANCE
 41
0.9
 72
     1
 11
371.291260351586
 21
395.0242039034461
 31
0.0
100
AcDbText
 73
     2
  0
INSERT
  5
2C72
330
2455
100
AcDbEntity
  8
AM_0
100
AcDbBlockReference
  2
HD LLC
 10
626.0814522250083
 20
251.0286658768535
 30
0.0
 41
2.271007089084014
 42
2.271007089084014
 43
2.271007089084014
  0
INSERT
  5
2C78
330
2455
100
AcDbEntity
  8
AM_0
100
AcDbBlockReference
  2
HD logo-new
 10
446.7857288011178
 20
262.0972521866473
 30
0.0
 41
2.399999999999999
 42
2.399999999999999
 43
2.399999999999999
  0
INSERT
  5
2C85
330
2455
100
AcDbEntity
  8
AM_0
100
AcDbBlockReference
  2
NTC
 10
-15.72675324667531
 20
319.0993492720147
 30
0.0
 41
1.169999999999999
 42
1.169999999999999
 43
1.169999999999999
  0
ENDSEC
  0
SECTION
  2
OBJECTS
  0
DICTIONARY
  5
2443
330
0
100
AcDbDictionary
281
     1
  3
ACAD_GROUP
350
2444
  3
ACAD_LAYOUT
350
2450
  3
ACAD_MLINESTYLE
350
244D
  3
ACAD_PLOTSETTINGS
350
244F
  3
ACAD_PLOTSTYLENAME
350
2445
  3
AcDbVariableDictionary
350
2775
  0
DICTIONARY
  5
2444
102
{ACAD_REACTORS
330
2443
102
}
330
2443
100
AcDbDictionary
281
     1
  0
DICTIONARY
  5
2450
102
{ACAD_REACTORS
330
2443
102
}
330
2443
100
AcDbDictionary
281
     1
  3
Layout1
350
2454
  3
Model
350
2458
  0
DICTIONARY
  5
244D
102
{ACAD_REACTORS
330
2443
102
}
330
2443
100
AcDbDictionary
281
     1
  3
Standard
350
244E
  0
DICTIONARY
  5
244F
102
{ACAD_REACTORS
330
2443
102
}
330
2443
100
AcDbDictionary
281
     1
  0
ACDBDICTIONARYWDFLT
  5
2445
102
{ACAD_REACTORS
330
2443
102
}
330
2443
100
AcDbDictionary
281
     1
  3
Normal
350
2446
100
AcDbDictionaryWithDefault
340
2446
  0
DICTIONARY
  5
2775
102
{ACAD_REACTORS
330
2443
102
}
330
2443
100
AcDbDictionary
281
     1
  3
DIMASSOC
350
2776
  0
LAYOUT
  5
2454
102
{ACAD_REACTORS
330
2450
102
}
330
2450
100
AcDbPlotSettings
  1

  2
\\SERVER9\HP LaserJet 5100 PCL 5e
  4

  6

 40
0.0
 41
0.0
 42
0.0
 43
0.0
 44
0.0
 45
0.0
 46
0.0
 47
0.0
 48
0.0
 49
0.0
140
0.0
141
0.0
142
1.0
143
1.0
 70
   688
 72
     0
 73
     0
 74
     5
  7

 75
    16
147
1.0
148
0.0
149
0.0
100
AcDbLayout
  1
Layout1
 70
     1
 71
     1
 10
0.0
 20
0.0
 11
420.0
 21
297.0
 12
0.0
 22
0.0
 32
0.0
 14
1.000000000000000E+20
 24
1.000000000000000E+20
 34
1.000000000000000E+20
 15
-1.000000000000000E+20
 25
-1.000000000000000E+20
 35
-1.000000000000000E+20
146
0.0
 13
0.0
 23
0.0
 33
0.0
 16
1.0
 26
0.0
 36
0.0
 17
0.0
 27
1.0
 37
0.0
 76
     0
330
2451
  0
LAYOUT
  5
2458
102
{ACAD_REACTORS
330
2450
102
}
330
2450
100
AcDbPlotSettings
  1

  2
\\SERVER9\HP LaserJet 5100 PCL 5e
  4

  6

 40
0.0
 41
0.0
 42
0.0
 43
0.0
 44
0.0
 45
0.0
 46
0.0
 47
0.0
 48
0.0
 49
0.0
140
0.0
141
0.0
142
1.0
143
1.0
 70
  1712
 72
     0
 73
     0
 74
     0
  7

 75
     0
147
1.0
148
0.0
149
0.0
100
AcDbLayout
  1
Model
 70
     1
 71
     0
 10
0.0
 20
0.0
 11
12.0
 21
9.0
 12
0.0
 22
0.0
 32
0.0
 14
0.0
 24
0.0
 34
0.0
 15
0.0
 25
0.0
 35
0.0
146
0.0
 13
0.0
 23
0.0
 33
0.0
 16
1.0
 26
0.0
 36
0.0
 17
0.0
 27
1.0
 37
0.0
 76
     0
330
2455
  0
MLINESTYLE
  5
244E
102
{ACAD_REACTORS
330
244D
102
}
330
244D
100
AcDbMlineStyle
  2
STANDARD
 70
     0
  3

 62
   256
 51
90.0
 52
90.0
 71
     2
 49
0.5
 62
   256
  6
BYLAYER
 49
-0.5
 62
   256
  6
BYLAYER
  0
ACDBPLACEHOLDER
  5
2446
102
{ACAD_REACTORS
330
2445
102
}
330
2445
  0
DICTIONARYVAR
  5
2776
102
{ACAD_REACTORS
330
2775
102
}
330
2775
100
DictionaryVariables
280
     0
  1
1
  0
ENDSEC
  0
EOF
