  0
SECTION
  2
HEADER
  9
$ACADVER
  1
AC1015
  9
$ACADMAINTVER
 70
    13
  9
$DWGCODEPAGE
  3
ANSI_1252
  9
$INSBASE
 10
0.0
 20
0.0
 30
0.0
  9
$EXTMIN
 10
-11762.31535416818
 20
-3253.701004824705
 30
0.0
  9
$EXTMAX
 10
11161.70986567183
 20
4261.231398120308
 30
0.0
  9
$LIMMIN
 10
0.0
 20
0.0
  9
$LIMMAX
 10
420.0
 20
297.0
  9
$ORTHOMODE
 70
     1
  9
$REGENMODE
 70
     1
  9
$FILLMODE
 70
     1
  9
$QTEXTMODE
 70
     0
  9
$MIRRTEXT
 70
     1
  9
$LTSCALE
 40
1.0
  9
$ATTMODE
 70
     1
  9
$TEXTSIZE
 40
2.5
  9
$TRACEWID
 40
1.0
  9
$TEXTSTYLE
  7
STANDARD
  9
$CLAYER
  8
AM_0
  9
$CELTYPE
  6
ByLayer
  9
$CECOLOR
 62
   256
  9
$CELTSCALE
 40
1.0
  9
$DISPSILH
 70
     0
  9
$DIMSCALE
 40
1.0
  9
$DIMASZ
 40
2.5
  9
$DIMEXO
 40
0.625
  9
$DIMDLI
 40
3.75
  9
$DIMRND
 40
0.0
  9
$DIMDLE
 40
0.0
  9
$DIMEXE
 40
1.25
  9
$DIMTP
 40
0.0
  9
$DIMTM
 40
0.0
  9
$DIMTXT
 40
2.5
  9
$DIMCEN
 40
2.5
  9
$DIMTSZ
 40
0.0
  9
$DIMTOL
 70
     0
  9
$DIMLIM
 70
     0
  9
$DIMTIH
 70
     0
  9
$DIMTOH
 70
     0
  9
$DIMSE1
 70
     0
  9
$DIMSE2
 70
     0
  9
$DIMTAD
 70
     1
  9
$DIMZIN
 70
     8
  9
$DIMBLK
  1

  9
$DIMASO
 70
     1
  9
$DIMSHO
 70
     1
  9
$DIMPOST
  1

  9
$DIMAPOST
  1

  9
$DIMALT
 70
     0
  9
$DIMALTD
 70
     3
  9
$DIMALTF
 40
0.03937007874016
  9
$DIMLFAC
 40
1.0
  9
$DIMTOFL
 70
     1
  9
$DIMTVP
 40
0.0
  9
$DIMTIX
 70
     0
  9
$DIMSOXD
 70
     0
  9
$DIMSAH
 70
     0
  9
$DIMBLK1
  1

  9
$DIMBLK2
  1

  9
$DIMSTYLE
  2
ISO-25
  9
$DIMCLRD
 70
     0
  9
$DIMCLRE
 70
     0
  9
$DIMCLRT
 70
     0
  9
$DIMTFAC
 40
1.0
  9
$DIMGAP
 40
0.625
  9
$DIMJUST
 70
     0
  9
$DIMSD1
 70
     0
  9
$DIMSD2
 70
     0
  9
$DIMTOLJ
 70
     1
  9
$DIMTZIN
 70
     0
  9
$DIMALTZ
 70
     0
  9
$DIMALTTZ
 70
     0
  9
$DIMUPT
 70
     0
  9
$DIMDEC
 70
     4
  9
$DIMTDEC
 70
     4
  9
$DIMALTU
 70
     2
  9
$DIMALTTD
 70
     2
  9
$DIMTXSTY
  7
STANDARD
  9
$DIMAUNIT
 70
     0
  9
$DIMADEC
 70
     0
  9
$DIMALTRND
 40
0.0
  9
$DIMAZIN
 70
     0
  9
$DIMDSEP
 70
    46
  9
$DIMATFIT
 70
     3
  9
$DIMFRAC
 70
     0
  9
$DIMLDRBLK
  1

  9
$DIMLUNIT
 70
     2
  9
$DIMLWD
 70
    -2
  9
$DIMLWE
 70
    -2
  9
$DIMTMOVE
 70
     0
  9
$LUNITS
 70
     2
  9
$LUPREC
 70
     2
  9
$SKETCHINC
 40
1.0
  9
$FILLETRAD
 40
2.5
  9
$AUNITS
 70
     0
  9
$AUPREC
 70
     0
  9
$MENU
  1
.
  9
$ELEVATION
 40
0.0
  9
$PELEVATION
 40
0.0
  9
$THICKNESS
 40
0.0
  9
$LIMCHECK
 70
     0
  9
$CHAMFERA
 40
2.5
  9
$CHAMFERB
 40
2.5
  9
$CHAMFERC
 40
0.0
  9
$CHAMFERD
 40
0.0
  9
$SKPOLY
 70
     0
  9
$TDCREATE
 40
2452802.758344178
  9
$TDUCREATE
 40
2452802.925010845
  9
$TDUPDATE
 40
2453865.533769710
  9
$TDUUPDATE
 40
2453865.700436377
  9
$TDINDWG
 40
0.0959810995
  9
$TDUSRTIMER
 40
0.0959805556
  9
$USRTIMER
 70
     1
  9
$ANGBASE
 50
0.0
  9
$ANGDIR
 70
     0
  9
$PDMODE
 70
     0
  9
$PDSIZE
 40
0.0
  9
$PLINEWID
 40
0.0
  9
$SPLFRAME
 70
     0
  9
$SPLINETYPE
 70
     6
  9
$SPLINESEGS
 70
     8
  9
$HANDSEED
  5
2993
  9
$SURFTAB1
 70
     6
  9
$SURFTAB2
 70
     6
  9
$SURFTYPE
 70
     6
  9
$SURFU
 70
     6
  9
$SURFV
 70
     6
  9
$UCSBASE
  2

  9
$UCSNAME
  2

  9
$UCSORG
 10
0.0
 20
0.0
 30
0.0
  9
$UCSXDIR
 10
1.0
 20
0.0
 30
0.0
  9
$UCSYDIR
 10
0.0
 20
1.0
 30
0.0
  9
$UCSORTHOREF
  2

  9
$UCSORTHOVIEW
 70
     0
  9
$UCSORGTOP
 10
0.0
 20
0.0
 30
0.0
  9
$UCSORGBOTTOM
 10
0.0
 20
0.0
 30
0.0
  9
$UCSORGLEFT
 10
0.0
 20
0.0
 30
0.0
  9
$UCSORGRIGHT
 10
0.0
 20
0.0
 30
0.0
  9
$UCSORGFRONT
 10
0.0
 20
0.0
 30
0.0
  9
$UCSORGBACK
 10
0.0
 20
0.0
 30
0.0
  9
$PUCSBASE
  2

  9
$PUCSNAME
  2

  9
$PUCSORG
 10
0.0
 20
0.0
 30
0.0
  9
$PUCSXDIR
 10
1.0
 20
0.0
 30
0.0
  9
$PUCSYDIR
 10
0.0
 20
1.0
 30
0.0
  9
$PUCSORTHOREF
  2

  9
$PUCSORTHOVIEW
 70
     0
  9
$PUCSORGTOP
 10
0.0
 20
0.0
 30
0.0
  9
$PUCSORGBOTTOM
 10
0.0
 20
0.0
 30
0.0
  9
$PUCSORGLEFT
 10
0.0
 20
0.0
 30
0.0
  9
$PUCSORGRIGHT
 10
0.0
 20
0.0
 30
0.0
  9
$PUCSORGFRONT
 10
0.0
 20
0.0
 30
0.0
  9
$PUCSORGBACK
 10
0.0
 20
0.0
 30
0.0
  9
$USERI1
 70
     0
  9
$USERI2
 70
     0
  9
$USERI3
 70
     0
  9
$USERI4
 70
     0
  9
$USERI5
 70
     0
  9
$USERR1
 40
0.0
  9
$USERR2
 40
0.0
  9
$USERR3
 40
0.0
  9
$USERR4
 40
0.0
  9
$USERR5
 40
0.0
  9
$WORLDVIEW
 70
     1
  9
$SHADEDGE
 70
     3
  9
$SHADEDIF
 70
    70
  9
$TILEMODE
 70
     1
  9
$MAXACTVP
 70
    64
  9
$PINSBASE
 10
0.0
 20
0.0
 30
0.0
  9
$PLIMCHECK
 70
     0
  9
$PEXTMIN
 10
1.000000000000000E+20
 20
1.000000000000000E+20
 30
1.000000000000000E+20
  9
$PEXTMAX
 10
-1.000000000000000E+20
 20
-1.000000000000000E+20
 30
-1.000000000000000E+20
  9
$PLIMMIN
 10
0.0
 20
0.0
  9
$PLIMMAX
 10
420.0
 20
297.0
  9
$UNITMODE
 70
     0
  9
$VISRETAIN
 70
     1
  9
$PLINEGEN
 70
     0
  9
$PSLTSCALE
 70
     1
  9
$TREEDEPTH
 70
  3020
  9
$CMLSTYLE
  2
Standard
  9
$CMLJUST
 70
     0
  9
$CMLSCALE
 40
1.0
  9
$PROXYGRAPHICS
 70
     1
  9
$MEASUREMENT
 70
     0
  9
$CELWEIGHT
370
    -1
  9
$ENDCAPS
280
     0
  9
$JOINSTYLE
280
     0
  9
$LWDISPLAY
290
     0
  9
$INSUNITS
 70
     0
  9
$HYPERLINKBASE
  1

  9
$STYLESHEET
  1

  9
$XEDIT
290
     1
  9
$CEPSNTYPE
380
     0
  9
$PSTYLEMODE
290
     1
  9
$FINGERPRINTGUID
  2
{3FA4C6F1-7F22-40F8-AA33-B30CEC05C5FF}
  9
$VERSIONGUID
  2
{94BDD108-412E-4B5C-AEB0-8988FD95B8B2}
  9
$EXTNAMES
290
     1
  9
$PSVPSCALE
 40
0.0
  9
$OLESTARTUP
290
     0
  0
ENDSEC
  0
SECTION
  2
CLASSES
  0
CLASS
  1
ACDBDICTIONARYWDFLT
  2
AcDbDictionaryWithDefault
  3
AutoCAD 2000
 90
        0
280
     0
281
     0
  0
CLASS
  1
ACDBPLACEHOLDER
  2
AcDbPlaceHolder
  3
AutoCAD 2000
 90
        0
280
     0
281
     0
  0
CLASS
  1
LAYOUT
  2
AcDbLayout
  3
AutoCAD 2000
 90
        0
280
     0
281
     0
  0
CLASS
  1
DICTIONARYVAR
  2
AcDbDictionaryVar
  3
AutoCAD 2000
 90
        0
280
     0
281
     0
  0
ENDSEC
  0
SECTION
  2
TABLES
  0
TABLE
  2
VPORT
  5
21CA
330
0
100
AcDbSymbolTable
 70
     5
  0
VPORT
  5
2992
330
21CA
100
AcDbSymbolTableRecord
100
AcDbViewportTableRecord
  2
*Active
 70
     0
 10
0.0
 20
0.0
 11
1.0
 21
1.0
 12
424.3010077578114
 22
593.9757349586666
 13
0.0
 23
0.0
 14
2.5
 24
2.5
 15
10.0
 25
10.0
 16
0.0
 26
0.0
 36
1.0
 17
0.0
 27
0.0
 37
0.0
 40
900.4844508049362
 41
1.182835820895522
 42
50.0
 43
0.0
 44
0.0
 50
0.0
 51
0.0
 71
     0
 72
   100
 73
     1
 74
     3
 75
     0
 76
     0
 77
     0
 78
     0
281
     0
 65
     1
110
0.0
120
0.0
130
0.0
111
1.0
121
0.0
131
0.0
112
0.0
122
1.0
132
0.0
 79
     0
146
0.0
  0
ENDTAB
  0
TABLE
  2
LTYPE
  5
21C7
330
0
100
AcDbSymbolTable
 70
     4
  0
LTYPE
  5
21D5
330
21C7
100
AcDbSymbolTableRecord
100
AcDbLinetypeTableRecord
  2
ByBlock
 70
     0
  3

 72
    65
 73
     0
 40
0.0
  0
LTYPE
  5
21D6
330
21C7
100
AcDbSymbolTableRecord
100
AcDbLinetypeTableRecord
  2
ByLayer
 70
     0
  3

 72
    65
 73
     0
 40
0.0
  0
LTYPE
  5
21D7
330
21C7
100
AcDbSymbolTableRecord
100
AcDbLinetypeTableRecord
  2
CONTINUOUS
 70
     0
  3
Solid line
 72
    65
 73
     0
 40
0.0
  0
LTYPE
  5
21E6
330
21C7
100
AcDbSymbolTableRecord
100
AcDbLinetypeTableRecord
  2
CENTER
 70
     0
  3
Center ____ _ ____ _ ____ _ ____ _ ____ _ ____
 72
    65
 73
     4
 40
50.8
 49
31.75
 74
     0
 49
-6.349999999999997
 74
     0
 49
6.349999999999997
 74
     0
 49
-6.349999999999997
 74
     0
  0
LTYPE
  5
21E7
330
21C7
100
AcDbSymbolTableRecord
100
AcDbLinetypeTableRecord
  2
DIVIDE
 70
     0
  3
__ . . __ . . 
 72
    65
 73
     6
 40
28.7998833308926
 49
11.51995333235704
 74
     0
 49
-5.759976666178515
 74
     0
 49
0.0
 74
     0
 49
-5.759976666178515
 74
     0
 49
0.0
 74
     0
 49
-5.759976666178515
 74
     0
  0
LTYPE
  5
21E8
330
21C7
100
AcDbSymbolTableRecord
100
AcDbLinetypeTableRecord
  2
PHANTOM
 70
     0
  3
_____ _ _ _____ _ _ 
 72
    65
 73
     6
 40
57.5997666617852
 49
28.7998833308926
 74
     0
 49
-5.759976666178515
 74
     0
 49
5.759976666178515
 74
     0
 49
-5.759976666178515
 74
     0
 49
5.759976666178515
 74
     0
 49
-5.759976666178515
 74
     0
  0
ENDTAB
  0
TABLE
  2
LAYER
  5
21C4
330
0
100
AcDbSymbolTable
 70
     5
  0
LAYER
  5
21D2
330
21C4
100
AcDbSymbolTableRecord
100
AcDbLayerTableRecord
  2
0
 70
     0
 62
     7
  6
CONTINUOUS
370
    -3
390
21D1
  0
LAYER
  5
21E4
330
21C4
100
AcDbSymbolTableRecord
100
AcDbLayerTableRecord
  2
AM_0
 70
     0
 62
     7
  6
CONTINUOUS
370
    -3
390
21D1
  0
LAYER
  5
21E9
330
21C4
100
AcDbSymbolTableRecord
100
AcDbLayerTableRecord
  2
1
 70
     0
 62
     7
  6
CONTINUOUS
370
    -3
390
21D1
  0
LAYER
  5
21EA
330
21C4
100
AcDbSymbolTableRecord
100
AcDbLayerTableRecord
  2
2
 70
     0
 62
     7
  6
CONTINUOUS
370
    -3
390
21D1
  0
LAYER
  5
24C3
330
21C4
100
AcDbSymbolTableRecord
100
AcDbLayerTableRecord
  2
LAYER_1
 70
     0
 62
     5
  6
CONTINUOUS
370
    -3
390
21D1
  0
ENDTAB
  0
TABLE
  2
STYLE
  5
21C5
330
0
100
AcDbSymbolTable
 70
     2
  0
STYLE
  5
21D3
330
21C5
100
AcDbSymbolTableRecord
100
AcDbTextStyleTableRecord
  2
STANDARD
 70
     0
 40
0.0
 41
1.0
 50
0.0
 71
     0
 42
2.5
  3
ISOCP.SHX
  4

  0
STYLE
  5
24D6
330
21C5
100
AcDbSymbolTableRecord
100
AcDbTextStyleTableRecord
  2
style1
 70
     0
 40
0.0
 41
1.0
 50
0.0
 71
     0
 42
2.5
  3
ISOCP.SHX
  4

  0
ENDTAB
  0
TABLE
  2
VIEW
  5
21C8
330
0
100
AcDbSymbolTable
 70
     0
  0
ENDTAB
  0
TABLE
  2
UCS
  5
21C9
330
0
100
AcDbSymbolTable
 70
     0
  0
ENDTAB
  0
TABLE
  2
APPID
  5
21CB
330
0
100
AcDbSymbolTable
 70
    13
  0
APPID
  5
21D4
330
21CB
100
AcDbSymbolTableRecord
100
AcDbRegAppTableRecord
  2
ACAD
 70
     0
  0
APPID
  5
21EB
330
21CB
100
AcDbSymbolTableRecord
100
AcDbRegAppTableRecord
  2
GENIUS_GENDIM_13
 70
     0
  0
APPID
  5
21EC
330
21CB
100
AcDbSymbolTableRecord
100
AcDbRegAppTableRecord
  2
GENIUS_GENDTOL_13
 70
     0
  0
APPID
  5
21ED
330
21CB
100
AcDbSymbolTableRecord
100
AcDbRegAppTableRecord
  2
GENIUS_GE3DTOL_13
 70
     0
  0
APPID
  5
21EE
330
21CB
100
AcDbSymbolTableRecord
100
AcDbRegAppTableRecord
  2
MCAD_NO_VIS
 70
     0
  0
APPID
  5
21EF
330
21CB
100
AcDbSymbolTableRecord
100
AcDbRegAppTableRecord
  2
ACAD_TEMP_GRAPHIC
 70
     0
  0
APPID
  5
21F0
330
21CB
100
AcDbSymbolTableRecord
100
AcDbRegAppTableRecord
  2
AD_DRAW
 70
     0
  0
APPID
  5
21F1
330
21CB
100
AcDbSymbolTableRecord
100
AcDbRegAppTableRecord
  2
ACATTRIBSERVICES
 70
     0
  0
APPID
  5
21F2
330
21CB
100
AcDbSymbolTableRecord
100
AcDbRegAppTableRecord
  2
ASURF_PCURVE_APPNAME
 70
     0
  0
APPID
  5
21F3
330
21CB
100
AcDbSymbolTableRecord
100
AcDbRegAppTableRecord
  2
DESIGNERASSEMBLIES
 70
     0
  0
APPID
  5
21F4
330
21CB
100
AcDbSymbolTableRecord
100
AcDbRegAppTableRecord
  2
ACADM_DIM_EDIT
 70
     0
  0
APPID
  5
21F5
330
21CB
100
AcDbSymbolTableRecord
100
AcDbRegAppTableRecord
  2
G3V_ENTHND
 70
     0
  0
APPID
  5
21F6
330
21CB
100
AcDbSymbolTableRecord
100
AcDbRegAppTableRecord
  2
GENIUS_GENDIMSH_14
 70
     0
  0
ENDTAB
  0
TABLE
  2
DIMSTYLE
  5
21CC
330
0
100
AcDbSymbolTable
 70
     2
100
AcDbDimStyleTable
 71
     0
  0
DIMSTYLE
105
21F7
330
21CC
100
AcDbSymbolTableRecord
100
AcDbDimStyleTableRecord
  2
ISO-25
 70
     0
 41
2.5
 42
0.625
 43
3.75
 44
1.25
 73
     0
 74
     0
 77
     1
 78
     8
140
2.5
141
2.5
143
0.03937007874016
147
0.625
171
     3
172
     1
271
     2
272
     2
274
     3
279
     2
284
     8
285
     8
286
     8
340
21D3
  0
DIMSTYLE
105
24C4
330
21CC
100
AcDbSymbolTableRecord
100
AcDbDimStyleTableRecord
  2
Standard
 70
     0
340
21D3
  0
ENDTAB
  0
TABLE
  2
BLOCK_RECORD
  5
21C3
330
0
100
AcDbSymbolTable
 70
    26
  0
BLOCK_RECORD
  5
21E0
330
21C3
100
AcDbSymbolTableRecord
100
AcDbBlockTableRecord
  2
*Model_Space
340
21E3
  0
BLOCK_RECORD
  5
21DC
330
21C3
100
AcDbSymbolTableRecord
100
AcDbBlockTableRecord
  2
*Paper_Space
340
21DF
  0
BLOCK_RECORD
  5
21F9
330
21C3
100
AcDbSymbolTableRecord
100
AcDbBlockTableRecord
  2
$MODEL_SPACE
340
0
  0
BLOCK_RECORD
  5
21FC
330
21C3
100
AcDbSymbolTableRecord
100
AcDbBlockTableRecord
  2
$PAPER_SPACE
340
0
  0
BLOCK_RECORD
  5
2457
330
21C3
100
AcDbSymbolTableRecord
100
AcDbBlockTableRecord
  2
AI9-BLK14
340
0
310
2800000020000000200000000100080000000000000400000000000000000000000000000000000000000000000080000080000000808000800000008000800080800000C0C0C000C0DCC000F0CAA6000020400000206000002080000020A0000020C0000020E00000400000004020000040400000406000004080000040A0
310
000040C0000040E00000600000006020000060400000606000006080000060A0000060C0000060E00000800000008020000080400000806000008080000080A0000080C0000080E00000A0000000A0200000A0400000A0600000A0800000A0A00000A0C00000A0E00000C0000000C0200000C0400000C0600000C0800000C0
310
A00000C0C00000C0E00000E0000000E0200000E0400000E0600000E0800000E0A00000E0C00000E0E00040000000400020004000400040006000400080004000A0004000C0004000E00040200000402020004020400040206000402080004020A0004020C0004020E000404000004040200040404000404060004040800040
310
40A0004040C0004040E00040600000406020004060400040606000406080004060A0004060C0004060E00040800000408020004080400040806000408080004080A0004080C0004080E00040A0000040A0200040A0400040A0600040A0800040A0A00040A0C00040A0E00040C0000040C0200040C0400040C0600040C08000
310
40C0A00040C0C00040C0E00040E0000040E0200040E0400040E0600040E0800040E0A00040E0C00040E0E00080000000800020008000400080006000800080008000A0008000C0008000E00080200000802020008020400080206000802080008020A0008020C0008020E00080400000804020008040400080406000804080
310
008040A0008040C0008040E00080600000806020008060400080606000806080008060A0008060C0008060E00080800000808020008080400080806000808080008080A0008080C0008080E00080A0000080A0200080A0400080A0600080A0800080A0A00080A0C00080A0E00080C0000080C0200080C0400080C0600080C0
310
800080C0A00080C0C00080C0E00080E0000080E0200080E0400080E0600080E0800080E0A00080E0C00080E0E000C0000000C0002000C0004000C0006000C0008000C000A000C000C000C000E000C0200000C0202000C0204000C0206000C0208000C020A000C020C000C020E000C0400000C0402000C0404000C0406000C0
310
408000C040A000C040C000C040E000C0600000C0602000C0604000C0606000C0608000C060A000C060C000C060E000C0800000C0802000C0804000C0806000C0808000C080A000C080C000C080E000C0A00000C0A02000C0A04000C0A06000C0A08000C0A0A000C0A0C000C0A0E000C0C00000C0C02000C0C04000C0C06000
310
C0C08000C0C0A000F0FBFF00A4A0A000808080000000FF0000FF000000FFFF00FF000000FF00FF00FFFF0000FFFFFF00FF00FFFFFFFF00FFFFFFFFFFFFFFFFFFFFFFFFFFFFFFFFFFFFFFFFFFFFFFFFFFFF00FFFFFFFF00FFFFFFFFFFFFFFFFFFFFFFFFFFFFFFFFFFFFFFFFFFFFFFFFFFFF00FFFFFFFF00FFFFFFFFFFFFFFFF
310
FFFFFFFFFFFFFFFFFFFFFFFFFFFFFFFFFFFF00FFFFFFFF00FFFFFFFFFFFFFFFFFFFFFFFFFFFFFFFFFFFFFFFFFFFFFFFFFFFF00FFFFFFFF00FFFFFFFFFFFFFFFFFFFFFFFFFFFFFFFFFFFFFFFFFFFFFFFFFFFF00FFFFFFFF00FFFFFFFFFFFFFFFFFFFFFFFFFFFFFFFFFFFFFFFFFFFFFFFFFFFF00FFFFFFFF00FFFFFFFFFFFFFF
310
FFFFFFFFFFFFFFFFFFFFFFFFFFFFFFFFFFFFFF00FFFFFFFF00FFFFFFFFFFFFFFFFFFFFFFFFFFFFFFFFFFFFFFFFFFFFFFFFFFFF00FFFFFFFF00FFFFFFFFFFFFFFFFFFFFFFFFFFFFFFFFFFFFFFFFFFFFFFFFFFFF00FFFFFFFF00FFFFFFFFFFFFFFFFFFFFFFFFFFFFFFFFFFFFFFFFFFFFFFFFFFFF00FFFFFFFF00FFFFFFFFFFFF
310
FFFFFFFFFFFFFFFFFFFFFFFFFFFFFFFFFFFFFFFF00FFFFFFFF00FFFFFFFFFFFFFFFFFFFFFFFFFFFFFFFFFFFFFFFFFFFFFFFFFFFF00FFFFFFFF00FFFFFFFFFFFFFFFFFFFFFFFFFFFFFFFFFFFFFFFFFFFFFFFFFFFF00FFFFFFFF0000000000000000000000000000000000000000000000000000FF00FFFFFFFFFFFFFFFFFFFF
310
FFFFFFFFFFFFFFFFFFFFFFFFFFFFFFFFFFFFFFFFFF00FFFFFFFFFFFFFFFFFFFFFFFFFFFFFFFFFFFFFFFFFFFFFFFFFFFFFFFFFFFFFF00FFFFFFFFFFFFFFFFFFFFFFFFFFFFFFFFFFFFFFFFFFFFFFFFFFFFFFFFFFFFFF00FFFFFFFFFFFFFFFFFFFFFFFFFFFFFFFFFFFFFFFFFFFFFFFFFFFFFFFFFF00FF00000000000000000000
310
0000000000000000000000000000000000000000FFFFFFFFFFFFFFFFFFFFFFFFFFFFFFFFFFFFFFFFFFFFFFFFFFFFFFFFFFFFFFFFFFFFFFFFFFFFFFFFFFFFFFFFFFFFFFFFFFFFFFFFFFFFFFFFFFFFFFFFFFFFFFFFFFFFFFFFFFFFFFFFFFFFFFFFFFFFFFFFFFFFFFFFFFFFFFFFFFFFFFFFFFFFFFFFFFFFFFFFFFFFFFFFFFFFFF
310
FFFFFFFFFFFFFFFFFFFFFFFFFFFFFFFFFFFFFFFFFFFFFFFFFFFFFFFFFFFFFFFFFFFFFFFFFFFFFFFFFFFFFFFFFFFFFFFFFFFFFFFFFFFFFFFFFFFFFFFFFFFFFFFFFFFFFFFFFFFFFFFFFFFFFFFFFFFFFFFFFFFFFFFFFFFFFFFFFFFFFFFFFFFFFFFFFFFFFFFFFFFFFFFFFFFFFFFFFFFFFFFFFFFFFFFFFFFFFFFFFFFFFFFFFFFFFF
310
FFFFFFFFFFFFFFFFFFFFFFFFFFFFFFFFFFFFFFFFFFFFFFFFFFFFFFFFFFFFFFFFFFFFFFFFFFFFFFFFFFFFFFFFFFFFFFFFFFFFFFFFFFFFFFFFFFFFFFFFFFFFFFFFFFFFFFFFFFFFFFFFFFFFFFFFFFFFFFFFFFFFFFFFFFFFFFFFFFFFFFFFFFFFFFFFFFFFFFFFFFFFFFFFFFFFFFFFFFFFFFFFFFFFFFFFFFFFFFFFFFFFFFFFFFFFFF
310
FFFFFFFFFFFFFFFFFFFFFFFFFFFFFFFFFFFFFFFFFFFFFFFFFFFFFFFFFFFFFFFFFFFFFFFFFFFFFFFFFFFFFFFFFFFFFFFFFFFFFFFFFFFFFFFF
102
{BLKREFS
331
2498
102
}
  0
BLOCK_RECORD
  5
245C
330
21C3
100
AcDbSymbolTableRecord
100
AcDbBlockTableRecord
  2
AI9-BLK13
340
0
310
2800000020000000200000000100080000000000000400000000000000000000000000000000000000000000000080000080000000808000800000008000800080800000C0C0C000C0DCC000F0CAA6000020400000206000002080000020A0000020C0000020E00000400000004020000040400000406000004080000040A0
310
000040C0000040E00000600000006020000060400000606000006080000060A0000060C0000060E00000800000008020000080400000806000008080000080A0000080C0000080E00000A0000000A0200000A0400000A0600000A0800000A0A00000A0C00000A0E00000C0000000C0200000C0400000C0600000C0800000C0
310
A00000C0C00000C0E00000E0000000E0200000E0400000E0600000E0800000E0A00000E0C00000E0E00040000000400020004000400040006000400080004000A0004000C0004000E00040200000402020004020400040206000402080004020A0004020C0004020E000404000004040200040404000404060004040800040
310
40A0004040C0004040E00040600000406020004060400040606000406080004060A0004060C0004060E00040800000408020004080400040806000408080004080A0004080C0004080E00040A0000040A0200040A0400040A0600040A0800040A0A00040A0C00040A0E00040C0000040C0200040C0400040C0600040C08000
310
40C0A00040C0C00040C0E00040E0000040E0200040E0400040E0600040E0800040E0A00040E0C00040E0E00080000000800020008000400080006000800080008000A0008000C0008000E00080200000802020008020400080206000802080008020A0008020C0008020E00080400000804020008040400080406000804080
310
008040A0008040C0008040E00080600000806020008060400080606000806080008060A0008060C0008060E00080800000808020008080400080806000808080008080A0008080C0008080E00080A0000080A0200080A0400080A0600080A0800080A0A00080A0C00080A0E00080C0000080C0200080C0400080C0600080C0
310
800080C0A00080C0C00080C0E00080E0000080E0200080E0400080E0600080E0800080E0A00080E0C00080E0E000C0000000C0002000C0004000C0006000C0008000C000A000C000C000C000E000C0200000C0202000C0204000C0206000C0208000C020A000C020C000C020E000C0400000C0402000C0404000C0406000C0
310
408000C040A000C040C000C040E000C0600000C0602000C0604000C0606000C0608000C060A000C060C000C060E000C0800000C0802000C0804000C0806000C0808000C080A000C080C000C080E000C0A00000C0A02000C0A04000C0A06000C0A08000C0A0A000C0A0C000C0A0E000C0C00000C0C02000C0C04000C0C06000
310
C0C08000C0C0A000F0FBFF00A4A0A000808080000000FF0000FF000000FFFF00FF000000FF00FF00FFFF0000FFFFFF00FFFFFFFFFFFFFFFFFFFFFFFFFFFFFFFFFFFFFFFFFFFFFFFFFFFFFFFFFFFFFFFFFFFFFFFFFFFFFFFFFFFFFF0000FFFFFFFFFFFF0000FFFFFFFFFFFFFFFFFFFFFFFFFFFFFFFFFFFFFFFFFFFF0000FFFF
310
FFFFFFFF0000FFFFFFFFFFFFFFFFFFFFFFFFFFFFFFFFFFFFFFFFFFFF0000FFFFFFFFFFFF0000FFFFFFFFFFFFFFFFFFFFFFFFFFFFFFFFFFFFFFFFFFFF0000FFFFFFFFFFFF0000FFFFFFFFFFFFFFFFFFFFFFFFFFFFFFFFFFFFFFFFFFFF0000FFFFFFFFFFFF0000FFFFFFFFFFFFFFFFFFFFFFFFFFFFFFFFFFFFFFFFFFFF0000FF
310
FFFFFFFFFF0000FFFFFFFFFFFFFFFFFFFFFFFFFFFFFFFFFFFFFFFFFFFF0000FFFFFFFFFFFF0000FFFFFFFFFFFFFFFFFFFFFFFFFFFFFFFFFFFFFFFFFFFF0000FFFFFFFFFFFF0000FFFFFFFFFFFFFFFFFFFFFFFFFFFFFFFFFFFFFFFFFFFF0000FFFFFFFFFFFF0000FFFFFFFFFFFFFFFFFFFFFFFFFFFFFFFFFFFFFFFFFFFF0000
310
FFFFFFFFFFFF0000FFFFFFFFFFFFFFFFFFFFFFFFFFFFFFFFFFFFFFFFFFFF0000FFFFFFFFFFFF0000FFFFFFFFFFFFFFFFFFFFFFFFFFFFFFFFFFFFFFFFFFFF0000FFFFFFFFFFFF0000FFFFFFFFFFFFFFFFFFFFFFFFFFFFFFFFFFFFFFFFFFFF0000FFFFFFFFFFFF0000FFFFFFFFFFFFFFFFFFFFFFFFFFFFFFFFFFFFFFFFFFFF00
310
00FFFFFFFFFFFF0000FFFFFFFFFFFFFFFFFFFFFFFFFFFFFFFFFFFFFFFFFFFF00000000000000000000FFFFFFFFFFFFFFFFFFFFFFFFFFFFFFFFFFFFFFFFFFFF00FFFFFFFFFFFFFFFF00FFFFFFFFFFFFFFFFFFFFFFFFFFFFFFFFFFFFFFFFFFFF00FFFFFFFFFFFFFFFF00FFFFFFFFFFFFFFFFFFFFFFFFFFFFFFFFFFFFFFFFFFFF
310
00000000000000000000FFFFFFFFFFFFFFFFFFFFFFFFFFFFFFFFFFFFFFFFFFFF0000FFFFFFFFFFFF0000FFFFFFFFFFFFFFFFFFFFFFFFFFFFFFFFFFFFFFFFFFFF0000FFFFFFFFFFFF0000FFFFFFFFFFFFFFFFFFFFFFFFFFFFFFFFFFFFFFFFFFFF0000FFFFFFFFFFFF0000FFFFFFFFFFFFFFFFFFFFFFFFFFFFFFFFFFFFFFFFFF
310
FF0000FFFFFFFFFFFF0000FFFFFFFFFFFFFFFFFFFFFFFFFFFFFFFFFFFFFFFFFFFF0000FFFFFFFFFFFF0000FFFFFFFFFFFFFFFFFFFFFFFFFFFFFFFFFFFFFFFFFFFF0000FFFFFFFFFFFF0000FFFFFFFFFFFFFFFFFFFFFFFFFFFFFFFFFFFFFFFFFFFF0000FFFFFFFFFFFF0000FFFFFFFFFFFFFFFFFFFFFFFFFFFFFFFFFFFFFFFF
310
FFFF0000FFFFFFFFFFFF0000FFFFFFFFFFFFFFFFFFFFFFFFFFFFFFFFFFFFFFFFFFFF0000FFFFFFFFFFFF0000FFFFFFFFFFFFFFFFFFFFFFFFFFFFFFFFFFFFFFFFFFFF0000FFFFFFFFFFFF0000FFFFFFFFFFFFFFFFFFFFFFFFFFFFFFFFFFFFFFFFFFFF0000FFFFFFFFFFFF0000FFFFFFFFFFFFFFFFFFFFFFFFFFFFFFFFFFFFFF
310
FFFFFF0000FFFFFFFFFFFF0000FFFFFFFFFFFFFFFFFFFFFFFFFFFFFFFFFFFFFFFFFFFFFFFFFFFFFFFFFFFFFFFFFFFFFFFFFFFFFFFFFFFFFF
102
{BLKREFS
331
2499
102
}
  0
BLOCK_RECORD
  5
2461
330
21C3
100
AcDbSymbolTableRecord
100
AcDbBlockTableRecord
  2
AI9-BLK11
340
0
310
2800000020000000200000000100080000000000000400000000000000000000000000000000000000000000000080000080000000808000800000008000800080800000C0C0C000C0DCC000F0CAA6000020400000206000002080000020A0000020C0000020E00000400000004020000040400000406000004080000040A0
310
000040C0000040E00000600000006020000060400000606000006080000060A0000060C0000060E00000800000008020000080400000806000008080000080A0000080C0000080E00000A0000000A0200000A0400000A0600000A0800000A0A00000A0C00000A0E00000C0000000C0200000C0400000C0600000C0800000C0
310
A00000C0C00000C0E00000E0000000E0200000E0400000E0600000E0800000E0A00000E0C00000E0E00040000000400020004000400040006000400080004000A0004000C0004000E00040200000402020004020400040206000402080004020A0004020C0004020E000404000004040200040404000404060004040800040
310
40A0004040C0004040E00040600000406020004060400040606000406080004060A0004060C0004060E00040800000408020004080400040806000408080004080A0004080C0004080E00040A0000040A0200040A0400040A0600040A0800040A0A00040A0C00040A0E00040C0000040C0200040C0400040C0600040C08000
310
40C0A00040C0C00040C0E00040E0000040E0200040E0400040E0600040E0800040E0A00040E0C00040E0E00080000000800020008000400080006000800080008000A0008000C0008000E00080200000802020008020400080206000802080008020A0008020C0008020E00080400000804020008040400080406000804080
310
008040A0008040C0008040E00080600000806020008060400080606000806080008060A0008060C0008060E00080800000808020008080400080806000808080008080A0008080C0008080E00080A0000080A0200080A0400080A0600080A0800080A0A00080A0C00080A0E00080C0000080C0200080C0400080C0600080C0
310
800080C0A00080C0C00080C0E00080E0000080E0200080E0400080E0600080E0800080E0A00080E0C00080E0E000C0000000C0002000C0004000C0006000C0008000C000A000C000C000C000E000C0200000C0202000C0204000C0206000C0208000C020A000C020C000C020E000C0400000C0402000C0404000C0406000C0
310
408000C040A000C040C000C040E000C0600000C0602000C0604000C0606000C0608000C060A000C060C000C060E000C0800000C0802000C0804000C0806000C0808000C080A000C080C000C080E000C0A00000C0A02000C0A04000C0A06000C0A08000C0A0A000C0A0C000C0A0E000C0C00000C0C02000C0C04000C0C06000
310
C0C08000C0C0A000F0FBFF00A4A0A000808080000000FF0000FF000000FFFF00FF000000FF00FF00FFFF0000FFFFFF00FFFFFFFFFFFFFFFFFFFFFFFFFFFFFFFFFFFFFFFFFFFFFFFFFFFFFFFFFFFFFFFFFFFFFFFFFFFFFFFFFFFFFFFFFFFF00000000FFFFFFFFFFFFFFFFFFFFFF000000FFFFFFFFFFFFFFFFFFFFFFFFFFFF00
310
FFFF00FFFFFFFFFFFFFFFFFFFFFF00FFFFFFFFFFFFFFFFFFFFFFFFFFFFFFFF00FFFF00FFFFFFFFFFFFFFFFFFFFFF00FFFFFFFFFFFFFFFFFFFFFFFFFFFFFFFF00FFFF00FFFFFFFFFFFFFFFFFFFFFF00FFFFFFFFFFFFFFFFFFFFFFFFFFFFFFFF00FFFF00FFFFFFFFFFFFFFFFFFFFFF00FFFFFFFFFFFFFFFFFFFFFFFFFFFFFFFF
310
00FFFF00FFFFFFFFFFFFFFFFFFFFFF00FFFFFFFFFFFFFFFFFFFFFFFFFFFFFFFF00FFFF00FFFFFFFFFFFFFFFFFFFFFF00FFFFFFFFFFFFFFFFFFFFFFFFFFFFFFFF00FFFF00FFFFFFFFFFFFFFFFFFFFFF00FFFFFFFFFFFFFFFFFFFFFFFFFFFFFFFF00FFFF00FFFFFFFFFFFFFFFFFFFFFF00FFFFFFFFFFFFFFFFFFFFFFFFFFFFFF
310
FF00FFFF00FFFFFFFFFFFFFFFFFFFFFF00FFFFFFFFFFFFFFFFFFFFFFFFFFFFFFFF00FFFF00FFFFFFFFFFFFFFFFFFFFFF00FFFFFFFFFFFFFFFFFFFFFFFFFFFFFFFF00FFFF00FFFFFFFFFFFFFFFFFFFFFF00FFFFFFFFFFFFFFFFFFFFFFFFFFFFFFFF00FFFF00FFFFFFFFFFFFFFFFFFFFFF00FFFFFFFFFFFFFFFFFFFFFFFFFFFF
310
FFFF00FFFF00FFFFFFFFFFFFFFFFFFFFFF00FFFFFFFFFFFFFFFFFFFFFFFFFFFFFFFF00FFFF00FFFFFFFFFFFFFFFFFFFFFF00FFFFFFFFFFFFFFFFFFFFFFFFFFFFFFFF00FFFF00FFFFFFFFFFFFFFFFFFFFFF00FFFFFFFFFFFFFFFFFFFFFFFFFFFFFFFF00FFFF00FFFFFFFFFFFFFFFFFFFF00FFFFFFFFFFFFFFFFFFFFFFFFFFFF
310
FFFFFF00FFFF00FFFFFFFFFFFFFFFFFFFF00FFFFFFFFFFFFFFFFFFFFFFFFFFFFFFFFFF00FFFF00FFFFFFFFFFFFFFFFFFFF00FFFFFFFFFFFFFFFFFFFFFFFFFFFFFFFFFF00FFFF00FFFFFFFFFFFFFFFFFFFF00FFFFFFFFFFFFFFFFFFFFFFFFFFFFFFFFFF00FFFF00FFFFFFFFFFFFFFFFFFFF00FFFFFFFFFFFFFFFFFFFFFFFFFF
310
FFFFFFFF00FFFF00FFFFFFFFFFFFFFFFFF0000FFFF00FFFFFFFFFFFFFFFFFFFFFFFFFFFF00FFFF00FFFFFFFFFFFFFFFF0000FFFFFF00FFFFFFFFFFFFFFFFFFFFFFFFFFFF00FFFF00000000000000000000FFFFFFFF00FFFFFFFFFFFFFFFFFFFFFFFFFFFF00FFFFFFFFFFFFFFFFFFFFFFFFFFFFFF00FFFFFFFFFFFFFFFFFFFF
310
FFFFFFFFFF00FFFFFFFFFFFFFFFFFFFFFFFFFFFF00FFFFFFFFFFFFFFFFFFFFFFFFFFFFFFFF00FFFFFFFFFFFFFFFFFFFFFFFFFFFF00FFFFFFFFFFFFFFFFFFFFFFFFFFFFFFFF00FFFFFFFFFFFFFFFFFFFFFFFFFFFFFF00FFFFFFFFFFFFFFFFFFFFFFFFFFFFFF00FFFFFFFFFFFFFFFFFFFFFFFFFFFFFF00FFFFFFFFFFFFFFFFFF
310
FFFFFFFFFFFF00FFFF00000000000000000000FFFFFFFF00FFFFFFFFFFFFFFFFFFFFFFFFFFFF00FFFF00FFFFFFFFFFFFFFFFFF0000FFFF00
102
{BLKREFS
331
249A
102
}
  0
BLOCK_RECORD
  5
2466
330
21C3
100
AcDbSymbolTableRecord
100
AcDbBlockTableRecord
  2
AI9-BLK10
340
0
310
2800000020000000200000000100080000000000000400000000000000000000000000000000000000000000000080000080000000808000800000008000800080800000C0C0C000C0DCC000F0CAA6000020400000206000002080000020A0000020C0000020E00000400000004020000040400000406000004080000040A0
310
000040C0000040E00000600000006020000060400000606000006080000060A0000060C0000060E00000800000008020000080400000806000008080000080A0000080C0000080E00000A0000000A0200000A0400000A0600000A0800000A0A00000A0C00000A0E00000C0000000C0200000C0400000C0600000C0800000C0
310
A00000C0C00000C0E00000E0000000E0200000E0400000E0600000E0800000E0A00000E0C00000E0E00040000000400020004000400040006000400080004000A0004000C0004000E00040200000402020004020400040206000402080004020A0004020C0004020E000404000004040200040404000404060004040800040
310
40A0004040C0004040E00040600000406020004060400040606000406080004060A0004060C0004060E00040800000408020004080400040806000408080004080A0004080C0004080E00040A0000040A0200040A0400040A0600040A0800040A0A00040A0C00040A0E00040C0000040C0200040C0400040C0600040C08000
310
40C0A00040C0C00040C0E00040E0000040E0200040E0400040E0600040E0800040E0A00040E0C00040E0E00080000000800020008000400080006000800080008000A0008000C0008000E00080200000802020008020400080206000802080008020A0008020C0008020E00080400000804020008040400080406000804080
310
008040A0008040C0008040E00080600000806020008060400080606000806080008060A0008060C0008060E00080800000808020008080400080806000808080008080A0008080C0008080E00080A0000080A0200080A0400080A0600080A0800080A0A00080A0C00080A0E00080C0000080C0200080C0400080C0600080C0
310
800080C0A00080C0C00080C0E00080E0000080E0200080E0400080E0600080E0800080E0A00080E0C00080E0E000C0000000C0002000C0004000C0006000C0008000C000A000C000C000C000E000C0200000C0202000C0204000C0206000C0208000C020A000C020C000C020E000C0400000C0402000C0404000C0406000C0
310
408000C040A000C040C000C040E000C0600000C0602000C0604000C0606000C0608000C060A000C060C000C060E000C0800000C0802000C0804000C0806000C0808000C080A000C080C000C080E000C0A00000C0A02000C0A04000C0A06000C0A08000C0A0A000C0A0C000C0A0E000C0C00000C0C02000C0C04000C0C06000
310
C0C08000C0C0A000F0FBFF00A4A0A000808080000000FF0000FF000000FFFF00FF000000FF00FF00FFFF0000FFFFFF00FFFFFFFFFFFFFFFFFFFFFFFFFFFFFFFF00FFFFFFFFFFFFFFFFFFFFFFFF00FFFFFFFFFFFFFFFFFFFFFFFFFFFFFFFFFFFF00FFFFFFFFFFFFFFFFFFFFFF00FFFFFFFFFFFFFFFFFFFFFFFFFFFFFFFFFFFF
310
FF00FFFFFFFFFFFFFFFFFFFFFF00FFFFFFFFFFFFFFFFFFFFFFFFFFFFFFFFFFFFFF00FFFFFFFFFFFFFFFFFFFFFF00FFFFFFFFFFFFFFFFFFFFFFFFFFFFFFFFFFFFFF00FFFFFFFFFFFFFFFFFFFFFF00FFFFFFFFFFFFFFFFFFFFFFFFFFFFFFFFFFFFFF00FFFFFFFFFFFFFFFFFFFFFF00FFFFFFFFFFFFFFFFFFFFFFFFFFFFFFFFFF
310
FFFF00FFFFFFFFFFFFFFFFFFFFFF00FFFFFFFFFFFFFFFFFFFFFFFFFFFFFFFFFFFFFF00FFFFFFFFFFFFFFFFFFFF00FFFFFFFFFFFFFFFFFFFFFFFFFFFFFFFFFFFFFFFF00FFFFFFFFFFFFFFFFFFFF00FFFFFFFFFFFFFFFFFFFFFFFFFFFFFFFFFFFFFFFF00FFFFFFFFFFFFFFFFFFFF00FFFFFFFFFFFFFFFFFFFFFFFFFFFFFFFFFF
310
FFFFFF00FFFFFFFFFFFFFFFFFFFF00FFFFFFFFFFFFFFFFFFFFFFFFFFFFFFFFFFFFFFFF00FFFFFFFFFFFFFFFFFFFF00FFFFFFFFFFFFFFFFFFFFFFFFFFFFFFFFFFFFFFFF00FFFFFFFFFFFFFFFFFFFF00FFFFFFFFFFFFFFFFFFFFFFFFFFFFFFFFFFFFFFFF00FFFFFFFFFFFFFFFFFF00FFFFFFFFFFFFFFFFFFFFFFFFFFFFFFFFFF
310
FFFFFFFF00FFFFFFFFFFFFFFFFFF00FFFFFFFFFFFFFFFFFFFFFFFFFFFFFFFFFFFFFFFFFF00FFFFFFFFFFFFFFFFFF00FFFFFFFFFFFFFFFFFFFFFFFFFFFFFFFFFFFFFFFFFF0000000000000000000000FFFFFFFFFFFFFFFFFFFFFFFFFFFFFFFFFFFFFFFFFFFFFFFFFFFFFFFFFFFFFFFFFFFFFFFFFFFFFFFFFFFFFFFFFFFFFFFF
310
FFFFFFFFFFFFFFFFFFFFFFFFFFFFFFFFFFFFFFFFFFFFFFFFFFFFFFFFFFFFFFFFFFFFFFFFFFFFFFFFFFFFFFFFFFFFFFFFFFFFFFFFFFFFFFFFFFFFFFFFFFFFFFFFFFFFFFFFFFFFFFFFFFFFFFFFFFFFFFFFFFFFFFFFFFFFFFFFFFFFFFFFFFFFFFFFFFFFFFFFFFFFFFFFFFFFFFFFFFFFFFFFFFFFFFFFFFFFFFFFFFFFFFFFFFFFFF
310
FFFFFFFFFFFFFFFFFFFFFFFFFFFFFFFFFFFFFFFFFFFFFFFFFFFFFFFFFFFFFFFFFFFFFFFFFFFFFFFFFFFFFFFFFFFFFFFFFFFFFFFFFFFFFFFFFFFFFFFFFFFFFFFFFFFFFFFFFFFFFFFFFFFFFFFFFFFFFFFFFFFFFFFFFFFFFFFFFFFFFFFFFFFFFFFFFFFFFFFFFFFFFFFFFFFFFFFFFFFFFFFFFFFFFFFFFFFFFFFFFFFFFFFFFFFFFF
310
FFFFFFFFFFFFFFFFFFFFFFFFFFFFFFFFFFFFFFFFFFFFFFFFFFFFFFFFFFFFFFFFFFFFFFFFFFFFFFFFFFFFFFFFFFFFFFFFFFFFFFFFFFFFFFFFFFFFFFFFFFFFFFFFFFFFFFFFFFFFFFFFFFFFFFFFFFFFFFFFFFFFFFFFFFFFFFFFFFFFFFFFFFFFFFFFFFFFFFFFFFFFFFFFFFFFFFFFFFFFFFFFFFFFFFFFFFFFFFFFFFFFFFFFFFFFFF
310
FFFFFFFFFFFFFFFFFFFFFFFFFFFFFFFFFFFFFFFFFFFFFFFFFFFFFFFFFFFFFFFFFFFFFFFFFFFFFFFFFFFFFFFFFFFFFFFFFFFFFFFFFFFFFFFF
102
{BLKREFS
331
249B
102
}
  0
BLOCK_RECORD
  5
246A
330
21C3
100
AcDbSymbolTableRecord
100
AcDbBlockTableRecord
  2
AI9-BLK9
340
0
310
2800000020000000200000000100080000000000000400000000000000000000000000000000000000000000000080000080000000808000800000008000800080800000C0C0C000C0DCC000F0CAA6000020400000206000002080000020A0000020C0000020E00000400000004020000040400000406000004080000040A0
310
000040C0000040E00000600000006020000060400000606000006080000060A0000060C0000060E00000800000008020000080400000806000008080000080A0000080C0000080E00000A0000000A0200000A0400000A0600000A0800000A0A00000A0C00000A0E00000C0000000C0200000C0400000C0600000C0800000C0
310
A00000C0C00000C0E00000E0000000E0200000E0400000E0600000E0800000E0A00000E0C00000E0E00040000000400020004000400040006000400080004000A0004000C0004000E00040200000402020004020400040206000402080004020A0004020C0004020E000404000004040200040404000404060004040800040
310
40A0004040C0004040E00040600000406020004060400040606000406080004060A0004060C0004060E00040800000408020004080400040806000408080004080A0004080C0004080E00040A0000040A0200040A0400040A0600040A0800040A0A00040A0C00040A0E00040C0000040C0200040C0400040C0600040C08000
310
40C0A00040C0C00040C0E00040E0000040E0200040E0400040E0600040E0800040E0A00040E0C00040E0E00080000000800020008000400080006000800080008000A0008000C0008000E00080200000802020008020400080206000802080008020A0008020C0008020E00080400000804020008040400080406000804080
310
008040A0008040C0008040E00080600000806020008060400080606000806080008060A0008060C0008060E00080800000808020008080400080806000808080008080A0008080C0008080E00080A0000080A0200080A0400080A0600080A0800080A0A00080A0C00080A0E00080C0000080C0200080C0400080C0600080C0
310
800080C0A00080C0C00080C0E00080E0000080E0200080E0400080E0600080E0800080E0A00080E0C00080E0E000C0000000C0002000C0004000C0006000C0008000C000A000C000C000C000E000C0200000C0202000C0204000C0206000C0208000C020A000C020C000C020E000C0400000C0402000C0404000C0406000C0
310
408000C040A000C040C000C040E000C0600000C0602000C0604000C0606000C0608000C060A000C060C000C060E000C0800000C0802000C0804000C0806000C0808000C080A000C080C000C080E000C0A00000C0A02000C0A04000C0A06000C0A08000C0A0A000C0A0C000C0A0E000C0C00000C0C02000C0C04000C0C06000
310
C0C08000C0C0A000F0FBFF00A4A0A000808080000000FF0000FF000000FFFF00FF000000FF00FF00FFFF0000FFFFFF00FFFFFFFFFFFFFFFFFFFFFFFFFFFFFFFFFFFFFFFFFFFFFFFFFFFFFFFFFFFFFFFFFFFFFFFFFFFFFFFFFFFFFFFFFFFFFF0000FFFFFFFFFFFFFFFFFFFFFFFFFFFFFFFFFFFFFFFFFFFFFFFFFFFFFFFF0000
310
FF0000FFFFFFFFFFFFFFFFFFFFFFFFFFFFFFFFFFFFFFFFFFFFFFFFFFFFFF00FFFFFF0000FFFFFFFFFFFFFFFFFFFFFFFFFFFFFFFFFFFFFFFFFFFFFFFFFFFF00FFFFFFFF0000FFFFFFFFFFFFFFFFFFFFFFFFFFFFFFFFFFFFFFFFFFFFFFFF00FF00000000FF00FFFFFFFFFFFFFFFFFFFFFFFFFFFFFFFFFFFFFFFFFFFFFFFF0000
310
00FFFF00FF00FFFFFFFFFFFFFFFFFFFFFFFFFFFFFFFFFFFFFFFFFFFFFFFF0000FFFFFFFF0000FFFFFFFFFFFFFFFFFFFFFFFFFFFFFFFFFFFFFFFFFFFFFFFF0000FFFFFFFF0000FFFFFFFFFFFFFFFFFFFFFFFFFFFFFFFFFFFFFFFFFFFFFF00FF00FFFFFFFF00FF00FFFFFFFFFFFFFFFFFFFFFFFFFFFFFFFFFFFFFFFFFFFF0000
310
FFFFFFFFFF00FF00FFFFFFFFFFFFFFFFFFFFFFFFFFFFFFFFFFFFFFFFFFFF0000FFFFFFFFFFFF0000FFFFFFFFFFFFFFFFFFFFFFFFFFFFFFFFFFFFFFFFFFFF0000FFFFFFFFFFFF0000FFFFFFFFFFFFFFFFFFFFFFFFFFFFFFFFFFFFFFFFFFFF0000FFFFFFFFFFFF0000FFFFFFFFFFFFFFFFFFFFFFFFFFFFFFFFFFFFFFFFFFFF00
310
00FFFFFFFFFFFF0000FFFFFFFFFFFFFFFFFFFFFFFFFFFFFFFFFFFFFFFFFFFF0000FFFFFFFFFFFF0000FFFFFFFFFFFFFFFFFFFFFFFFFFFFFFFFFFFFFFFFFFFF0000FFFFFFFFFFFF0000FFFFFFFFFFFFFFFFFFFFFFFFFFFFFFFFFFFFFFFFFFFF0000FFFFFFFFFFFF0000FFFFFFFFFFFFFFFFFFFFFFFFFFFFFFFFFFFFFFFFFFFF
310
0000FFFFFFFFFFFF0000FFFFFFFFFFFFFFFFFFFFFFFFFFFFFFFFFFFFFFFFFFFF0000FFFFFFFFFFFF0000FFFFFFFFFFFFFFFFFFFFFFFFFFFFFFFFFFFFFFFFFFFF0000FFFFFFFFFFFF0000FFFFFFFFFFFFFFFFFFFFFFFFFFFFFFFFFFFFFFFFFFFF00FF00FFFFFFFF00FF00FFFFFFFFFFFFFFFFFFFFFFFFFFFFFFFFFFFFFFFFFF
310
FF00FF00FFFFFFFF00FF00FFFFFFFFFFFFFFFFFFFFFFFFFFFFFFFFFFFFFFFFFFFF00FF00FFFFFFFF00FF00FFFFFFFFFFFFFFFFFFFFFFFFFFFFFFFFFFFFFFFFFFFFFF0000FFFFFFFF0000FFFFFFFFFFFFFFFFFFFFFFFFFFFFFFFFFFFFFFFFFFFFFFFF00FF00FFFF00FF00FFFFFFFFFFFFFFFFFFFFFFFFFFFFFFFFFFFFFFFFFF
310
FFFFFF00FF00000000FF00FFFFFFFFFFFFFFFFFFFFFFFFFFFFFFFFFFFFFFFFFFFFFFFFFF00FFFFFFFF0000FFFFFFFFFFFFFFFFFFFFFFFFFFFFFFFFFFFFFFFFFFFFFFFFFF00FFFFFFFF00FFFFFFFFFFFFFFFFFFFFFFFFFFFFFFFFFFFFFFFFFFFFFFFFFFFFFF00000000FFFFFFFFFFFFFFFFFFFFFFFFFFFFFFFFFFFFFFFFFFFF
310
FFFFFFFFFFFFFF0000FFFFFFFFFFFFFFFFFFFFFFFFFFFFFFFFFFFFFFFFFFFFFFFFFFFFFFFFFFFFFFFFFFFFFFFFFFFFFFFFFFFFFFFFFFFFFF
102
{BLKREFS
331
249C
102
}
  0
BLOCK_RECORD
  5
246F
330
21C3
100
AcDbSymbolTableRecord
100
AcDbBlockTableRecord
  2
AI9-BLK8
340
0
310
2800000020000000200000000100080000000000000400000000000000000000000000000000000000000000000080000080000000808000800000008000800080800000C0C0C000C0DCC000F0CAA6000020400000206000002080000020A0000020C0000020E00000400000004020000040400000406000004080000040A0
310
000040C0000040E00000600000006020000060400000606000006080000060A0000060C0000060E00000800000008020000080400000806000008080000080A0000080C0000080E00000A0000000A0200000A0400000A0600000A0800000A0A00000A0C00000A0E00000C0000000C0200000C0400000C0600000C0800000C0
310
A00000C0C00000C0E00000E0000000E0200000E0400000E0600000E0800000E0A00000E0C00000E0E00040000000400020004000400040006000400080004000A0004000C0004000E00040200000402020004020400040206000402080004020A0004020C0004020E000404000004040200040404000404060004040800040
310
40A0004040C0004040E00040600000406020004060400040606000406080004060A0004060C0004060E00040800000408020004080400040806000408080004080A0004080C0004080E00040A0000040A0200040A0400040A0600040A0800040A0A00040A0C00040A0E00040C0000040C0200040C0400040C0600040C08000
310
40C0A00040C0C00040C0E00040E0000040E0200040E0400040E0600040E0800040E0A00040E0C00040E0E00080000000800020008000400080006000800080008000A0008000C0008000E00080200000802020008020400080206000802080008020A0008020C0008020E00080400000804020008040400080406000804080
310
008040A0008040C0008040E00080600000806020008060400080606000806080008060A0008060C0008060E00080800000808020008080400080806000808080008080A0008080C0008080E00080A0000080A0200080A0400080A0600080A0800080A0A00080A0C00080A0E00080C0000080C0200080C0400080C0600080C0
310
800080C0A00080C0C00080C0E00080E0000080E0200080E0400080E0600080E0800080E0A00080E0C00080E0E000C0000000C0002000C0004000C0006000C0008000C000A000C000C000C000E000C0200000C0202000C0204000C0206000C0208000C020A000C020C000C020E000C0400000C0402000C0404000C0406000C0
310
408000C040A000C040C000C040E000C0600000C0602000C0604000C0606000C0608000C060A000C060C000C060E000C0800000C0802000C0804000C0806000C0808000C080A000C080C000C080E000C0A00000C0A02000C0A04000C0A06000C0A08000C0A0A000C0A0C000C0A0E000C0C00000C0C02000C0C04000C0C06000
310
C0C08000C0C0A000F0FBFF00A4A0A000808080000000FF0000FF000000FFFF00FF000000FF00FF00FFFF0000FFFFFF00FFFFFFFFFFFFFFFFFFFFFFFFFFFFFFFFFFFFFFFFFFFFFFFFFFFFFFFFFFFFFFFFFFFFFFFFFFFFFFFFFFFFFF0000FFFFFFFFFFFF0000FFFFFFFFFFFFFFFFFFFFFFFFFFFFFFFFFFFFFFFFFFFF0000FFFF
310
FFFFFFFF0000FFFFFFFFFFFFFFFFFFFFFFFFFFFFFFFFFFFFFFFFFFFF0000FFFFFFFFFF00FF00FFFFFFFFFFFFFFFFFFFFFFFFFFFFFFFFFFFFFFFFFFFF0000FFFFFFFFFF00FF00FFFFFFFFFFFFFFFFFFFFFFFFFFFFFFFFFFFFFFFFFFFF0000FFFFFFFFFF00FF00FFFFFFFFFFFFFFFFFFFFFFFFFFFFFFFFFFFFFFFFFFFF0000FF
310
FFFFFF00FFFF00FFFFFFFFFFFFFFFFFFFFFFFFFFFFFFFFFFFFFFFFFFFF0000FFFFFFFF00FF0000FFFFFFFFFFFFFFFFFFFFFFFFFFFFFFFFFFFFFFFFFFFF0000FFFFFFFF00FF0000FFFFFFFFFFFFFFFFFFFFFFFFFFFFFFFFFFFFFFFFFFFF0000FFFFFFFF00000000FFFFFFFFFFFFFFFFFFFFFFFFFFFFFFFFFFFFFFFFFFFF0000
310
FFFFFF00FF000000FFFFFFFFFFFFFFFFFFFFFFFFFFFFFFFFFFFFFFFFFFFF0000FFFFFF00FF000000FFFFFFFFFFFFFFFFFFFFFFFFFFFFFFFFFFFFFFFFFFFF0000FFFFFF00FF000000FFFFFFFFFFFFFFFFFFFFFFFFFFFFFFFFFFFFFFFFFFFF0000FFFF00FF00FF0000FFFFFFFFFFFFFFFFFFFFFFFFFFFFFFFFFFFFFFFFFFFF00
310
00FFFF00FF00FF0000FFFFFFFFFFFFFFFFFFFFFFFFFFFFFFFFFFFFFFFFFFFF0000FFFF00FF00FF0000FFFFFFFFFFFFFFFFFFFFFFFFFFFFFFFFFFFFFFFFFFFF0000FF00FFFF00FF0000FFFFFFFFFFFFFFFFFFFFFFFFFFFFFFFFFFFFFFFFFFFF0000FF00FF00FFFF0000FFFFFFFFFFFFFFFFFFFFFFFFFFFFFFFFFFFFFFFFFFFF
310
0000FF00FF00FFFF0000FFFFFFFFFFFFFFFFFFFFFFFFFFFFFFFFFFFFFFFFFFFF0000FF00FF00FFFF0000FFFFFFFFFFFFFFFFFFFFFFFFFFFFFFFFFFFFFFFFFFFF000000FFFF00FFFF0000FFFFFFFFFFFFFFFFFFFFFFFFFFFFFFFFFFFFFFFFFFFF000000FF00FFFFFF0000FFFFFFFFFFFFFFFFFFFFFFFFFFFFFFFFFFFFFFFFFF
310
FF000000FF00FFFFFF0000FFFFFFFFFFFFFFFFFFFFFFFFFFFFFFFFFFFFFFFFFFFF0000FFFF00FFFFFF0000FFFFFFFFFFFFFFFFFFFFFFFFFFFFFFFFFFFFFFFFFFFF0000FFFF00FFFFFF0000FFFFFFFFFFFFFFFFFFFFFFFFFFFFFFFFFFFFFFFFFFFF00FFFF00FFFFFFFF0000FFFFFFFFFFFFFFFFFFFFFFFFFFFFFFFFFFFFFFFF
310
FFFF00FFFF00FFFFFFFF0000FFFFFFFFFFFFFFFFFFFFFFFFFFFFFFFFFFFFFFFFFFFF00FFFF00FFFFFFFF0000FFFFFFFFFFFFFFFFFFFFFFFFFFFFFFFFFFFFFFFFFFFF00FFFF00FFFFFFFF0000FFFFFFFFFFFFFFFFFFFFFFFFFFFFFFFFFFFFFFFFFFFF00FF00FFFFFFFFFF0000FFFFFFFFFFFFFFFFFFFFFFFFFFFFFFFFFFFFFF
310
FFFFFF000000FFFFFFFFFF0000FFFFFFFFFFFFFFFFFFFFFFFFFFFFFFFFFFFFFFFFFFFFFFFFFFFFFFFFFFFFFFFFFFFFFFFFFFFFFFFFFFFFFF
102
{BLKREFS
331
249D
102
}
  0
BLOCK_RECORD
  5
2474
330
21C3
100
AcDbSymbolTableRecord
100
AcDbBlockTableRecord
  2
AI9-BLK7
340
0
310
2800000020000000200000000100080000000000000400000000000000000000000000000000000000000000000080000080000000808000800000008000800080800000C0C0C000C0DCC000F0CAA6000020400000206000002080000020A0000020C0000020E00000400000004020000040400000406000004080000040A0
310
000040C0000040E00000600000006020000060400000606000006080000060A0000060C0000060E00000800000008020000080400000806000008080000080A0000080C0000080E00000A0000000A0200000A0400000A0600000A0800000A0A00000A0C00000A0E00000C0000000C0200000C0400000C0600000C0800000C0
310
A00000C0C00000C0E00000E0000000E0200000E0400000E0600000E0800000E0A00000E0C00000E0E00040000000400020004000400040006000400080004000A0004000C0004000E00040200000402020004020400040206000402080004020A0004020C0004020E000404000004040200040404000404060004040800040
310
40A0004040C0004040E00040600000406020004060400040606000406080004060A0004060C0004060E00040800000408020004080400040806000408080004080A0004080C0004080E00040A0000040A0200040A0400040A0600040A0800040A0A00040A0C00040A0E00040C0000040C0200040C0400040C0600040C08000
310
40C0A00040C0C00040C0E00040E0000040E0200040E0400040E0600040E0800040E0A00040E0C00040E0E00080000000800020008000400080006000800080008000A0008000C0008000E00080200000802020008020400080206000802080008020A0008020C0008020E00080400000804020008040400080406000804080
310
008040A0008040C0008040E00080600000806020008060400080606000806080008060A0008060C0008060E00080800000808020008080400080806000808080008080A0008080C0008080E00080A0000080A0200080A0400080A0600080A0800080A0A00080A0C00080A0E00080C0000080C0200080C0400080C0600080C0
310
800080C0A00080C0C00080C0E00080E0000080E0200080E0400080E0600080E0800080E0A00080E0C00080E0E000C0000000C0002000C0004000C0006000C0008000C000A000C000C000C000E000C0200000C0202000C0204000C0206000C0208000C020A000C020C000C020E000C0400000C0402000C0404000C0406000C0
310
408000C040A000C040C000C040E000C0600000C0602000C0604000C0606000C0608000C060A000C060C000C060E000C0800000C0802000C0804000C0806000C0808000C080A000C080C000C080E000C0A00000C0A02000C0A04000C0A06000C0A08000C0A0A000C0A0C000C0A0E000C0C00000C0C02000C0C04000C0C06000
310
C0C08000C0C0A000F0FBFF00A4A0A000808080000000FF0000FF000000FFFF00FF000000FF00FF00FFFF0000FFFFFF00FFFFFFFFFFFFFFFFFFFFFFFFFFFFFFFFFFFFFFFFFFFFFFFFFFFFFFFFFFFFFFFFFFFFFFFFFFFFFFFFFFFFFFFFFFFFFF0000FFFFFFFFFFFFFFFFFFFFFFFFFFFFFFFFFFFFFFFFFFFFFFFFFFFFFFFFFFFF
310
0000FFFFFFFFFFFFFFFFFFFFFFFFFFFFFFFFFFFFFFFFFFFFFFFFFFFFFFFFFFFF0000FFFFFFFFFFFFFFFFFFFFFFFFFFFFFFFFFFFFFFFFFFFFFFFFFFFFFFFFFFFF0000FFFFFFFFFFFFFFFFFFFFFFFFFFFFFFFFFFFFFFFFFFFFFFFFFFFFFFFFFFFF0000FFFFFFFFFFFFFFFFFFFFFFFFFFFFFFFFFFFFFFFFFFFFFFFFFFFFFFFFFF
310
FF0000FFFFFFFFFFFFFFFFFFFFFFFFFFFFFFFFFFFFFFFFFFFFFFFFFFFFFFFFFFFF0000FFFFFFFFFFFFFFFFFFFFFFFFFFFFFFFFFFFFFFFFFFFFFFFFFFFFFFFFFFFF0000FFFFFFFFFFFFFFFFFFFFFFFFFFFFFFFFFFFFFFFFFFFFFFFFFFFFFFFFFFFF0000FFFFFFFFFFFFFFFFFFFFFFFFFFFFFFFFFFFFFFFFFFFFFFFFFFFFFFFF
310
FFFF0000FFFFFFFFFFFFFFFFFFFFFFFFFFFFFFFFFFFFFFFFFFFFFFFFFFFFFFFFFFFF0000FFFFFFFFFFFFFFFFFFFFFFFFFFFFFFFFFFFFFFFFFFFFFFFFFFFFFFFFFFFF0000FFFFFFFFFFFFFFFFFFFFFFFFFFFFFFFFFFFFFFFFFFFFFFFFFFFFFFFFFFFF0000FFFFFFFFFFFFFFFFFFFFFFFFFFFFFFFFFFFFFFFFFFFFFFFFFFFFFF
310
FFFFFF0000FFFFFFFFFFFFFFFFFFFFFFFFFFFFFFFFFFFFFFFFFFFFFFFFFFFFFFFFFFFF0000FFFFFFFFFFFFFFFFFFFFFFFFFFFFFFFFFFFFFFFFFFFFFFFFFFFFFFFFFFFF0000FFFFFFFFFFFFFFFFFFFFFFFFFFFFFFFFFFFFFFFFFFFFFFFFFFFFFFFFFFFF0000FFFFFFFFFFFFFFFFFFFFFFFFFFFFFFFFFFFFFFFFFFFFFFFFFFFF
310
FFFFFFFF0000FFFFFFFFFFFFFFFFFFFFFFFFFFFFFFFFFFFFFFFFFFFFFFFFFFFFFFFFFFFF0000FFFFFFFFFFFFFFFFFFFFFFFFFFFFFFFFFFFFFFFFFFFFFFFFFFFFFFFFFFFF0000FFFFFFFFFFFFFFFFFFFFFFFFFFFFFFFFFFFFFFFFFFFFFFFFFFFFFFFFFFFF0000FFFFFFFFFFFFFFFFFFFFFFFFFFFFFFFFFFFFFFFFFFFFFFFFFF
310
FFFFFFFFFF0000FFFFFFFFFFFFFFFFFFFFFFFFFFFFFFFFFFFFFFFFFFFFFFFFFFFFFFFFFFFF0000FFFFFFFFFFFFFFFFFFFFFFFFFFFFFFFFFFFFFFFFFFFFFFFFFFFFFFFFFFFF0000FFFFFFFFFFFFFFFFFFFFFFFFFFFFFFFFFFFFFFFFFFFFFFFFFFFFFFFFFFFF0000FFFFFFFFFFFFFFFFFFFFFFFFFFFFFFFFFFFFFFFFFFFFFFFF
310
FFFFFFFFFFFF0000FFFFFFFFFFFFFFFFFFFFFFFFFFFFFFFFFFFFFFFFFFFFFFFFFFFFFFFFFFFF0000FFFFFFFFFFFFFFFFFFFFFFFFFFFFFFFFFFFFFFFFFFFFFFFFFFFFFFFFFFFF0000FFFFFFFFFFFFFFFFFFFFFFFFFFFFFFFFFFFFFFFFFFFFFFFFFFFFFFFFFFFF0000FFFFFFFFFFFFFFFFFFFFFFFFFFFFFFFFFFFFFFFFFFFFFF
310
FFFFFFFFFFFFFF0000FFFFFFFFFFFFFFFFFFFFFFFFFFFFFFFFFFFFFFFFFFFFFFFFFFFFFFFFFFFFFFFFFFFFFFFFFFFFFFFFFFFFFFFFFFFFFF
102
{BLKREFS
331
249E
102
}
  0
BLOCK_RECORD
  5
2479
330
21C3
100
AcDbSymbolTableRecord
100
AcDbBlockTableRecord
  2
AI9-BLK6
340
0
310
2800000020000000200000000100080000000000000400000000000000000000000000000000000000000000000080000080000000808000800000008000800080800000C0C0C000C0DCC000F0CAA6000020400000206000002080000020A0000020C0000020E00000400000004020000040400000406000004080000040A0
310
000040C0000040E00000600000006020000060400000606000006080000060A0000060C0000060E00000800000008020000080400000806000008080000080A0000080C0000080E00000A0000000A0200000A0400000A0600000A0800000A0A00000A0C00000A0E00000C0000000C0200000C0400000C0600000C0800000C0
310
A00000C0C00000C0E00000E0000000E0200000E0400000E0600000E0800000E0A00000E0C00000E0E00040000000400020004000400040006000400080004000A0004000C0004000E00040200000402020004020400040206000402080004020A0004020C0004020E000404000004040200040404000404060004040800040
310
40A0004040C0004040E00040600000406020004060400040606000406080004060A0004060C0004060E00040800000408020004080400040806000408080004080A0004080C0004080E00040A0000040A0200040A0400040A0600040A0800040A0A00040A0C00040A0E00040C0000040C0200040C0400040C0600040C08000
310
40C0A00040C0C00040C0E00040E0000040E0200040E0400040E0600040E0800040E0A00040E0C00040E0E00080000000800020008000400080006000800080008000A0008000C0008000E00080200000802020008020400080206000802080008020A0008020C0008020E00080400000804020008040400080406000804080
310
008040A0008040C0008040E00080600000806020008060400080606000806080008060A0008060C0008060E00080800000808020008080400080806000808080008080A0008080C0008080E00080A0000080A0200080A0400080A0600080A0800080A0A00080A0C00080A0E00080C0000080C0200080C0400080C0600080C0
310
800080C0A00080C0C00080C0E00080E0000080E0200080E0400080E0600080E0800080E0A00080E0C00080E0E000C0000000C0002000C0004000C0006000C0008000C000A000C000C000C000E000C0200000C0202000C0204000C0206000C0208000C020A000C020C000C020E000C0400000C0402000C0404000C0406000C0
310
408000C040A000C040C000C040E000C0600000C0602000C0604000C0606000C0608000C060A000C060C000C060E000C0800000C0802000C0804000C0806000C0808000C080A000C080C000C080E000C0A00000C0A02000C0A04000C0A06000C0A08000C0A0A000C0A0C000C0A0E000C0C00000C0C02000C0C04000C0C06000
310
C0C08000C0C0A000F0FBFF00A4A0A000808080000000FF0000FF000000FFFF00FF000000FF00FF00FFFF0000FFFFFF00FFFFFFFFFFFFFFFFFFFFFFFF00FFFFFFFFFFFFFF00FFFFFFFFFFFFFFFFFFFFFFFFFFFFFFFFFFFFFFFFFFFFFF00FFFFFFFFFFFFFF00FFFFFFFFFFFFFFFFFFFFFFFFFFFFFFFFFFFFFFFFFFFFFF00FFFF
310
FFFFFFFFFF00FFFFFFFFFFFFFFFFFFFFFFFFFFFFFFFFFFFFFFFFFFFF00FFFFFFFFFFFFFFFF00FFFFFFFFFFFFFFFFFFFFFFFFFFFFFFFFFFFFFFFFFFFF00FFFFFFFFFFFFFF00FFFFFFFFFFFFFFFFFFFFFFFFFFFFFFFFFFFFFFFFFFFFFF00FFFFFFFFFFFFFF00FFFFFFFFFFFFFFFFFFFFFFFFFFFFFFFFFFFFFFFFFFFF00FFFFFF
310
FFFFFFFFFF00FFFFFFFFFFFFFFFFFFFFFFFFFFFFFFFFFFFFFFFFFFFF00FFFFFFFFFFFFFF00FFFFFFFFFFFFFFFFFFFFFFFFFFFFFFFFFFFFFFFFFFFF00FFFFFFFFFFFFFFFF00FFFFFFFFFFFFFFFFFFFFFFFFFFFFFFFFFFFFFFFFFF00FFFFFFFFFFFFFFFFFF00FFFFFFFFFFFFFFFFFFFFFFFFFFFFFFFFFFFFFFFF00FFFFFFFFFF
310
FFFFFFFFFF00FFFFFFFFFFFFFFFFFFFFFFFFFFFFFFFFFFFFFF00FFFFFFFFFFFFFFFFFFFF00FFFFFFFFFFFFFFFFFFFFFFFFFFFFFFFFFFFF0000FFFFFFFFFFFFFFFFFFFFFF00FFFFFFFFFFFFFFFFFFFFFFFFFFFF00000000FFFFFFFFFFFFFFFFFFFFFFFFFF00FFFFFFFFFFFFFFFFFFFFFFFFFFFFFFFFFFFFFFFFFFFFFFFFFFFF
310
FFFFFFFF00FFFFFFFFFFFFFFFFFFFFFFFFFFFFFFFFFFFFFFFFFFFFFFFFFFFFFFFFFFFFFF00FFFFFFFFFFFFFFFFFFFFFFFFFFFFFFFFFFFFFFFFFFFFFFFFFFFFFFFFFFFFFF00FFFFFFFFFFFFFFFFFFFFFFFFFFFFFFFFFFFFFFFFFFFFFFFFFFFFFFFFFFFF00FFFFFFFFFFFFFFFFFFFFFFFFFFFFFFFFFFFFFFFFFFFFFFFFFFFFFF
310
FFFFFFFF00FFFFFFFFFFFFFFFFFFFFFFFFFFFFFFFFFFFFFFFFFFFFFFFFFFFFFFFFFFFF00FFFFFFFFFFFFFFFFFFFFFFFFFFFFFFFFFFFFFFFFFFFFFFFFFFFFFFFFFFFF00FFFFFFFFFFFFFFFFFFFFFFFFFFFFFFFFFFFFFFFFFFFFFFFFFFFFFFFFFFFF00FFFFFFFFFFFFFFFFFFFFFFFFFFFFFFFFFFFFFFFFFFFFFFFFFFFFFFFFFF
310
FF00FFFFFFFFFFFFFFFFFFFFFFFFFFFFFFFFFFFFFFFFFFFFFFFFFFFFFFFFFFFFFF00FFFFFFFFFFFFFFFFFFFFFFFFFFFFFFFFFFFFFFFFFFFFFFFFFFFFFFFFFFFF00FFFFFFFFFFFFFFFFFFFFFFFFFFFFFFFFFFFFFFFFFFFFFFFFFFFFFFFFFF0000FFFFFFFFFFFFFFFFFFFFFFFFFFFFFFFFFFFFFFFFFFFFFFFFFFFFFFFF0000FF
310
FFFFFFFFFFFFFFFFFFFFFFFFFFFFFFFFFFFFFFFFFFFFFFFFFF00000000FFFFFFFFFFFFFFFFFFFFFFFFFFFFFFFFFFFFFFFFFFFFFFFFFFFF0000FFFFFFFFFFFFFFFFFFFFFFFFFFFFFFFFFFFFFFFFFFFFFFFFFFFFFFFFFFFFFFFFFFFFFFFFFFFFFFFFFFFFFFFFFFFFFFFFFFFFFFFFFFFFFFFFFFFFFFFFFFFFFFFFFFFFFFFFFFFF
310
FFFFFFFFFFFFFFFFFFFFFFFFFFFFFFFFFFFFFFFFFFFFFFFFFFFFFFFFFFFFFFFFFFFFFFFFFFFFFFFFFFFFFFFFFFFFFFFFFFFFFFFFFFFFFFFF
102
{BLKREFS
331
249F
102
}
  0
BLOCK_RECORD
  5
247D
330
21C3
100
AcDbSymbolTableRecord
100
AcDbBlockTableRecord
  2
AI9-BLK5
340
0
310
2800000020000000200000000100080000000000000400000000000000000000000000000000000000000000000080000080000000808000800000008000800080800000C0C0C000C0DCC000F0CAA6000020400000206000002080000020A0000020C0000020E00000400000004020000040400000406000004080000040A0
310
000040C0000040E00000600000006020000060400000606000006080000060A0000060C0000060E00000800000008020000080400000806000008080000080A0000080C0000080E00000A0000000A0200000A0400000A0600000A0800000A0A00000A0C00000A0E00000C0000000C0200000C0400000C0600000C0800000C0
310
A00000C0C00000C0E00000E0000000E0200000E0400000E0600000E0800000E0A00000E0C00000E0E00040000000400020004000400040006000400080004000A0004000C0004000E00040200000402020004020400040206000402080004020A0004020C0004020E000404000004040200040404000404060004040800040
310
40A0004040C0004040E00040600000406020004060400040606000406080004060A0004060C0004060E00040800000408020004080400040806000408080004080A0004080C0004080E00040A0000040A0200040A0400040A0600040A0800040A0A00040A0C00040A0E00040C0000040C0200040C0400040C0600040C08000
310
40C0A00040C0C00040C0E00040E0000040E0200040E0400040E0600040E0800040E0A00040E0C00040E0E00080000000800020008000400080006000800080008000A0008000C0008000E00080200000802020008020400080206000802080008020A0008020C0008020E00080400000804020008040400080406000804080
310
008040A0008040C0008040E00080600000806020008060400080606000806080008060A0008060C0008060E00080800000808020008080400080806000808080008080A0008080C0008080E00080A0000080A0200080A0400080A0600080A0800080A0A00080A0C00080A0E00080C0000080C0200080C0400080C0600080C0
310
800080C0A00080C0C00080C0E00080E0000080E0200080E0400080E0600080E0800080E0A00080E0C00080E0E000C0000000C0002000C0004000C0006000C0008000C000A000C000C000C000E000C0200000C0202000C0204000C0206000C0208000C020A000C020C000C020E000C0400000C0402000C0404000C0406000C0
310
408000C040A000C040C000C040E000C0600000C0602000C0604000C0606000C0608000C060A000C060C000C060E000C0800000C0802000C0804000C0806000C0808000C080A000C080C000C080E000C0A00000C0A02000C0A04000C0A06000C0A08000C0A0A000C0A0C000C0A0E000C0C00000C0C02000C0C04000C0C06000
310
C0C08000C0C0A000F0FBFF00A4A0A000808080000000FF0000FF000000FFFF00FF000000FF00FF00FFFF0000FFFFFF00FFFFFFFFFFFFFFFFFFFFFFFFFFFFFFFFFFFFFFFFFFFFFFFFFFFFFFFFFFFFFFFFFFFFFFFFFFFFFFFF000000000000000000000000000000000000000000000000FFFFFFFFFFFFFFFF00FFFFFFFFFFFF
310
FFFFFFFFFFFFFFFFFFFFFFFFFFFFFFFFFFFFFFFFFFFFFFFFFF00FFFFFFFFFFFFFFFFFFFFFFFFFFFFFFFFFFFFFFFFFFFFFFFFFFFFFFFFFFFFFF00FFFFFFFFFFFFFFFFFFFFFFFFFFFFFFFFFFFFFFFFFFFFFFFFFFFFFFFFFFFFFF00FFFFFFFFFFFFFFFFFFFFFFFFFFFFFFFFFFFFFFFFFFFFFFFFFFFFFFFFFFFFFF00FFFFFFFFFF
310
FFFFFFFFFFFFFFFFFFFFFFFFFFFFFFFFFFFFFFFFFFFFFFFFFFFF00FFFFFFFFFFFFFFFFFFFFFFFFFFFFFFFFFFFFFFFFFFFFFFFFFFFFFFFFFFFFFF00FFFFFFFFFFFFFFFFFFFFFFFFFFFFFFFFFFFFFFFFFFFFFFFFFFFFFFFFFFFFFF00FFFFFFFFFFFFFFFFFFFFFFFFFFFFFFFFFFFFFFFFFFFFFFFFFFFFFFFFFFFFFF00FFFFFFFF
310
FFFFFFFFFFFFFFFFFFFFFFFFFFFFFFFFFFFFFFFFFFFFFFFFFFFFFF00FFFFFFFFFFFFFFFFFFFFFFFFFFFFFFFFFFFFFFFFFFFFFFFFFFFFFFFFFFFFFF00FFFFFFFFFFFFFFFFFFFFFFFFFFFFFFFFFFFFFFFFFFFFFFFFFFFFFFFFFFFFFF00FFFFFFFFFFFFFFFFFFFFFFFFFFFFFFFFFFFFFFFFFFFFFFFFFFFFFFFFFFFFFF00FFFFFF
310
FFFFFFFFFFFFFFFFFFFFFFFFFFFFFFFFFFFFFFFFFFFFFFFFFFFFFFFF00FFFFFFFFFFFFFFFFFFFFFFFFFFFFFFFFFFFFFFFFFFFFFFFFFFFFFFFFFFFFFF00FFFFFFFFFFFFFFFFFFFFFFFFFFFFFFFFFFFFFFFFFFFFFFFFFFFFFFFFFFFFFF00FFFFFFFFFFFFFFFFFFFFFFFFFFFFFFFFFFFFFFFFFFFFFFFFFFFFFFFFFFFFFF00FFFF
310
FFFFFFFFFFFFFFFFFFFFFFFFFFFFFFFFFFFFFFFFFFFFFFFFFFFFFFFFFF00FFFFFFFFFFFFFFFFFFFFFFFFFFFFFFFFFFFFFFFFFFFFFFFFFFFFFFFFFFFFFF00FFFFFFFFFFFFFFFFFFFFFFFFFFFFFFFFFFFFFFFFFFFFFFFFFFFFFFFFFFFFFF00FFFFFFFFFFFFFFFFFFFFFFFFFFFFFFFFFFFFFFFFFFFFFFFFFFFFFFFFFFFFFF00FF
310
FFFFFFFFFFFFFFFFFFFFFFFFFFFFFFFFFFFFFFFFFFFFFFFFFFFFFFFFFFFF00FFFFFFFFFFFFFFFFFFFFFFFFFFFFFFFFFFFFFFFFFFFFFFFFFFFFFFFFFFFFFF00FFFFFFFFFFFFFFFFFFFFFFFFFFFFFFFFFFFFFFFFFFFFFFFFFFFFFFFFFFFFFF00FFFFFFFFFFFFFFFFFFFFFFFFFFFFFFFFFFFFFFFFFFFFFFFFFFFFFFFFFFFFFF00
310
FFFFFFFFFFFFFFFFFFFFFFFFFFFFFFFFFFFFFFFFFFFFFFFFFFFFFFFFFFFFFF00FFFFFFFFFFFFFFFFFFFFFFFFFFFFFFFFFFFFFFFFFFFFFFFFFFFFFFFFFFFFFF00FFFFFFFFFFFFFFFFFFFFFFFFFFFFFFFFFFFFFFFFFFFFFFFFFFFFFFFFFFFFFF00FFFFFFFFFFFFFFFFFFFFFFFFFFFFFFFFFFFFFFFFFFFFFFFFFFFFFFFFFFFFFF
310
00FFFFFFFFFFFFFFFFFFFFFFFFFFFF000000000000000000FFFFFFFFFFFFFFFF00FFFFFFFFFFFFFFFFFFFFFFFFFFFF00FFFFFFFFFFFFFFFF
102
{BLKREFS
331
24A0
102
}
  0
BLOCK_RECORD
  5
2482
330
21C3
100
AcDbSymbolTableRecord
100
AcDbBlockTableRecord
  2
AI9-BLK4
340
0
310
2800000020000000200000000100080000000000000400000000000000000000000000000000000000000000000080000080000000808000800000008000800080800000C0C0C000C0DCC000F0CAA6000020400000206000002080000020A0000020C0000020E00000400000004020000040400000406000004080000040A0
310
000040C0000040E00000600000006020000060400000606000006080000060A0000060C0000060E00000800000008020000080400000806000008080000080A0000080C0000080E00000A0000000A0200000A0400000A0600000A0800000A0A00000A0C00000A0E00000C0000000C0200000C0400000C0600000C0800000C0
310
A00000C0C00000C0E00000E0000000E0200000E0400000E0600000E0800000E0A00000E0C00000E0E00040000000400020004000400040006000400080004000A0004000C0004000E00040200000402020004020400040206000402080004020A0004020C0004020E000404000004040200040404000404060004040800040
310
40A0004040C0004040E00040600000406020004060400040606000406080004060A0004060C0004060E00040800000408020004080400040806000408080004080A0004080C0004080E00040A0000040A0200040A0400040A0600040A0800040A0A00040A0C00040A0E00040C0000040C0200040C0400040C0600040C08000
310
40C0A00040C0C00040C0E00040E0000040E0200040E0400040E0600040E0800040E0A00040E0C00040E0E00080000000800020008000400080006000800080008000A0008000C0008000E00080200000802020008020400080206000802080008020A0008020C0008020E00080400000804020008040400080406000804080
310
008040A0008040C0008040E00080600000806020008060400080606000806080008060A0008060C0008060E00080800000808020008080400080806000808080008080A0008080C0008080E00080A0000080A0200080A0400080A0600080A0800080A0A00080A0C00080A0E00080C0000080C0200080C0400080C0600080C0
310
800080C0A00080C0C00080C0E00080E0000080E0200080E0400080E0600080E0800080E0A00080E0C00080E0E000C0000000C0002000C0004000C0006000C0008000C000A000C000C000C000E000C0200000C0202000C0204000C0206000C0208000C020A000C020C000C020E000C0400000C0402000C0404000C0406000C0
310
408000C040A000C040C000C040E000C0600000C0602000C0604000C0606000C0608000C060A000C060C000C060E000C0800000C0802000C0804000C0806000C0808000C080A000C080C000C080E000C0A00000C0A02000C0A04000C0A06000C0A08000C0A0A000C0A0C000C0A0E000C0C00000C0C02000C0C04000C0C06000
310
C0C08000C0C0A000F0FBFF00A4A0A000808080000000FF0000FF000000FFFF00FF000000FF00FF00FFFF0000FFFFFF00FFFFFFFFFFFFFFFFFFFFFFFFFFFFFFFFFFFFFFFFFFFFFFFFFFFFFFFFFFFFFFFFFFFFFFFFFFFFFFFFFFFFFFFFFFFF00000000FFFFFFFFFFFFFFFFFFFFFF000000FFFFFFFFFFFFFFFFFFFFFFFFFFFF00
310
FFFF00FFFFFFFFFFFFFFFFFFFFFF00FFFFFFFFFFFFFFFFFFFFFFFFFFFFFFFF00FFFF00FFFFFFFFFFFFFFFFFFFFFF00FFFFFFFFFFFFFFFFFFFFFFFFFFFFFFFF00FFFF00FFFFFFFFFFFFFFFFFFFFFF00FFFFFFFFFFFFFFFFFFFFFFFFFFFFFFFF00FFFF00FFFFFFFFFFFFFFFFFFFFFF00FFFFFFFFFFFFFFFFFFFFFFFFFFFFFFFF
310
00FFFF00FFFFFFFFFFFFFFFFFFFFFF00FFFFFFFFFFFFFFFFFFFFFFFFFFFFFFFF00FFFF00FFFFFFFFFFFFFFFFFFFFFF00FFFFFFFFFFFFFFFFFFFFFFFFFFFFFFFF00FFFF00FFFFFFFFFFFFFFFFFFFFFF00FFFFFFFFFFFFFFFFFFFFFFFFFFFFFFFF00FFFF00FFFFFFFFFFFFFFFFFFFFFF00FFFFFFFFFFFFFFFFFFFFFFFFFFFFFF
310
FF00FFFF00FFFFFFFFFFFFFFFFFFFFFF00FFFFFFFFFFFFFFFFFFFFFFFFFFFFFFFF00FFFF00FFFFFFFFFFFFFFFFFFFFFF00FFFFFFFFFFFFFFFFFFFFFFFFFFFFFFFF00FFFF00FFFFFFFFFFFFFFFFFFFFFF00FFFFFFFFFFFFFFFFFFFFFFFFFFFFFFFF00FFFF00FFFFFFFFFFFFFFFFFFFFFF00FFFFFFFFFFFFFFFFFFFFFFFFFFFF
310
FFFF00FFFF00FFFFFFFFFFFFFFFFFFFFFF00FFFFFFFFFFFFFFFFFFFFFFFFFFFFFFFF00FFFF00FFFFFFFFFFFFFFFFFFFFFF00FFFFFFFFFFFFFFFFFFFFFFFFFFFFFFFF00FFFF00FFFFFFFFFFFFFFFFFFFFFF00FFFFFFFFFFFFFFFFFFFFFFFFFFFFFFFF00FFFF00FFFFFFFFFFFFFFFFFFFF00FFFFFFFFFFFFFFFFFFFFFFFFFFFF
310
FFFFFF00FFFF00FFFFFFFFFFFFFFFFFFFF00FFFFFFFFFFFFFFFFFFFFFFFFFFFFFFFFFF00FFFF00FFFFFFFFFFFFFFFFFFFF00FFFFFFFFFFFFFFFFFFFFFFFFFFFFFFFFFF00FFFF00FFFFFFFFFFFFFFFFFFFF00FFFFFFFFFFFFFFFFFFFFFFFFFFFFFFFFFF00FFFF00FFFFFFFFFFFFFFFFFFFF00FFFFFFFFFFFFFFFFFFFFFFFFFF
310
FFFFFFFF00FFFF00FFFFFFFFFFFFFFFFFF0000FFFF00FFFFFFFFFFFFFFFFFFFFFFFFFFFF00FFFF00FFFFFFFFFFFFFFFF0000FFFFFF00FFFFFFFFFFFFFFFFFFFFFFFFFFFF00FFFF00000000000000000000FFFFFFFF00FFFFFFFFFFFFFFFFFFFFFFFFFFFF00FFFFFFFFFFFFFFFFFFFFFFFFFFFFFF00FFFFFFFFFFFFFFFFFFFF
310
FFFFFFFFFF00FFFFFFFFFFFFFFFFFFFFFFFFFFFF00FFFFFFFFFFFFFFFFFFFFFFFFFFFFFFFF00FFFFFFFFFFFFFFFFFFFFFFFFFFFF00FFFFFFFFFFFFFFFFFFFFFFFFFFFFFFFF00FFFFFFFFFFFFFFFFFFFFFFFFFFFFFF00FFFFFFFFFFFFFFFFFFFFFFFFFFFFFF00FFFFFFFFFFFFFFFFFFFFFFFFFFFFFF00FFFFFFFFFFFFFFFFFF
310
FFFFFFFFFFFF00FFFF00000000000000000000FFFFFFFF00FFFFFFFFFFFFFFFFFFFFFFFFFFFF00FFFF00FFFFFFFFFFFFFFFFFF0000FFFF00
102
{BLKREFS
331
24A1
102
}
  0
BLOCK_RECORD
  5
2487
330
21C3
100
AcDbSymbolTableRecord
100
AcDbBlockTableRecord
  2
AI9-BLK3
340
0
310
2800000020000000200000000100080000000000000400000000000000000000000000000000000000000000000080000080000000808000800000008000800080800000C0C0C000C0DCC000F0CAA6000020400000206000002080000020A0000020C0000020E00000400000004020000040400000406000004080000040A0
310
000040C0000040E00000600000006020000060400000606000006080000060A0000060C0000060E00000800000008020000080400000806000008080000080A0000080C0000080E00000A0000000A0200000A0400000A0600000A0800000A0A00000A0C00000A0E00000C0000000C0200000C0400000C0600000C0800000C0
310
A00000C0C00000C0E00000E0000000E0200000E0400000E0600000E0800000E0A00000E0C00000E0E00040000000400020004000400040006000400080004000A0004000C0004000E00040200000402020004020400040206000402080004020A0004020C0004020E000404000004040200040404000404060004040800040
310
40A0004040C0004040E00040600000406020004060400040606000406080004060A0004060C0004060E00040800000408020004080400040806000408080004080A0004080C0004080E00040A0000040A0200040A0400040A0600040A0800040A0A00040A0C00040A0E00040C0000040C0200040C0400040C0600040C08000
310
40C0A00040C0C00040C0E00040E0000040E0200040E0400040E0600040E0800040E0A00040E0C00040E0E00080000000800020008000400080006000800080008000A0008000C0008000E00080200000802020008020400080206000802080008020A0008020C0008020E00080400000804020008040400080406000804080
310
008040A0008040C0008040E00080600000806020008060400080606000806080008060A0008060C0008060E00080800000808020008080400080806000808080008080A0008080C0008080E00080A0000080A0200080A0400080A0600080A0800080A0A00080A0C00080A0E00080C0000080C0200080C0400080C0600080C0
310
800080C0A00080C0C00080C0E00080E0000080E0200080E0400080E0600080E0800080E0A00080E0C00080E0E000C0000000C0002000C0004000C0006000C0008000C000A000C000C000C000E000C0200000C0202000C0204000C0206000C0208000C020A000C020C000C020E000C0400000C0402000C0404000C0406000C0
310
408000C040A000C040C000C040E000C0600000C0602000C0604000C0606000C0608000C060A000C060C000C060E000C0800000C0802000C0804000C0806000C0808000C080A000C080C000C080E000C0A00000C0A02000C0A04000C0A06000C0A08000C0A0A000C0A0C000C0A0E000C0C00000C0C02000C0C04000C0C06000
310
C0C08000C0C0A000F0FBFF00A4A0A000808080000000FF0000FF000000FFFF00FF000000FF00FF00FFFF0000FFFFFF00FFFFFFFFFFFFFFFFFFFFFFFFFFFFFFFFFFFFFFFFFFFFFFFFFFFFFFFFFFFFFFFFFFFFFFFFFFFFFFFFFFFFFFFFFFFFFF0000FFFFFFFFFFFFFFFFFFFFFFFFFFFFFFFFFFFFFFFFFFFFFFFFFFFFFFFFFFFF
310
0000FFFFFFFFFFFFFFFFFFFFFFFFFFFFFFFFFFFFFFFFFFFFFFFFFFFFFFFFFFFF0000FFFFFFFFFFFFFFFFFFFFFFFFFFFFFFFFFFFFFFFFFFFFFFFFFFFFFFFFFFFF0000FFFFFFFFFFFFFFFFFFFFFFFFFFFFFFFFFFFFFFFFFFFFFFFFFFFFFFFFFFFF0000FFFFFFFFFFFFFFFFFFFFFFFFFFFFFFFFFFFFFFFFFFFFFFFFFFFFFFFFFF
310
FF0000FFFFFFFFFFFFFFFFFFFFFFFFFFFFFFFFFFFFFFFFFFFFFFFFFFFFFFFFFFFF0000FFFFFFFFFFFFFFFFFFFFFFFFFFFFFFFFFFFFFFFFFFFFFFFFFFFFFFFFFFFF0000FFFFFFFFFFFFFFFFFFFFFFFFFFFFFFFFFFFFFFFFFFFFFFFFFFFFFFFFFFFF0000FFFFFFFFFFFFFFFFFFFFFFFFFFFFFFFFFFFFFFFFFFFFFFFFFFFFFFFF
310
FFFF0000FFFFFFFFFFFFFFFFFFFFFFFFFFFFFFFFFFFFFFFFFFFFFFFFFFFFFFFFFFFF0000FFFFFFFFFFFFFFFFFFFFFFFFFFFFFFFFFFFFFFFFFFFFFFFFFFFFFFFFFFFF0000FFFFFFFFFFFFFFFFFFFFFFFFFFFFFFFFFFFFFFFFFFFFFFFFFFFFFFFFFFFF0000FFFFFFFFFFFFFFFFFFFFFFFFFFFFFFFFFFFFFFFFFFFFFFFFFFFFFF
310
FFFFFF0000FFFFFFFFFFFFFFFFFFFFFFFFFFFFFFFFFFFFFFFFFFFFFFFFFFFFFFFFFFFF0000FFFFFFFFFFFFFFFFFFFFFFFFFFFFFFFFFFFFFFFFFFFFFFFFFFFFFFFFFFFF0000FFFFFFFFFFFFFFFFFFFFFFFFFFFFFFFFFFFFFFFFFFFFFFFFFFFFFFFFFFFF0000FFFFFFFFFFFFFFFFFFFFFFFFFFFFFFFFFFFFFFFFFFFFFFFFFFFF
310
FFFFFFFF0000FFFFFFFFFFFFFFFFFFFFFFFFFFFFFFFFFFFFFFFFFFFFFFFFFFFFFFFFFFFF0000FFFFFFFFFFFFFFFFFFFFFFFFFFFFFFFFFFFFFFFFFFFFFFFFFFFFFFFFFFFF0000FFFFFFFFFFFFFFFFFFFFFFFFFFFFFFFFFFFFFFFFFFFFFFFFFFFFFFFFFFFF0000FFFFFFFFFFFFFFFFFFFFFFFFFFFFFFFFFFFFFFFFFFFFFFFFFF
310
FFFFFFFFFF0000FFFFFFFFFFFFFFFFFFFFFFFFFFFFFFFFFFFFFFFFFFFFFFFFFFFFFFFFFFFF0000FFFFFFFFFFFFFFFFFFFFFFFFFFFFFFFFFFFFFFFFFFFFFFFFFFFFFFFFFFFF0000FFFFFFFFFFFFFFFFFFFFFFFFFFFFFFFFFFFFFFFFFFFFFFFFFFFFFFFFFFFF0000FFFFFFFFFFFFFFFFFFFFFFFFFFFFFFFFFFFFFFFFFFFFFFFF
310
FFFFFFFFFFFF0000FFFFFFFFFFFFFFFFFFFFFFFFFFFFFFFFFFFFFFFFFFFFFFFFFFFFFFFFFFFF0000FFFFFFFFFFFFFFFFFFFFFFFFFFFFFFFFFFFFFFFFFFFFFFFFFFFFFFFFFFFF0000FFFFFFFFFFFFFFFFFFFFFFFFFFFFFFFFFFFFFFFFFFFFFFFFFFFFFFFFFFFF0000FFFFFFFFFFFFFFFFFFFFFFFFFFFFFFFFFFFFFFFFFFFFFF
310
FFFFFFFFFFFFFF0000FFFFFFFFFFFFFFFFFFFFFFFFFFFFFFFFFFFFFFFFFFFFFFFFFFFFFFFFFFFFFFFFFFFFFFFFFFFFFFFFFFFFFFFFFFFFFF
102
{BLKREFS
331
24A2
102
}
  0
BLOCK_RECORD
  5
248C
330
21C3
100
AcDbSymbolTableRecord
100
AcDbBlockTableRecord
  2
AI9-BLK2
340
0
310
2800000020000000200000000100080000000000000400000000000000000000000000000000000000000000000080000080000000808000800000008000800080800000C0C0C000C0DCC000F0CAA6000020400000206000002080000020A0000020C0000020E00000400000004020000040400000406000004080000040A0
310
000040C0000040E00000600000006020000060400000606000006080000060A0000060C0000060E00000800000008020000080400000806000008080000080A0000080C0000080E00000A0000000A0200000A0400000A0600000A0800000A0A00000A0C00000A0E00000C0000000C0200000C0400000C0600000C0800000C0
310
A00000C0C00000C0E00000E0000000E0200000E0400000E0600000E0800000E0A00000E0C00000E0E00040000000400020004000400040006000400080004000A0004000C0004000E00040200000402020004020400040206000402080004020A0004020C0004020E000404000004040200040404000404060004040800040
310
40A0004040C0004040E00040600000406020004060400040606000406080004060A0004060C0004060E00040800000408020004080400040806000408080004080A0004080C0004080E00040A0000040A0200040A0400040A0600040A0800040A0A00040A0C00040A0E00040C0000040C0200040C0400040C0600040C08000
310
40C0A00040C0C00040C0E00040E0000040E0200040E0400040E0600040E0800040E0A00040E0C00040E0E00080000000800020008000400080006000800080008000A0008000C0008000E00080200000802020008020400080206000802080008020A0008020C0008020E00080400000804020008040400080406000804080
310
008040A0008040C0008040E00080600000806020008060400080606000806080008060A0008060C0008060E00080800000808020008080400080806000808080008080A0008080C0008080E00080A0000080A0200080A0400080A0600080A0800080A0A00080A0C00080A0E00080C0000080C0200080C0400080C0600080C0
310
800080C0A00080C0C00080C0E00080E0000080E0200080E0400080E0600080E0800080E0A00080E0C00080E0E000C0000000C0002000C0004000C0006000C0008000C000A000C000C000C000E000C0200000C0202000C0204000C0206000C0208000C020A000C020C000C020E000C0400000C0402000C0404000C0406000C0
310
408000C040A000C040C000C040E000C0600000C0602000C0604000C0606000C0608000C060A000C060C000C060E000C0800000C0802000C0804000C0806000C0808000C080A000C080C000C080E000C0A00000C0A02000C0A04000C0A06000C0A08000C0A0A000C0A0C000C0A0E000C0C00000C0C02000C0C04000C0C06000
310
C0C08000C0C0A000F0FBFF00A4A0A000808080000000FF0000FF000000FFFF00FF000000FF00FF00FFFF0000FFFFFF00FFFFFFFFFFFFFFFFFFFFFFFFFFFFFFFFFFFFFFFFFFFFFFFFFFFFFFFFFFFFFFFFFFFFFFFFFFFFFFFFFFFFFFFFFFFFFF0000FFFFFFFFFFFFFFFFFFFFFFFFFFFFFFFFFFFFFFFFFFFFFFFFFFFFFFFFFFFF
310
0000FFFFFFFFFFFFFFFFFFFFFFFFFFFFFFFFFFFFFFFFFFFFFFFFFFFFFFFFFFFF0000FFFFFFFFFFFFFFFFFFFFFFFFFFFFFFFFFFFFFFFFFFFFFFFFFFFFFFFFFF00FFFF00FFFFFFFFFFFFFFFFFFFFFFFFFFFFFFFFFFFFFFFFFFFFFFFFFFFFFFFF00FFFF00FFFFFFFFFFFFFFFFFFFFFFFFFFFFFFFFFFFFFFFFFFFFFFFFFFFFFFFF
310
00FF0000FFFFFFFFFFFFFFFFFFFFFFFFFFFFFFFFFFFFFFFFFFFFFFFFFFFFFFFF00FF0000FFFFFFFFFFFFFFFFFFFFFFFFFFFFFFFFFFFFFFFFFFFFFFFFFFFFFFFF00FF0000FFFFFFFFFFFFFFFFFFFFFFFFFFFFFFFFFFFFFFFFFFFFFFFFFFFFFFFF00000000FFFFFFFFFFFFFFFFFFFFFFFFFFFFFFFFFFFFFFFFFFFFFFFFFFFFFF
310
00FF00FF0000FFFFFFFFFFFFFFFFFFFFFFFFFFFFFFFFFFFFFFFFFFFFFFFFFFFF00FF00FF0000FFFFFFFFFFFFFFFFFFFFFFFFFFFFFFFFFFFFFFFFFFFFFFFFFFFF00FF00FF0000FFFFFFFFFFFFFFFFFFFFFFFFFFFFFFFFFFFFFFFFFFFFFFFFFFFF00FF00FF0000FFFFFFFFFFFFFFFFFFFFFFFFFFFFFFFFFFFFFFFFFFFFFFFFFF
310
FF00FF00FF0000FFFFFFFFFFFFFFFFFFFFFFFFFFFFFFFFFFFFFFFFFFFFFFFFFFFF0000FFFF0000FFFFFFFFFFFFFFFFFFFFFFFFFFFFFFFFFFFFFFFFFFFFFFFFFF00FF00FFFF00FF00FFFFFFFFFFFFFFFFFFFFFFFFFFFFFFFFFFFFFFFFFFFFFFFF00FF00FFFF00FF00FFFFFFFFFFFFFFFFFFFFFFFFFFFFFFFFFFFFFFFFFFFFFF
310
FF00FF00FFFFFF0000FFFFFFFFFFFFFFFFFFFFFFFFFFFFFFFFFFFFFFFFFFFFFFFF00FF00FFFFFF0000FFFFFFFFFFFFFFFFFFFFFFFFFFFFFFFFFFFFFFFFFFFFFFFF00FF00FFFFFF0000FFFFFFFFFFFFFFFFFFFFFFFFFFFFFFFFFFFFFFFFFFFFFFFF0000FFFFFFFF0000FFFFFFFFFFFFFFFFFFFFFFFFFFFFFFFFFFFFFFFFFFFF
310
FF00FF00FFFFFFFF00FF00FFFFFFFFFFFFFFFFFFFFFFFFFFFFFFFFFFFFFFFFFFFF00FF00FFFFFFFF00FF00FFFFFFFFFFFFFFFFFFFFFFFFFFFFFFFFFFFFFFFFFFFF00FF00FFFFFFFF00FF00FFFFFFFFFFFFFFFFFFFFFFFFFFFFFFFFFFFFFFFFFFFF00FF00FFFFFFFF00FF00FFFFFFFFFFFFFFFFFFFFFFFFFFFFFFFFFFFFFFFF
310
FFFF00FF00FFFFFFFFFF0000FFFFFFFFFFFFFFFFFFFFFFFFFFFFFFFFFFFFFFFFFFFF0000FFFFFFFFFFFF0000FFFFFFFFFFFFFFFFFFFFFFFFFFFFFFFFFFFFFFFFFF00FF00FFFFFFFFFFFF00FF00FFFFFFFFFFFFFFFFFFFFFFFFFFFFFFFFFFFFFFFF00FF00FFFFFFFFFFFF00FF00FFFFFFFFFFFFFFFFFFFFFFFFFFFFFFFFFFFF
310
FFFF000000FFFFFFFFFFFF000000FFFFFFFFFFFFFFFFFFFFFFFFFFFFFFFFFFFFFFFFFFFFFFFFFFFFFFFFFFFFFFFFFFFFFFFFFFFFFFFFFFFF
102
{BLKREFS
331
24A3
102
}
  0
BLOCK_RECORD
  5
2491
330
21C3
100
AcDbSymbolTableRecord
100
AcDbBlockTableRecord
  2
AI9-BLK1
340
0
310
2800000020000000200000000100080000000000000400000000000000000000000000000000000000000000000080000080000000808000800000008000800080800000C0C0C000C0DCC000F0CAA6000020400000206000002080000020A0000020C0000020E00000400000004020000040400000406000004080000040A0
310
000040C0000040E00000600000006020000060400000606000006080000060A0000060C0000060E00000800000008020000080400000806000008080000080A0000080C0000080E00000A0000000A0200000A0400000A0600000A0800000A0A00000A0C00000A0E00000C0000000C0200000C0400000C0600000C0800000C0
310
A00000C0C00000C0E00000E0000000E0200000E0400000E0600000E0800000E0A00000E0C00000E0E00040000000400020004000400040006000400080004000A0004000C0004000E00040200000402020004020400040206000402080004020A0004020C0004020E000404000004040200040404000404060004040800040
310
40A0004040C0004040E00040600000406020004060400040606000406080004060A0004060C0004060E00040800000408020004080400040806000408080004080A0004080C0004080E00040A0000040A0200040A0400040A0600040A0800040A0A00040A0C00040A0E00040C0000040C0200040C0400040C0600040C08000
310
40C0A00040C0C00040C0E00040E0000040E0200040E0400040E0600040E0800040E0A00040E0C00040E0E00080000000800020008000400080006000800080008000A0008000C0008000E00080200000802020008020400080206000802080008020A0008020C0008020E00080400000804020008040400080406000804080
310
008040A0008040C0008040E00080600000806020008060400080606000806080008060A0008060C0008060E00080800000808020008080400080806000808080008080A0008080C0008080E00080A0000080A0200080A0400080A0600080A0800080A0A00080A0C00080A0E00080C0000080C0200080C0400080C0600080C0
310
800080C0A00080C0C00080C0E00080E0000080E0200080E0400080E0600080E0800080E0A00080E0C00080E0E000C0000000C0002000C0004000C0006000C0008000C000A000C000C000C000E000C0200000C0202000C0204000C0206000C0208000C020A000C020C000C020E000C0400000C0402000C0404000C0406000C0
310
408000C040A000C040C000C040E000C0600000C0602000C0604000C0606000C0608000C060A000C060C000C060E000C0800000C0802000C0804000C0806000C0808000C080A000C080C000C080E000C0A00000C0A02000C0A04000C0A06000C0A08000C0A0A000C0A0C000C0A0E000C0C00000C0C02000C0C04000C0C06000
310
C0C08000C0C0A000F0FBFF00A4A0A000808080000000FF0000FF000000FFFF00FF000000FF00FF00FFFF0000FFFFFF00FFFFFFFFFFFFFFFFFFFFFFFFFFFFFFFFFFFFFFFFFFFFFFFFFFFFFFFFFFFFFFFFFFFFFFFFFFFFFFFFFFFFFF00000000000000000000FFFFFFFFFFFFFFFFFFFFFFFFFFFFFFFFFFFFFFFFFFFF00FFFFFF
310
FFFFFFFFFF00FFFFFFFFFFFFFFFFFFFFFFFFFFFFFFFFFFFFFFFFFFFF00FFFFFFFFFFFFFFFF00FFFFFFFFFFFFFFFFFFFFFFFFFFFFFFFFFFFFFFFFFFFF00FFFFFFFFFFFFFFFF00FFFFFFFFFFFFFFFFFFFFFFFFFFFFFFFFFFFFFFFFFFFF00FF0000000000000000FFFFFFFFFFFFFFFFFFFFFFFFFFFFFFFFFFFFFFFFFFFF00FF00
310
FFFFFFFFFFFFFFFFFFFFFFFFFFFFFFFFFFFFFFFFFFFFFFFFFFFFFFFFFF00FF00FFFFFFFFFFFFFFFFFFFFFFFFFFFFFFFFFFFFFFFFFFFFFFFFFFFFFFFFFF00FF00FFFFFFFFFFFFFFFFFFFFFFFFFFFFFFFFFFFFFFFFFFFFFFFFFFFFFFFFFF00FF00FFFFFFFFFFFFFFFFFFFFFFFFFFFFFFFFFFFFFFFFFFFFFFFFFFFFFFFFFF00FF
310
00FFFFFFFFFFFFFFFFFFFFFFFFFFFFFFFFFFFFFFFFFFFFFFFFFFFFFFFFFF00FF00FFFFFFFFFFFFFFFFFFFFFFFFFFFFFFFFFFFFFFFFFFFFFFFFFFFFFFFFFF00FF00FFFFFFFFFFFFFFFFFFFFFFFFFFFFFFFFFFFFFFFFFFFFFFFFFFFFFFFFFF00FF00FFFFFFFFFFFFFFFFFFFFFFFFFFFFFFFFFFFFFFFFFFFFFFFFFFFFFFFFFF00
310
FF00000000000000FFFFFFFFFFFFFFFFFFFFFFFFFFFFFFFFFFFFFFFFFFFFFF00FFFFFFFFFFFFFF00FFFFFFFFFFFFFFFFFFFFFFFFFFFFFFFFFFFFFFFFFFFFFF00FFFFFFFFFFFFFF00FFFFFFFFFFFFFFFFFFFFFFFFFFFFFFFFFFFFFFFFFFFFFF00FFFFFFFFFFFFFF00FFFFFFFFFFFFFFFFFFFFFFFFFFFFFFFFFFFFFFFFFFFFFF
310
00FF00000000000000FFFFFFFFFFFFFFFFFFFFFFFFFFFFFFFFFFFFFFFFFFFFFF00FF00FFFFFFFFFFFFFFFFFFFFFFFFFFFFFFFFFFFFFFFFFFFFFFFFFFFFFFFFFF00FF00FFFFFFFFFFFFFFFFFFFFFFFFFFFFFFFFFFFFFFFFFFFFFFFFFFFFFFFFFF00FF00FFFFFFFFFFFFFFFFFFFFFFFFFFFFFFFFFFFFFFFFFFFFFFFFFFFFFFFF
310
FF00FF00FFFFFFFFFFFFFFFFFFFFFFFFFFFFFFFFFFFFFFFFFFFFFFFFFFFFFFFFFF00FF00FFFFFFFFFFFFFFFFFFFFFFFFFFFFFFFFFFFFFFFFFFFFFFFFFFFFFFFFFF00FF00FFFFFFFFFFFFFFFFFFFFFFFFFFFFFFFFFFFFFFFFFFFFFFFFFFFFFFFFFF00FF00FFFFFFFFFFFFFFFFFFFFFFFFFFFFFFFFFFFFFFFFFFFFFFFFFFFFFF
310
FFFF00FF0000000000000000FFFFFFFFFFFFFFFFFFFFFFFFFFFFFFFFFFFFFFFFFFFF00FFFFFFFFFFFFFFFF00FFFFFFFFFFFFFFFFFFFFFFFFFFFFFFFFFFFFFFFFFFFF00FFFFFFFFFFFFFFFF00FFFFFFFFFFFFFFFFFFFFFFFFFFFFFFFFFFFFFFFFFFFF00FFFFFFFFFFFFFFFF00FFFFFFFFFFFFFFFFFFFFFFFFFFFFFFFFFFFFFF
310
FFFFFF00000000000000000000FFFFFFFFFFFFFFFFFFFFFFFFFFFFFFFFFFFFFFFFFFFFFFFFFFFFFFFFFFFFFFFFFFFFFFFFFFFFFFFFFFFFFF
102
{BLKREFS
331
24A4
102
}
  0
BLOCK_RECORD
  5
2496
330
21C3
100
AcDbSymbolTableRecord
100
AcDbBlockTableRecord
  2
HD_LLC_logo_OT5
340
0
310
2800000020000000200000000100080000000000000400000000000000000000000000000000000000000000000080000080000000808000800000008000800080800000C0C0C000C0DCC000F0CAA6000020400000206000002080000020A0000020C0000020E00000400000004020000040400000406000004080000040A0
310
000040C0000040E00000600000006020000060400000606000006080000060A0000060C0000060E00000800000008020000080400000806000008080000080A0000080C0000080E00000A0000000A0200000A0400000A0600000A0800000A0A00000A0C00000A0E00000C0000000C0200000C0400000C0600000C0800000C0
310
A00000C0C00000C0E00000E0000000E0200000E0400000E0600000E0800000E0A00000E0C00000E0E00040000000400020004000400040006000400080004000A0004000C0004000E00040200000402020004020400040206000402080004020A0004020C0004020E000404000004040200040404000404060004040800040
310
40A0004040C0004040E00040600000406020004060400040606000406080004060A0004060C0004060E00040800000408020004080400040806000408080004080A0004080C0004080E00040A0000040A0200040A0400040A0600040A0800040A0A00040A0C00040A0E00040C0000040C0200040C0400040C0600040C08000
310
40C0A00040C0C00040C0E00040E0000040E0200040E0400040E0600040E0800040E0A00040E0C00040E0E00080000000800020008000400080006000800080008000A0008000C0008000E00080200000802020008020400080206000802080008020A0008020C0008020E00080400000804020008040400080406000804080
310
008040A0008040C0008040E00080600000806020008060400080606000806080008060A0008060C0008060E00080800000808020008080400080806000808080008080A0008080C0008080E00080A0000080A0200080A0400080A0600080A0800080A0A00080A0C00080A0E00080C0000080C0200080C0400080C0600080C0
310
800080C0A00080C0C00080C0E00080E0000080E0200080E0400080E0600080E0800080E0A00080E0C00080E0E000C0000000C0002000C0004000C0006000C0008000C000A000C000C000C000E000C0200000C0202000C0204000C0206000C0208000C020A000C020C000C020E000C0400000C0402000C0404000C0406000C0
310
408000C040A000C040C000C040E000C0600000C0602000C0604000C0606000C0608000C060A000C060C000C060E000C0800000C0802000C0804000C0806000C0808000C080A000C080C000C080E000C0A00000C0A02000C0A04000C0A06000C0A08000C0A0A000C0A0C000C0A0E000C0C00000C0C02000C0C04000C0C06000
310
C0C08000C0C0A000F0FBFF00A4A0A000808080000000FF0000FF000000FFFF00FF000000FF00FF00FFFF0000FFFFFF00FFFFFFFFFFFFFFFFFFFFFFFFFFFFFFFFFFFFFFFFFFFFFFFFFFFFFFFFFFFFFFFFFFFFFFFFFFFFFFFFFFFFFFFFFFFFFFFFFFFFFFFFFFFFFFFFFFFFFFFFFFFFFFFFFFFFFFFFFFFFFFFFFFFFFFFFFFFFFF
310
FFFFFFFFFFFFFFFFFFFFFFFFFFFFFFFFFFFFFFFFFFFFFFFFFFFFFFFFFFFFFFFFFFFFFFFFFFFFFFFFFFFFFFFFFFFFFFFFFFFFFFFFFFFFFFFFFFFFFFFFFFFFFFFFFFFFFFFFFFFFFFFFFFFFFFFFFFFFFFFFFFFFFFFFFFFFFFFFFFFFFFFFFFFFFFFFFFFFFFFFFFFFFFFFFFFFFFFFFFFFFFFFFFFFFFFFFFFFFFFFFFFFFFFFFFFFFF
310
FFFFFFFFFFFFFFFFFFFFFFFFFFFFFFFFFFFFFFFFFFFFFFFFFFFFFFFFFFFFFFFFFFFFFFFFFFFFFFFFFFFFFFFFFFFFFFFFFFFFFFFFFFFFFFFFFFFFFFFFFFFFFFFFFFFFFFFFFFFFFFFFFFFFFFFFFFFFFFFFFFFFFFFFFFFFFFFFFFFFFFFFFFFFFFFFFFFFFFFFFFFFFFFFFFFFFFFFFFFFFFFFFFFFFFFFFFFFFFFFFFFFFFFFFFFFFF
310
FFFFFFFFFFFFFFFFFFFFFFFFFFFFFFFFFFFFFFFFFFFFFFFFFFFFFFFFFFFFFFFFFFFFFFFFFFFFFFFFFFFFFFFFFFFFFFFFFFFFFFFF0000000000000000000000000000000000000000000000000000000000FFFFFF0000000000000000000000000000000000FFFFFFFFFFFFFFFFFFFF0000FFFFFF0000000000000000000000
310
00000000000000FFFFFFFFFFFFFFFFFFFF0000FFFF000000000000000000000000000000000000FFFFFF00000000FFFFFF0000FFFF00FFFFFFFFFFFF00FFFFFF00FFFFFFFFFF00FFFFFF0000000000FFFF0000FFFF00FFFFFFFFFFFF00FFFFFF00FFFFFFFFFF00FFFFFF00FFFF0000FFFF0000FFFF00FFFFFFFFFFFF00FFFF
310
00FFFFFFFFFFFF00FFFFFF00FFFF0000FFFF0000FFFF0000000000FFFF00000000FFFFFF00000000FFFFFF00000000FFFFFF0000FFFFFFFFFFFF00FFFFFFFFFFFFFFFFFF00FFFFFFFFFFFFFFFFFFFFFFFFFF0000FFFFFFFFFFFF00FFFFFFFFFFFFFFFFFF00FFFFFFFFFFFFFFFFFFFFFFFFFF0000FFFFFFFFFFFF00FFFFFFFF
310
FFFFFFFFFF00FFFFFFFFFFFFFFFFFFFFFFFF0000FFFFFF0000000000FFFF00000000FFFFFF0000000000000000000000000000FFFFFFFF00FFFFFFFFFFFF00FFFF00FFFFFFFFFFFF00FFFFFFFFFFFFFFFFFFFFFFFFFFFF00FFFFFFFFFFFF00FFFFFF00FFFFFFFFFF00FFFFFFFFFFFFFFFFFFFFFFFFFFFF0000000000000000
310
FFFFFF00000000000000FFFFFFFFFFFFFFFFFFFFFFFFFFFFFFFFFFFFFFFFFFFFFFFFFFFFFFFFFFFFFFFFFFFFFFFFFFFFFFFFFFFFFFFFFFFFFFFFFFFFFFFFFFFFFFFFFFFFFFFFFFFFFFFFFFFFFFFFFFFFFFFFFFFFFFFFFFFFFFFFFFFFFFFFFFFFFFFFFFFFFFFFFFFFFFFFFFFFFFFFFFFFFFFFFFFFFFFFFFFFFFFFFFFFFFFFFF
310
FFFFFFFFFFFFFFFFFFFFFFFFFFFFFFFFFFFFFFFFFFFFFFFFFFFFFFFFFFFFFFFFFFFFFFFFFFFFFFFFFFFFFFFFFFFFFFFFFFFFFFFFFFFFFFFF
102
{BLKREFS
331
24BC
102
}
  0
BLOCK_RECORD
  5
24BB
330
21C3
100
AcDbSymbolTableRecord
100
AcDbBlockTableRecord
  2
HD logo-new
340
0
310
2800000020000000200000000100080000000000000400000000000000000000000000000000000000000000000080000080000000808000800000008000800080800000C0C0C000C0DCC000F0CAA6000020400000206000002080000020A0000020C0000020E00000400000004020000040400000406000004080000040A0
310
000040C0000040E00000600000006020000060400000606000006080000060A0000060C0000060E00000800000008020000080400000806000008080000080A0000080C0000080E00000A0000000A0200000A0400000A0600000A0800000A0A00000A0C00000A0E00000C0000000C0200000C0400000C0600000C0800000C0
310
A00000C0C00000C0E00000E0000000E0200000E0400000E0600000E0800000E0A00000E0C00000E0E00040000000400020004000400040006000400080004000A0004000C0004000E00040200000402020004020400040206000402080004020A0004020C0004020E000404000004040200040404000404060004040800040
310
40A0004040C0004040E00040600000406020004060400040606000406080004060A0004060C0004060E00040800000408020004080400040806000408080004080A0004080C0004080E00040A0000040A0200040A0400040A0600040A0800040A0A00040A0C00040A0E00040C0000040C0200040C0400040C0600040C08000
310
40C0A00040C0C00040C0E00040E0000040E0200040E0400040E0600040E0800040E0A00040E0C00040E0E00080000000800020008000400080006000800080008000A0008000C0008000E00080200000802020008020400080206000802080008020A0008020C0008020E00080400000804020008040400080406000804080
310
008040A0008040C0008040E00080600000806020008060400080606000806080008060A0008060C0008060E00080800000808020008080400080806000808080008080A0008080C0008080E00080A0000080A0200080A0400080A0600080A0800080A0A00080A0C00080A0E00080C0000080C0200080C0400080C0600080C0
310
800080C0A00080C0C00080C0E00080E0000080E0200080E0400080E0600080E0800080E0A00080E0C00080E0E000C0000000C0002000C0004000C0006000C0008000C000A000C000C000C000E000C0200000C0202000C0204000C0206000C0208000C020A000C020C000C020E000C0400000C0402000C0404000C0406000C0
310
408000C040A000C040C000C040E000C0600000C0602000C0604000C0606000C0608000C060A000C060C000C060E000C0800000C0802000C0804000C0806000C0808000C080A000C080C000C080E000C0A00000C0A02000C0A04000C0A06000C0A08000C0A0A000C0A0C000C0A0E000C0C00000C0C02000C0C04000C0C06000
310
C0C08000C0C0A000F0FBFF00A4A0A000808080000000FF0000FF000000FFFF00FF000000FF00FF00FFFF0000FFFFFF00FFFFFFFFFFFFFFFFFFFFFFFFFFFFFFFFFFFFFFFFFFFFFFFFFFFFFFFFFFFFFFFFFFFFFFFFFFFFFFFFFFFFFFFFFFFFFFFFFFFFFFFFFFFFFFFFFFFFFFFFFFFFFFFFFFFFFFFFFFFFFFFFFFFFFFFFFFFFFF
310
FFFFFFFFFFFFFFFFFFFFFFFFFFFFFFFFFFFFFFFFFFFFFFFFFFFFFFFFFFFFFFFFFFFFFFFFFFFFFFFFFFFFFFFFFFFFFFFFFFFFFFFFFFFFFFFFFFFFFFFFFFFFFFFFFFFFFFFFFFFFFFFFFFFFFFFFFFFFFFFFFFFFFFFFFFFFFFFFFFFFFFFFFFFFFFFFFFFFFFFFFFFFFFFFFFFFFFFFFFFFFFFFFFFFFFFFFFFFFFFFFFFFFFFFFFFFFF
310
FFFFFFFFFFFFFFFFFFFFFFFFFFFFFFFFFFFFFFFFFFFFFFFFFFFFFFFFFFFFFFFFFFFFFFFFFFFFFFFFFFFFFFFFFFFFFFFFFFFFFFFFFFFFFFFFFFFFFFFFFFFFFFFFFFFFFFFFFFFFFFFFFFFFFFFFFFFFFFFFFFFFFFFFFFFFFFFFFFFFFFFFFFFFFFFFFFFFFFFFFFFFFFFFFFFFFFFFFFFFFFFFFFFFFFFFFFFFFFFFFFFFFFFFFFFFFF
310
FFFFFFFFFFFFFFFFFFFFFFFFFFFFFFFFFFFFFFFFFFFFFFFFFFFFFFFFFFFFFFFFFFFFFFFFFFFFFFFFFFFFFFFFFFFFFFFFFFFFFFFF0000000000000000000000000000000000000000000000000000000000FFFFFF0000000000000000000000000000000000FFFFFFFFFFFFFFFFFFFF0000FFFFFF0000000000000000000000
310
00000000000000FFFFFFFFFFFFFFFFFFFF0000FFFF000000000000000000000000000000000000FFFFFF00000000FFFFFF0000FFFF00FFFFFFFFFFFF00FFFFFF00FFFFFFFFFF00FFFFFF0000000000FFFF0000FFFF00FFFFFFFFFFFF00FFFFFF00FFFFFFFFFF00FFFFFF00FFFF0000FFFF0000FFFF00FFFFFFFFFFFF00FFFF
310
00FFFFFFFFFFFF00FFFFFF00FFFF0000FFFF0000FFFF0000000000FFFF00000000FFFFFF00000000FFFFFF00000000FFFFFF0000FFFFFFFFFFFF00FFFFFFFFFFFFFFFFFF00FFFFFFFFFFFFFFFFFFFFFFFFFF0000FFFFFFFFFFFF00FFFFFFFFFFFFFFFFFF00FFFFFFFFFFFFFFFFFFFFFFFFFF0000FFFFFFFFFFFF00FFFFFFFF
310
FFFFFFFFFF00FFFFFFFFFFFFFFFFFFFFFFFF0000FFFFFF0000000000FFFF00000000FFFFFF0000000000000000000000000000FFFFFFFF00FFFFFFFFFFFF00FFFF00FFFFFFFFFFFF00FFFFFFFFFFFFFFFFFFFFFFFFFFFF00FFFFFFFFFFFF00FFFFFF00FFFFFFFFFF00FFFFFFFFFFFFFFFFFFFFFFFFFFFF0000000000000000
310
FFFFFF00000000000000FFFFFFFFFFFFFFFFFFFFFFFFFFFFFFFFFFFFFFFFFFFFFFFFFFFFFFFFFFFFFFFFFFFFFFFFFFFFFFFFFFFFFFFFFFFFFFFFFFFFFFFFFFFFFFFFFFFFFFFFFFFFFFFFFFFFFFFFFFFFFFFFFFFFFFFFFFFFFFFFFFFFFFFFFFFFFFFFFFFFFFFFFFFFFFFFFFFFFFFFFFFFFFFFFFFFFFFFFFFFFFFFFFFFFFFFFF
310
FFFFFFFFFFFFFFFFFFFFFFFFFFFFFFFFFFFFFFFFFFFFFFFFFFFFFFFFFFFFFFFFFFFFFFFFFFFFFFFFFFFFFFFFFFFFFFFFFFFFFFFFFFFFFFFF
102
{BLKREFS
331
24C0
331
297F
331
2983
102
}
  0
BLOCK_RECORD
  5
24BF
330
21C3
100
AcDbSymbolTableRecord
100
AcDbBlockTableRecord
  2
HD Logo
340
0
310
2800000020000000200000000100080000000000000400000000000000000000000000000000000000000000000080000080000000808000800000008000800080800000C0C0C000C0DCC000F0CAA6000020400000206000002080000020A0000020C0000020E00000400000004020000040400000406000004080000040A0
310
000040C0000040E00000600000006020000060400000606000006080000060A0000060C0000060E00000800000008020000080400000806000008080000080A0000080C0000080E00000A0000000A0200000A0400000A0600000A0800000A0A00000A0C00000A0E00000C0000000C0200000C0400000C0600000C0800000C0
310
A00000C0C00000C0E00000E0000000E0200000E0400000E0600000E0800000E0A00000E0C00000E0E00040000000400020004000400040006000400080004000A0004000C0004000E00040200000402020004020400040206000402080004020A0004020C0004020E000404000004040200040404000404060004040800040
310
40A0004040C0004040E00040600000406020004060400040606000406080004060A0004060C0004060E00040800000408020004080400040806000408080004080A0004080C0004080E00040A0000040A0200040A0400040A0600040A0800040A0A00040A0C00040A0E00040C0000040C0200040C0400040C0600040C08000
310
40C0A00040C0C00040C0E00040E0000040E0200040E0400040E0600040E0800040E0A00040E0C00040E0E00080000000800020008000400080006000800080008000A0008000C0008000E00080200000802020008020400080206000802080008020A0008020C0008020E00080400000804020008040400080406000804080
310
008040A0008040C0008040E00080600000806020008060400080606000806080008060A0008060C0008060E00080800000808020008080400080806000808080008080A0008080C0008080E00080A0000080A0200080A0400080A0600080A0800080A0A00080A0C00080A0E00080C0000080C0200080C0400080C0600080C0
310
800080C0A00080C0C00080C0E00080E0000080E0200080E0400080E0600080E0800080E0A00080E0C00080E0E000C0000000C0002000C0004000C0006000C0008000C000A000C000C000C000E000C0200000C0202000C0204000C0206000C0208000C020A000C020C000C020E000C0400000C0402000C0404000C0406000C0
310
408000C040A000C040C000C040E000C0600000C0602000C0604000C0606000C0608000C060A000C060C000C060E000C0800000C0802000C0804000C0806000C0808000C080A000C080C000C080E000C0A00000C0A02000C0A04000C0A06000C0A08000C0A0A000C0A0C000C0A0E000C0C00000C0C02000C0C04000C0C06000
310
C0C08000C0C0A000F0FBFF00A4A0A000808080000000FF0000FF000000FFFF00FF000000FF00FF00FFFF0000FFFFFF00FFFFFFFFFFFFFFFFFFFFFFFFFFFFFFFFFFFFFFFFFFFFFFFFFFFFFFFFFFFFFFFFFFFFFFFFFFFFFFFFFFFFFFFFFFFFFFFFFFFFFFFFFFFFFFFFFFFFFFFFFFFFFFFFFFFFFFFFFFFFFFFFFFFFFFFFFFFFFF
310
FFFFFFFFFFFFFFFFFFFFFFFFFFFFFFFFFFFFFFFFFFFFFFFFFFFFFFFFFFFFFFFFFFFFFFFFFFFFFFFFFFFFFFFFFFFFFFFFFFFFFFFFFFFFFFFFFFFFFFFFFFFFFFFFFFFFFFFFFFFFFFFFFFFFFFFFFFFFFFFFFFFFFFFFFFFFFFFFFFFFFFFFFFFFFFFFFFFFFFFFFFFFFFFFFFFFFFFFFFFFFFFFFFFFFFFFFFFFFFFFFFFFFFFFFFFFFF
310
FFFFFFFFFFFFFFFFFFFFFFFFFFFFFFFFFFFFFFFFFFFFFFFFFFFFFFFFFFFFFFFFFFFFFFFFFFFFFFFFFFFFFFFFFFFFFFFFFFFFFFFFFFFFFFFFFFFFFFFFFFFFFFFFFFFFFFFFFFFFFFFFFFFFFFFFFFFFFFFFFFFFFFFFFFFFFFFFFFFFFFFFFFFFFFFFFFFFFFFFFFFFFFFFFFFFFFFFFFFFFFFFFFFFFFFFFFFFFFFFFFFFFFFFFFFFFF
310
FFFFFFFFFFFFFFFFFFFFFFFFFFFFFFFFFFFFFFFFFFFFFFFFFFFFFFFFFFFFFFFFFFFFFFFFFFFFFFFFFFFFFFFFFFFFFFFFFFFFFFFF0000000000000000000000000000000000000000000000000000000000FFFFFF0000000000000000000000000000000000FFFFFFFFFFFFFFFFFFFF0000FFFFFF0000000000000000000000
310
00000000000000FFFFFFFFFFFFFFFFFFFF0000FFFF000000000000000000000000000000000000FFFFFF00000000FFFFFF0000FFFF00FFFFFFFFFFFF00FFFFFF00FFFFFFFFFF00FFFFFF0000000000FFFF0000FFFF00FFFFFFFFFFFF00FFFFFF00FFFFFFFFFF00FFFFFF00FFFF0000FFFF0000FFFF00FFFFFFFFFFFF00FFFF
310
00FFFFFFFFFFFF00FFFFFF00FFFF0000FFFF0000FFFF0000000000FFFF00000000FFFFFF00000000FFFFFF00000000FFFFFF0000FFFFFFFFFFFF00FFFFFFFFFFFFFFFFFF00FFFFFFFFFFFFFFFFFFFFFFFFFF0000FFFFFFFFFFFF00FFFFFFFFFFFFFFFFFF00FFFFFFFFFFFFFFFFFFFFFFFFFF0000FFFFFFFFFFFF00FFFFFFFF
310
FFFFFFFFFF00FFFFFFFFFFFFFFFFFFFFFFFF0000FFFFFF0000000000FFFF00000000FFFFFF0000000000000000000000000000FFFFFFFF00FFFFFFFFFFFF00FFFF00FFFFFFFFFFFF00FFFFFFFFFFFFFFFFFFFFFFFFFFFF00FFFFFFFFFFFF00FFFFFF00FFFFFFFFFF00FFFFFFFFFFFFFFFFFFFFFFFFFFFF0000000000000000
310
FFFFFF00000000000000FFFFFFFFFFFFFFFFFFFFFFFFFFFFFFFFFFFFFFFFFFFFFFFFFFFFFFFFFFFFFFFFFFFFFFFFFFFFFFFFFFFFFFFFFFFFFFFFFFFFFFFFFFFFFFFFFFFFFFFFFFFFFFFFFFFFFFFFFFFFFFFFFFFFFFFFFFFFFFFFFFFFFFFFFFFFFFFFFFFFFFFFFFFFFFFFFFFFFFFFFFFFFFFFFFFFFFFFFFFFFFFFFFFFFFFFFF
310
FFFFFFFFFFFFFFFFFFFFFFFFFFFFFFFFFFFFFFFFFFFFFFFFFFFFFFFFFFFFFFFFFFFFFFFFFFFFFFFFFFFFFFFFFFFFFFFFFFFFFFFFFFFFFFFF
102
{BLKREFS
331
24C6
331
24CA
102
}
  0
BLOCK_RECORD
  5
24CB
330
21C3
100
AcDbSymbolTableRecord
100
AcDbBlockTableRecord
  2
Harmonic Drive LLC
340
0
310
2800000020000000200000000100080000000000000400000000000000000000000000000000000000000000000080000080000000808000800000008000800080800000C0C0C000C0DCC000F0CAA6000020400000206000002080000020A0000020C0000020E00000400000004020000040400000406000004080000040A0
310
000040C0000040E00000600000006020000060400000606000006080000060A0000060C0000060E00000800000008020000080400000806000008080000080A0000080C0000080E00000A0000000A0200000A0400000A0600000A0800000A0A00000A0C00000A0E00000C0000000C0200000C0400000C0600000C0800000C0
310
A00000C0C00000C0E00000E0000000E0200000E0400000E0600000E0800000E0A00000E0C00000E0E00040000000400020004000400040006000400080004000A0004000C0004000E00040200000402020004020400040206000402080004020A0004020C0004020E000404000004040200040404000404060004040800040
310
40A0004040C0004040E00040600000406020004060400040606000406080004060A0004060C0004060E00040800000408020004080400040806000408080004080A0004080C0004080E00040A0000040A0200040A0400040A0600040A0800040A0A00040A0C00040A0E00040C0000040C0200040C0400040C0600040C08000
310
40C0A00040C0C00040C0E00040E0000040E0200040E0400040E0600040E0800040E0A00040E0C00040E0E00080000000800020008000400080006000800080008000A0008000C0008000E00080200000802020008020400080206000802080008020A0008020C0008020E00080400000804020008040400080406000804080
310
008040A0008040C0008040E00080600000806020008060400080606000806080008060A0008060C0008060E00080800000808020008080400080806000808080008080A0008080C0008080E00080A0000080A0200080A0400080A0600080A0800080A0A00080A0C00080A0E00080C0000080C0200080C0400080C0600080C0
310
800080C0A00080C0C00080C0E00080E0000080E0200080E0400080E0600080E0800080E0A00080E0C00080E0E000C0000000C0002000C0004000C0006000C0008000C000A000C000C000C000E000C0200000C0202000C0204000C0206000C0208000C020A000C020C000C020E000C0400000C0402000C0404000C0406000C0
310
408000C040A000C040C000C040E000C0600000C0602000C0604000C0606000C0608000C060A000C060C000C060E000C0800000C0802000C0804000C0806000C0808000C080A000C080C000C080E000C0A00000C0A02000C0A04000C0A06000C0A08000C0A0A000C0A0C000C0A0E000C0C00000C0C02000C0C04000C0C06000
310
C0C08000C0C0A000F0FBFF00A4A0A000808080000000FF0000FF000000FFFF00FF000000FF00FF00FFFF0000FFFFFF00FFFFFFFFFFFFFFFFFFFFFFFFFFFFFFFFFFFFFFFFFFFFFFFFFFFFFFFFFFFFFFFFFFFFFFFFFFFFFFFFFFFFFFFFFFFFFFFFFFFFFFFFFFFFFFFFFFFFFFFFFFFFFFFFFFFFFFFFFFFFFFFFFFFFFFFFFFFFFF
310
FFFFFFFFFFFFFFFFFFFFFFFFFFFFFFFFFFFFFFFFFFFFFFFFFFFFFFFFFFFFFFFFFFFFFFFFFFFFFFFFFFFFFFFFFFFFFFFFFFFFFFFFFFFFFFFFFFFFFFFFFFFFFFFFFFFFFFFFFFFFFFFFFFFFFFFFFFFFFFFFFFFFFFFFFFFFFFFFFFFFFFFFFFFFFFFFFFFFFFFFFFFFFFFFFFFFFFFFFFFFFFFFFFFFFFFFFFFFFFFFFFFFFFFFFFFFFF
310
FFFFFFFFFFFFFFFFFFFFFFFFFFFFFFFFFFFFFFFFFFFFFFFFFFFFFFFFFFFFFFFFFFFFFFFFFFFFFFFFFFFFFFFFFFFFFFFFFFFFFFFFFFFFFFFFFFFFFFFFFFFFFFFFFFFFFFFFFFFFFFFFFFFFFFFFFFFFFFFFFFFFFFFFFFFFFFFFFFFFFFFFFFFFFFFFFFFFFFFFFFFFFFFFFFFFFFFFFFFFFFFFFFFFFFFFFFFFFFFFFFFFFFFFFFFFFF
310
FFFFFFFFFFFFFFFFFFFFFFFFFFFFFFFFFFFFFFFFFFFFFFFFFFFFFFFFFFFFFFFFFFFFFFFFFFFFFFFFFFFFFFFFFFFFFFFFFFFFFFFFFFFFFFFFFFFFFFFFFFFFFFFFFFFFFFFFFFFFFFFFFFFFFFFFFFFFFFFFFFFFFFFFFFFFFFFFFFFFFFFF0000000000000000000000000000FFFFFFFFFFFFFFFFFFFFFFFFFFFFFFFFFFFF000000
310
0000000000000000000000FFFFFFFFFFFFFFFFFFFFFFFFFFFFFFFFFFFFFFFFFF000000000000000000FFFFFFFFFFFFFFFFFFFFFFFFFFFFFFFFFFFFFFFFFFFFFF000000000000000000FFFFFFFFFFFFFFFFFFFFFFFFFFFFFFFFFFFFFFFFFF000000000000000000000000FFFFFFFFFFFFFFFFFFFFFFFFFFFFFFFFFFFFFFFF00
310
FFFFFF00FF0000FF000000FFFFFFFFFFFFFFFFFFFFFFFFFFFFFFFFFFFFFFFFFFFFFFFFFFFFFFFFFFFFFFFFFFFFFFFFFFFFFFFFFFFFFFFFFFFFFFFFFFFFFFFFFFFFFFFFFFFFFFFFFFFFFFFFFFFFFFFFFFFFFFFFFFFFFFFFFFFFFFFFFFFFFFFFFFFFFFFFFFFFFFFFFFFFFFFFFFFFFFFFFFFFFFFFFFFFFFFFFFFFFFFFFFFFFFFF
310
FFFFFFFFFFFFFFFFFFFFFFFFFFFFFFFFFFFFFFFFFFFFFFFFFFFFFFFFFFFFFFFFFFFFFFFFFFFFFFFFFFFFFFFFFFFFFFFFFFFFFFFFFFFFFFFFFFFFFFFFFFFFFFFFFFFFFFFFFFFFFFFFFFFFFFFFFFFFFFFFFFFFFFFFFFFFFFFFFFFFFFFFFFFFFFFFFFFFFFFFFFFFFFFFFFFFFFFFFFFFFFFFFFFFFFFFFFFFFFFFFFFFFFFFFFFFFF
310
FFFFFFFFFFFFFFFFFFFFFFFFFFFFFFFFFFFFFFFFFFFFFFFFFFFFFFFFFFFFFFFFFFFFFFFFFFFFFFFFFFFFFFFFFFFFFFFFFFFFFFFFFFFFFFFFFFFFFFFFFFFFFFFFFFFFFFFFFFFFFFFFFFFFFFFFFFFFFFFFFFFFFFFFFFFFFFFFFFFFFFFFFFFFFFFFFFFFFFFFFFFFFFFFFFFFFFFFFFFFFFFFFFFFFFFFFFFFFFFFFFFFFFFFFFFFFF
310
FFFFFFFFFFFFFFFFFFFFFFFFFFFFFFFFFFFFFFFFFFFFFFFFFFFFFFFFFFFFFFFFFFFFFFFFFFFFFFFFFFFFFFFFFFFFFFFFFFFFFFFFFFFFFFFF
102
{BLKREFS
331
24D0
331
24D5
102
}
  0
BLOCK_RECORD
  5
2974
330
21C3
100
AcDbSymbolTableRecord
100
AcDbBlockTableRecord
  2
HD LLC
340
0
310
2800000020000000200000000100080000000000000400000000000000000000000000000000000000000000000080000080000000808000800000008000800080800000C0C0C000C0DCC000F0CAA6000020400000206000002080000020A0000020C0000020E00000400000004020000040400000406000004080000040A0
310
000040C0000040E00000600000006020000060400000606000006080000060A0000060C0000060E00000800000008020000080400000806000008080000080A0000080C0000080E00000A0000000A0200000A0400000A0600000A0800000A0A00000A0C00000A0E00000C0000000C0200000C0400000C0600000C0800000C0
310
A00000C0C00000C0E00000E0000000E0200000E0400000E0600000E0800000E0A00000E0C00000E0E00040000000400020004000400040006000400080004000A0004000C0004000E00040200000402020004020400040206000402080004020A0004020C0004020E000404000004040200040404000404060004040800040
310
40A0004040C0004040E00040600000406020004060400040606000406080004060A0004060C0004060E00040800000408020004080400040806000408080004080A0004080C0004080E00040A0000040A0200040A0400040A0600040A0800040A0A00040A0C00040A0E00040C0000040C0200040C0400040C0600040C08000
310
40C0A00040C0C00040C0E00040E0000040E0200040E0400040E0600040E0800040E0A00040E0C00040E0E00080000000800020008000400080006000800080008000A0008000C0008000E00080200000802020008020400080206000802080008020A0008020C0008020E00080400000804020008040400080406000804080
310
008040A0008040C0008040E00080600000806020008060400080606000806080008060A0008060C0008060E00080800000808020008080400080806000808080008080A0008080C0008080E00080A0000080A0200080A0400080A0600080A0800080A0A00080A0C00080A0E00080C0000080C0200080C0400080C0600080C0
310
800080C0A00080C0C00080C0E00080E0000080E0200080E0400080E0600080E0800080E0A00080E0C00080E0E000C0000000C0002000C0004000C0006000C0008000C000A000C000C000C000E000C0200000C0202000C0204000C0206000C0208000C020A000C020C000C020E000C0400000C0402000C0404000C0406000C0
310
408000C040A000C040C000C040E000C0600000C0602000C0604000C0606000C0608000C060A000C060C000C060E000C0800000C0802000C0804000C0806000C0808000C080A000C080C000C080E000C0A00000C0A02000C0A04000C0A06000C0A08000C0A0A000C0A0C000C0A0E000C0C00000C0C02000C0C04000C0C06000
310
C0C08000C0C0A000F0FBFF00A4A0A000808080000000FF0000FF000000FFFF00FF000000FF00FF00FFFF0000FFFFFF00FFFFFFFFFFFFFFFFFFFFFFFFFFFFFFFFFFFFFFFFFFFFFFFFFFFFFFFFFFFFFFFFFFFFFFFFFFFFFFFFFFFFFFFFFFFFFFFFFFFFFFFFFFFFFFFFFFFFFFFFFFFFFFFFFFFFFFFFFFFFFFFFFFFFFFFFFFFFFF
310
FFFFFFFFFFFFFFFFFFFFFFFFFFFFFFFFFFFFFFFFFFFFFFFFFFFFFFFFFFFFFFFFFFFFFFFFFFFFFFFFFFFFFFFFFFFFFFFFFFFFFFFFFFFFFFFFFFFFFFFFFFFFFFFFFFFFFFFFFFFFFFFFFFFFFFFFFFFFFFFFFFFFFFFFFFFFFFFFFFFFFFFFFFFFFFFFFFFFFFFFFFFFFFFFFFFFFFFFFFFFFFFFFFFFFFFFFFFFFFFFFFFFFFFFFFFFFF
310
FFFFFFFFFFFFFFFFFFFFFFFFFFFFFFFFFFFFFFFFFFFFFFFFFFFFFFFFFFFFFFFFFFFFFFFFFFFFFFFFFFFFFFFFFFFFFFFFFFFFFFFFFFFFFFFFFFFFFFFFFFFFFFFFFFFFFFFFFFFFFFFFFFFFFFFFFFFFFFFFFFFFFFFFFFFFFFFFFFFFFFFFFFFFFFFFFFFFFFFFFFFFFFFFFFFFFFFFFFFFFFFFFFFFFFFFFFFFFFFFFFFFFFFFFFFFFF
310
FFFFFFFFFFFFFFFFFFFFFFFFFFFFFFFFFFFFFFFFFFFFFFFFFFFFFFFFFFFFFFFFFFFFFFFFFFFFFFFFFFFFFFFFFFFFFFFFFFFFFFFFFFFFFFFFFFFFFFFFFFFFFFFFFFFFFFFFFFFFFFFFFFFFFFFFFFFFFFFFFFFFFFFFFFFFFFFFFFFFFFFFFFFFFFFFFFFFFFFFFFFFFFFFFFFFFFFFFFFFFFFFFFFFFFFFFFFFFFFFFFFFFFFFFFFF00
310
000000000000000000FFFFFFFFFFFFFFFFFFFFFFFFFFFFFFFFFFFFFFFFFFFF00000000000000000000FFFFFFFFFFFFFFFFFFFFFFFFFFFFFFFFFFFFFFFFFFFF00000000000000000000FFFFFFFFFFFFFFFFFFFFFFFFFFFFFFFFFFFFFFFFFFFF00000000000000000000FFFFFFFFFFFFFFFFFFFFFFFFFFFFFFFFFFFFFFFFFFFF
310
FFFFFFFFFFFFFFFFFFFFFFFFFFFFFFFFFFFFFFFFFFFFFFFFFFFFFFFFFFFFFFFFFFFFFFFFFFFFFFFFFFFFFFFFFFFFFFFFFFFFFFFFFFFFFFFFFFFFFFFFFFFFFFFFFFFFFFFFFFFFFFFFFFFFFFFFFFFFFFFFFFFFFFFFFFFFFFFFFFFFFFFFFFFFFFFFFFFFFFFFFFFFFFFFFFFFFFFFFFFFFFFFFFFFFFFFFFFFFFFFFFFFFFFFFFFFFF
310
FFFFFFFFFFFFFFFFFFFFFFFFFFFFFFFFFFFFFFFFFFFFFFFFFFFFFFFFFFFFFFFFFFFFFFFFFFFFFFFFFFFFFFFFFFFFFFFFFFFFFFFFFFFFFFFFFFFFFFFFFFFFFFFFFFFFFFFFFFFFFFFFFFFFFFFFFFFFFFFFFFFFFFFFFFFFFFFFFFFFFFFFFFFFFFFFFFFFFFFFFFFFFFFFFFFFFFFFFFFFFFFFFFFFFFFFFFFFFFFFFFFFFFFFFFFFFF
310
FFFFFFFFFFFFFFFFFFFFFFFFFFFFFFFFFFFFFFFFFFFFFFFFFFFFFFFFFFFFFFFFFFFFFFFFFFFFFFFFFFFFFFFFFFFFFFFFFFFFFFFFFFFFFFFFFFFFFFFFFFFFFFFFFFFFFFFFFFFFFFFFFFFFFFFFFFFFFFFFFFFFFFFFFFFFFFFFFFFFFFFFFFFFFFFFFFFFFFFFFFFFFFFFFFFFFFFFFFFFFFFFFFFFFFFFFFFFFFFFFFFFFFFFFFFFFF
310
FFFFFFFFFFFFFFFFFFFFFFFFFFFFFFFFFFFFFFFFFFFFFFFFFFFFFFFFFFFFFFFFFFFFFFFFFFFFFFFFFFFFFFFFFFFFFFFFFFFFFFFFFFFFFFFF
102
{BLKREFS
331
2979
331
297D
102
}
  0
BLOCK_RECORD
  5
2985
330
21C3
100
AcDbSymbolTableRecord
100
AcDbBlockTableRecord
  2
NTC
340
0
310
2800000020000000200000000100080000000000000400000000000000000000000000000000000000000000000080000080000000808000800000008000800080800000C0C0C000C0DCC000F0CAA6000020400000206000002080000020A0000020C0000020E00000400000004020000040400000406000004080000040A0
310
000040C0000040E00000600000006020000060400000606000006080000060A0000060C0000060E00000800000008020000080400000806000008080000080A0000080C0000080E00000A0000000A0200000A0400000A0600000A0800000A0A00000A0C00000A0E00000C0000000C0200000C0400000C0600000C0800000C0
310
A00000C0C00000C0E00000E0000000E0200000E0400000E0600000E0800000E0A00000E0C00000E0E00040000000400020004000400040006000400080004000A0004000C0004000E00040200000402020004020400040206000402080004020A0004020C0004020E000404000004040200040404000404060004040800040
310
40A0004040C0004040E00040600000406020004060400040606000406080004060A0004060C0004060E00040800000408020004080400040806000408080004080A0004080C0004080E00040A0000040A0200040A0400040A0600040A0800040A0A00040A0C00040A0E00040C0000040C0200040C0400040C0600040C08000
310
40C0A00040C0C00040C0E00040E0000040E0200040E0400040E0600040E0800040E0A00040E0C00040E0E00080000000800020008000400080006000800080008000A0008000C0008000E00080200000802020008020400080206000802080008020A0008020C0008020E00080400000804020008040400080406000804080
310
008040A0008040C0008040E00080600000806020008060400080606000806080008060A0008060C0008060E00080800000808020008080400080806000808080008080A0008080C0008080E00080A0000080A0200080A0400080A0600080A0800080A0A00080A0C00080A0E00080C0000080C0200080C0400080C0600080C0
310
800080C0A00080C0C00080C0E00080E0000080E0200080E0400080E0600080E0800080E0A00080E0C00080E0E000C0000000C0002000C0004000C0006000C0008000C000A000C000C000C000E000C0200000C0202000C0204000C0206000C0208000C020A000C020C000C020E000C0400000C0402000C0404000C0406000C0
310
408000C040A000C040C000C040E000C0600000C0602000C0604000C0606000C0608000C060A000C060C000C060E000C0800000C0802000C0804000C0806000C0808000C080A000C080C000C080E000C0A00000C0A02000C0A04000C0A06000C0A08000C0A0A000C0A0C000C0A0E000C0C00000C0C02000C0C04000C0C06000
310
C0C08000C0C0A000F0FBFF00A4A0A000808080000000FF0000FF000000FFFF00FF000000FF00FF00FFFF0000FFFFFF00FFFFFFFFFFFFFFFFFFFFFFFFFFFFFFFFFFFFFFFFFFFFFFFFFFFFFFFFFFFFFFFFFFFFFFFFFFFFFFFFFFFFFFFFFFFFFFFFFFFFFFFFFFFFFFFFFFFFFFFFFFFFFFFFFFFFFFFFFFFFFFFFFFFFFFFFFFFFFF
310
FFFFFFFFFFFFFFFFFFFFFFFFFFFFFFFFFFFFFFFFFFFFFFFFFFFFFFFFFFFFFFFFFFFFFFFFFFFFFFFFFFFFFFFFFFFFFFFFFFFFFFFFFFFFFFFFFFFFFFFFFFFFFFFFFFFFFFFFFFFFFFFFFFFFFFFFFFFFFFFFFFFFFFFFFFFFFFFFFFFFFFFFFFFFFFFFFFFFFFFFFFFFFFFFFFFFFFFFFFFFFFFFFFFFFFFFFFFFFFFFFFFFFFFFFFFFFF
310
FFFFFFFFFFFFFFFFFFFFFFFFFFFFFFFFFFFFFFFFFFFFFFFFFFFFFFFFFFFFFFFFFFFFFFFFFFFFFFFFFFFFFFFFFFFFFFFFFFFFFFFFFFFFFFFFFFFFFFFFFFFFFFFFFFFFFFFFFFFFFFFFFFFFFFFFFFFFFFFFFFFFFFFFFFFFFFFFFFFFFFFFFFFFFFFFFFFFFFFFFFFFFFFFFFFFFFFFFFFFFFFFFFFFFFFFFFFFFFFFFFFFFFFFFFFFFF
310
FFFFFFFFFFFFFFFFFFFFFFFFFFFFFFFFFFFFFFFF000000000000000000000000000000000000000000000000000000000000FFFF00FF0000000000000000FFFFFFFFFFFFFFFFFFFFFFFFFFFFFFFFFFFFFF00FFFF00FF0000000000000000FFFFFFFFFFFFFFFFFFFFFFFFFFFFFFFFFFFFFF00FFFF00FF000000000000000000
310
00000000000000000000000000FFFFFFFFFF00FFFF00FF0000000000000000000000000000000000000000000000000000FF00FFFF00FF0000000000000000000000000000000000000000000000000000FF00FFFF00FF0000000000000000000000000000000000000000000000000000FF00FFFF00FF0000000000000000
310
00000000000000000000000000000000FFFFFF00FFFF00FF0000000000FFFFFFFFFFFFFFFFFFFFFFFFFFFFFFFFFFFFFFFFFFFF00FFFF000000000000000000000000000000000000000000000000000000000000FFFFFFFFFFFFFFFFFFFFFFFFFFFFFFFFFFFFFFFFFFFFFFFFFFFFFFFFFFFFFFFFFFFFFFFFFFFFFFFFFFFFFF
310
FFFFFFFFFFFFFFFFFFFFFFFFFFFFFFFFFFFFFFFFFFFFFFFFFFFFFFFFFFFFFFFFFFFFFFFFFFFFFFFFFFFFFFFFFFFFFFFFFFFFFFFFFFFFFFFFFFFFFFFFFFFFFFFFFFFFFFFFFFFFFFFFFFFFFFFFFFFFFFFFFFFFFFFFFFFFFFFFFFFFFFFFFFFFFFFFFFFFFFFFFFFFFFFFFFFFFFFFFFFFFFFFFFFFFFFFFFFFFFFFFFFFFFFFFFFFFF
310
FFFFFFFFFFFFFFFFFFFFFFFFFFFFFFFFFFFFFFFFFFFFFFFFFFFFFFFFFFFFFFFFFFFFFFFFFFFFFFFFFFFFFFFFFFFFFFFFFFFFFFFFFFFFFFFFFFFFFFFFFFFFFFFFFFFFFFFFFFFFFFFFFFFFFFFFFFFFFFFFFFFFFFFFFFFFFFFFFFFFFFFFFFFFFFFFFFFFFFFFFFFFFFFFFFFFFFFFFFFFFFFFFFFFFFFFFFFFFFFFFFFFFFFFFFFFFF
310
FFFFFFFFFFFFFFFFFFFFFFFFFFFFFFFFFFFFFFFFFFFFFFFFFFFFFFFFFFFFFFFFFFFFFFFFFFFFFFFFFFFFFFFFFFFFFFFFFFFFFFFFFFFFFFFF
102
{BLKREFS
331
298B
331
2991
102
}
  0
ENDTAB
  0
ENDSEC
  0
SECTION
  2
BLOCKS
  0
BLOCK
  5
21E1
330
21E0
100
AcDbEntity
  8
0
100
AcDbBlockBegin
  2
*Model_Space
 70
     0
 10
0.0
 20
0.0
 30
0.0
  3
*Model_Space
  1

  0
ENDBLK
  5
21E2
330
21E0
100
AcDbEntity
  8
0
100
AcDbBlockEnd
  0
BLOCK
  5
21DD
330
21DC
100
AcDbEntity
 67
     1
  8
0
100
AcDbBlockBegin
  2
*Paper_Space
 70
     0
 10
0.0
 20
0.0
 30
0.0
  3
*Paper_Space
  1

  0
ENDBLK
  5
21DE
330
21DC
100
AcDbEntity
 67
     1
  8
0
100
AcDbBlockEnd
  0
BLOCK
  5
21FA
330
21F9
100
AcDbEntity
  8
0
100
AcDbBlockBegin
  2
$MODEL_SPACE
 70
     0
 10
0.0
 20
0.0
 30
0.0
  3
$MODEL_SPACE
  1

  0
ENDBLK
  5
21FB
330
21F9
100
AcDbEntity
  8
0
100
AcDbBlockEnd
  0
BLOCK
  5
21FD
330
21FC
100
AcDbEntity
  8
0
100
AcDbBlockBegin
  2
$PAPER_SPACE
 70
     0
 10
0.0
 20
0.0
 30
0.0
  3
$PAPER_SPACE
  1

  0
ENDBLK
  5
21FE
330
21FC
100
AcDbEntity
  8
0
100
AcDbBlockEnd
  0
BLOCK
  5
245A
330
2457
100
AcDbEntity
  8
0
 62
     7
100
AcDbBlockBegin
  2
AI9-BLK14
 70
     0
 10
0.0
 20
0.0
 30
0.0
  3
AI9-BLK14
  1

  0
SPLINE
  5
2458
330
2457
100
AcDbEntity
  8
LAYER_1
 62
     7
100
AcDbSpline
210
0.0
220
0.0
230
1.0
 70
    11
 71
     3
 72
    23
 73
    19
 74
     0
 42
0.0000000001
 43
0.0000000001
 40
0.0
 40
0.0
 40
0.0
 40
0.0
 40
1.0
 40
1.0
 40
1.0
 40
2.0
 40
2.0
 40
2.0
 40
3.0
 40
3.0
 40
3.0
 40
4.0
 40
4.0
 40
4.0
 40
5.0
 40
5.0
 40
5.0
 40
6.0
 40
6.0
 40
6.0
 40
6.0
 10
-10.90321044921874
 20
10.88107571072048
 30
0.0
 10
-10.90321044921874
 20
10.88107571072048
 30
0.0
 10
-10.90321044921874
 20
-10.88107571072048
 30
0.0
 10
-10.90321044921874
 20
-10.88107571072048
 30
0.0
 10
-10.90321044921874
 20
-10.88107571072048
 30
0.0
 10
1.752692328559025
 20
-10.88107571072048
 30
0.0
 10
1.752692328559025
 20
-10.88107571072048
 30
0.0
 10
3.280592176649305
 20
-10.88107571072048
 30
0.0
 10
10.90321044921874
 20
-10.32383151584201
 30
0.0
 10
10.90321044921874
 20
0.6792867024739583
 30
0.0
 10
10.90321044921874
 20
10.61700914171006
 30
0.0
 10
2.773129611545138
 20
10.87952541775172
 30
0.0
 10
2.691136338975693
 20
10.88090345594618
 30
0.0
 10
2.691136338975693
 20
10.88090345594618
 30
0.0
 10
-9.903099229600693
 20
10.88107571072048
 30
0.0
 10
-9.903099229600693
 20
10.88107571072048
 30
0.0
 10
-9.903099229600693
 20
10.88107571072048
 30
0.0
 10
-10.90321044921874
 20
10.88107571072048
 30
0.0
 10
-10.90321044921874
 20
10.88107571072048
 30
0.0
  0
SPLINE
  5
2459
330
2457
100
AcDbEntity
  8
LAYER_1
 62
     7
100
AcDbSpline
210
0.0
220
0.0
230
1.0
 70
    11
 71
     3
 72
    20
 73
    16
 74
     0
 42
0.0000000001
 43
0.0000000001
 40
0.0
 40
0.0
 40
0.0
 40
0.0
 40
1.0
 40
1.0
 40
1.0
 40
2.0
 40
2.0
 40
2.0
 40
3.0
 40
3.0
 40
3.0
 40
4.0
 40
4.0
 40
4.0
 40
5.0
 40
5.0
 40
5.0
 40
5.0
 10
2.672877332899305
 20
8.881197781032986
 30
0.0
 10
2.905421278211805
 20
8.874307590060762
 30
0.0
 10
8.902988009982637
 20
8.616442192925347
 30
0.0
 10
8.902988009982637
 20
0.6792867024739583
 30
0.0
 10
8.902988009982637
 20
-8.191661919487842
 30
0.0
 10
3.430109320746526
 20
-8.881197781032986
 30
0.0
 10
1.752692328559025
 20
-8.881197781032986
 30
0.0
 10
1.752692328559025
 20
-8.881197781032986
 30
0.0
 10
-7.231427680121528
 20
-8.881197781032986
 30
0.0
 10
-8.902988009982637
 20
-8.881197781032986
 30
0.0
 10
-8.902988009982637
 20
-7.174497477213541
 30
0.0
 10
-8.902988009982637
 20
7.174497477213541
 30
0.0
 10
-8.902988009982637
 20
8.881197781032986
 30
0.0
 10
-7.208690049913191
 20
8.881197781032986
 30
0.0
 10
2.672877332899305
 20
8.881197781032986
 30
0.0
 10
2.672877332899305
 20
8.881197781032986
 30
0.0
  0
ENDBLK
  5
245B
330
2457
100
AcDbEntity
  8
0
100
AcDbBlockEnd
  0
BLOCK
  5
245F
330
245C
100
AcDbEntity
  8
0
 62
     7
100
AcDbBlockBegin
  2
AI9-BLK13
 70
     0
 10
0.0
 20
0.0
 30
0.0
  3
AI9-BLK13
  1

  0
LWPOLYLINE
  5
245D
330
245C
100
AcDbEntity
  8
LAYER_1
 62
     7
100
AcDbPolyline
 90
       12
 70
     1
 43
0.0
 10
-3.792361111111107
 20
10.7376736111111
 10
-2.469444444444443
 20
10.7376736111111
 10
-2.469444444444443
 20
1.874131944444444
 10
2.469444444444443
 20
1.874131944444444
 10
2.469444444444443
 20
10.7376736111111
 10
3.792361111111107
 20
10.7376736111111
 10
3.792361111111107
 20
-10.7376736111111
 10
2.469444444444443
 20
-10.7376736111111
 10
2.469444444444443
 20
-0.6835069444444444
 10
-2.469444444444443
 20
-0.6835069444444444
 10
-2.469444444444443
 20
-10.7376736111111
 10
-3.792361111111107
 20
-10.7376736111111
  0
HATCH
  5
245E
330
245C
100
AcDbEntity
  8
LAYER_1
 62
     7
100
AcDbHatch
 10
0.0
 20
0.0
 30
0.0
210
0.0
220
0.0
230
1.0
  2
SOLID
 70
     1
 71
     0
 91
        1
 92
        3
 72
     0
 73
     1
 93
       12
 10
-3.792361111111107
 20
10.7376736111111
 10
-2.469444444444443
 20
10.7376736111111
 10
-2.469444444444443
 20
1.874131944444444
 10
2.469444444444443
 20
1.874131944444444
 10
2.469444444444443
 20
10.7376736111111
 10
3.792361111111107
 20
10.7376736111111
 10
3.792361111111107
 20
-10.7376736111111
 10
2.469444444444443
 20
-10.7376736111111
 10
2.469444444444443
 20
-0.6835069444444444
 10
-2.469444444444443
 20
-0.6835069444444444
 10
-2.469444444444443
 20
-10.7376736111111
 10
-3.792361111111107
 20
-10.7376736111111
 97
        0
 75
     2
 76
     1
 98
        1
 10
0.0
 20
0.0
  0
ENDBLK
  5
2460
330
245C
100
AcDbEntity
  8
0
100
AcDbBlockEnd
  0
BLOCK
  5
2464
330
2461
100
AcDbEntity
  8
0
 62
     7
100
AcDbBlockBegin
  2
AI9-BLK11
 70
     0
 10
0.0
 20
0.0
 30
0.0
  3
AI9-BLK11
  1

  0
SPLINE
  5
2462
330
2461
100
AcDbEntity
  8
LAYER_1
 62
     7
100
AcDbSpline
210
0.0
220
0.0
230
1.0
 70
    11
 71
     3
 72
    26
 73
    22
 74
     0
 42
0.0000000001
 43
0.0000000001
 40
0.0
 40
0.0
 40
0.0
 40
0.0
 40
1.0
 40
1.0
 40
1.0
 40
2.0
 40
2.0
 40
2.0
 40
3.0
 40
3.0
 40
3.0
 40
4.0
 40
4.0
 40
4.0
 40
5.0
 40
5.0
 40
5.0
 40
6.0
 40
6.0
 40
6.0
 40
7.0
 40
7.0
 40
7.0
 40
7.0
 10
-2.645833333333333
 20
0.9039930555555551
 30
0.0
 10
-2.645833333333333
 20
0.9039930555555551
 30
0.0
 10
-2.645833333333333
 20
8.180034722222217
 30
0.0
 10
-2.645833333333333
 20
8.180034722222217
 30
0.0
 10
-2.645833333333333
 20
8.180034722222217
 30
0.0
 10
0.465087890625
 20
8.180034722222217
 30
0.0
 10
0.465087890625
 20
8.180034722222217
 30
0.0
 10
0.9026150173611108
 20
8.180034722222217
 30
0.0
 10
1.24988064236111
 20
8.034651692708331
 30
0.0
 10
1.506884765625
 20
7.745263671874997
 30
0.0
 10
2.001600477430554
 20
7.194048394097221
 30
0.0
 10
2.248958333333332
 20
6.160519748263887
 30
0.0
 10
2.248958333333332
 20
4.643299696180553
 30
0.0
 10
2.248958333333332
 20
3.232188585069443
 30
0.0
 10
2.072569444444444
 20
2.256537543402775
 30
0.0
 10
1.720480685763888
 20
1.715657552083333
 30
0.0
 10
1.368391927083333
 20
1.174088541666665
 30
0.0
 10
0.8929687499999998
 20
0.9039930555555551
 30
0.0
 10
0.2942111545138888
 20
0.9039930555555551
 30
0.0
 10
0.2942111545138888
 20
0.9039930555555551
 30
0.0
 10
-2.645833333333333
 20
0.9039930555555551
 30
0.0
 10
-2.645833333333333
 20
0.9039930555555551
 30
0.0
  0
SPLINE
  5
2463
330
2461
100
AcDbEntity
  8
LAYER_1
 62
     7
100
AcDbSpline
210
0.0
220
0.0
230
1.0
 70
    11
 71
     3
 72
    68
 73
    64
 74
     0
 42
0.0000000001
 43
0.0000000001
 40
0.0
 40
0.0
 40
0.0
 40
0.0
 40
1.0
 40
1.0
 40
1.0
 40
2.0
 40
2.0
 40
2.0
 40
3.0
 40
3.0
 40
3.0
 40
4.0
 40
4.0
 40
4.0
 40
5.0
 40
5.0
 40
5.0
 40
6.0
 40
6.0
 40
6.0
 40
7.0
 40
7.0
 40
7.0
 40
8.0
 40
8.0
 40
8.0
 40
9.0
 40
9.0
 40
9.0
 40
10.0
 40
10.0
 40
10.0
 40
11.0
 40
11.0
 40
11.0
 40
12.0
 40
12.0
 40
12.0
 40
13.0
 40
13.0
 40
13.0
 40
14.0
 40
14.0
 40
14.0
 40
15.0
 40
15.0
 40
15.0
 40
16.0
 40
16.0
 40
16.0
 40
17.0
 40
17.0
 40
17.0
 40
18.0
 40
18.0
 40
18.0
 40
19.0
 40
19.0
 40
19.0
 40
20.0
 40
20.0
 40
20.0
 40
21.0
 40
21.0
 40
21.0
 40
21.0
 10
-3.968749999999998
 20
-10.7376736111111
 30
0.0
 10
-3.968749999999998
 20
-10.7376736111111
 30
0.0
 10
-2.645833333333333
 20
-10.7376736111111
 30
0.0
 10
-2.645833333333333
 20
-10.7376736111111
 30
0.0
 10
-2.645833333333333
 20
-10.7376736111111
 30
0.0
 10
-2.645833333333333
 20
-1.521354166666665
 30
0.0
 10
-2.645833333333333
 20
-1.521354166666665
 30
0.0
 10
-2.645833333333333
 20
-1.521354166666665
 30
0.0
 10
0.2390896267361111
 20
-1.521354166666665
 30
0.0
 10
0.2390896267361111
 20
-1.521354166666665
 30
0.0
 10
0.7599880642361111
 20
-1.521354166666665
 30
0.0
 10
1.143771701388887
 20
-1.65295681423611
 30
0.0
 10
1.390440538194444
 20
-1.916162109374999
 30
0.0
 10
1.816254340277773
 20
-2.39434136284722
 30
0.0
 10
2.04363064236111
 20
-3.335541449652775
 30
0.0
 10
2.072569444444444
 20
-4.739762369791666
 30
0.0
 10
2.072569444444444
 20
-4.739762369791666
 30
0.0
 10
2.160763888888888
 20
-8.324039713541665
 30
0.0
 10
2.160763888888888
 20
-8.324039713541665
 30
0.0
 10
2.18005642361111
 20
-9.163264973958332
 30
0.0
 10
2.202794053819443
 20
-9.728949652777775
 30
0.0
 10
2.227598741319444
 20
-10.02109374999998
 30
0.0
 10
2.252403428819443
 20
-10.31392686631944
 30
0.0
 10
2.28892144097222
 20
-10.55301649305555
 30
0.0
 10
2.33853081597222
 20
-10.7376736111111
 30
0.0
 10
2.33853081597222
 20
-10.7376736111111
 30
0.0
 10
3.968749999999998
 20
-10.7376736111111
 30
0.0
 10
3.968749999999998
 20
-10.7376736111111
 30
0.0
 10
3.968749999999998
 20
-10.7376736111111
 30
0.0
 10
3.968749999999998
 20
-10.25260416666666
 30
0.0
 10
3.968749999999998
 20
-10.25260416666666
 30
0.0
 10
3.766867404513888
 20
-10.05830078125
 30
0.0
 10
3.625618489583333
 20
-9.621462673611112
 30
0.0
 10
3.545692274305555
 20
-8.942089843749997
 30
0.0
 10
3.49470486111111
 20
-8.543836805555555
 30
0.0
 10
3.459564887152775
 20
-7.937499999999999
 30
0.0
 10
3.439583333333333
 20
-7.121701388888887
 30
0.0
 10
3.439583333333333
 20
-7.121701388888887
 30
0.0
 10
3.395486111111106
 20
-4.232644314236106
 30
0.0
 10
3.395486111111106
 20
-4.232644314236106
 30
0.0
 10
3.375504557291666
 20
-2.981385633680555
 30
0.0
 10
3.26870659722222
 20
-2.077392578125
 30
0.0
 10
3.075781249999999
 20
-1.522043185763888
 30
0.0
 10
2.882166883680555
 20
-0.9666937934027776
 30
0.0
 10
2.592089843749999
 20
-0.5188313802083333
 30
0.0
 10
2.204861111111106
 20
-0.1770779079861111
 30
0.0
 10
2.63618706597222
 20
0.3197048611111111
 30
0.0
 10
2.971739366319443
 20
0.9770290798611107
 30
0.0
 10
3.211518012152775
 20
1.79558376736111
 30
0.0
 10
3.451296657986107
 20
2.613449435763888
 30
0.0
 10
3.571874999999999
 20
3.66558159722222
 30
0.0
 10
3.571874999999999
 20
4.951291232638888
 30
0.0
 10
3.571874999999999
 20
7.415912543402777
 30
0.0
 10
3.124701605902775
 20
9.106076388888887
 30
0.0
 10
2.231043836805555
 20
10.02178276909722
 30
0.0
 10
1.759754774305553
 20
10.498583984375
 30
0.0
 10
1.163753255208332
 20
10.7376736111111
 30
0.0
 10
0.443039279513889
 20
10.7376736111111
 30
0.0
 10
0.443039279513889
 20
10.7376736111111
 30
0.0
 10
-3.968749999999998
 20
10.7376736111111
 30
0.0
 10
-3.968749999999998
 20
10.7376736111111
 30
0.0
 10
-3.968749999999998
 20
10.7376736111111
 30
0.0
 10
-3.968749999999998
 20
-10.7376736111111
 30
0.0
 10
-3.968749999999998
 20
-10.7376736111111
 30
0.0
  0
ENDBLK
  5
2465
330
2461
100
AcDbEntity
  8
0
100
AcDbBlockEnd
  0
BLOCK
  5
2468
330
2466
100
AcDbEntity
  8
0
 62
     7
100
AcDbBlockBegin
  2
AI9-BLK10
 70
     0
 10
0.0
 20
0.0
 30
0.0
  3
AI9-BLK10
  1

  0
SPLINE
  5
2467
330
2466
100
AcDbEntity
  8
LAYER_1
 62
     7
100
AcDbSpline
210
0.0
220
0.0
230
1.0
 70
    11
 71
     3
 72
    59
 73
    55
 74
     0
 42
0.0000000001
 43
0.0000000001
 40
0.0
 40
0.0
 40
0.0
 40
0.0
 40
1.0
 40
1.0
 40
1.0
 40
2.0
 40
2.0
 40
2.0
 40
3.0
 40
3.0
 40
3.0
 40
4.0
 40
4.0
 40
4.0
 40
5.0
 40
5.0
 40
5.0
 40
6.0
 40
6.0
 40
6.0
 40
7.0
 40
7.0
 40
7.0
 40
8.0
 40
8.0
 40
8.0
 40
9.0
 40
9.0
 40
9.0
 40
10.0
 40
10.0
 40
10.0
 40
11.0
 40
11.0
 40
11.0
 40
12.0
 40
12.0
 40
12.0
 40
13.0
 40
13.0
 40
13.0
 40
14.0
 40
14.0
 40
14.0
 40
15.0
 40
15.0
 40
15.0
 40
16.0
 40
16.0
 40
16.0
 40
17.0
 40
17.0
 40
17.0
 40
18.0
 40
18.0
 40
18.0
 40
18.0
 10
-4.652256944444443
 20
10.7376736111111
 30
0.0
 10
-4.652256944444443
 20
10.7376736111111
 30
0.0
 10
-2.798795572916666
 20
10.7376736111111
 30
0.0
 10
-2.798795572916666
 20
10.7376736111111
 30
0.0
 10
-2.798795572916666
 20
10.7376736111111
 30
0.0
 10
0.0
 20
-7.419357638888887
 30
0.0
 10
0.0
 20
-7.419357638888887
 30
0.0
 10
0.0
 20
-7.419357638888887
 30
0.0
 10
2.793283420138888
 20
10.7376736111111
 30
0.0
 10
2.793283420138888
 20
10.7376736111111
 30
0.0
 10
2.793283420138888
 20
10.7376736111111
 30
0.0
 10
4.652256944444443
 20
10.7376736111111
 30
0.0
 10
4.652256944444443
 20
10.7376736111111
 30
0.0
 10
4.652256944444443
 20
10.7376736111111
 30
0.0
 10
4.652256944444443
 20
-10.7376736111111
 30
0.0
 10
4.652256944444443
 20
-10.7376736111111
 30
0.0
 10
4.652256944444443
 20
-10.7376736111111
 30
0.0
 10
3.41753472222222
 20
-10.7376736111111
 30
0.0
 10
3.41753472222222
 20
-10.7376736111111
 30
0.0
 10
3.41753472222222
 20
-10.7376736111111
 30
0.0
 10
3.41753472222222
 20
1.936832682291665
 30
0.0
 10
3.41753472222222
 20
1.936832682291665
 30
0.0
 10
3.41753472222222
 20
2.375048828124999
 30
0.0
 10
3.424424913194443
 20
3.101274956597221
 30
0.0
 10
3.439583333333333
 20
4.11482204861111
 30
0.0
 10
3.454052734374998
 20
5.128369140624998
 30
0.0
 10
3.461631944444443
 20
6.214952256944441
 30
0.0
 10
3.461631944444443
 20
7.375260416666666
 30
0.0
 10
3.461631944444443
 20
7.375260416666666
 30
0.0
 10
0.6538791232638889
 20
-10.7376736111111
 30
0.0
 10
0.6538791232638889
 20
-10.7376736111111
 30
0.0
 10
0.6538791232638889
 20
-10.7376736111111
 30
0.0
 10
-0.6628363715277778
 20
-10.7376736111111
 30
0.0
 10
-0.6628363715277778
 20
-10.7376736111111
 30
0.0
 10
-0.6628363715277778
 20
-10.7376736111111
 30
0.0
 10
-3.461631944444443
 20
7.375260416666666
 30
0.0
 10
-3.461631944444443
 20
7.375260416666666
 30
0.0
 10
-3.461631944444443
 20
7.375260416666666
 30
0.0
 10
-3.461631944444443
 20
6.717247178819441
 30
0.0
 10
-3.461631944444443
 20
6.717247178819441
 30
0.0
 10
-3.461631944444443
 20
6.190836588541666
 30
0.0
 10
-3.45474175347222
 20
5.389507378472222
 30
0.0
 10
-3.439583333333333
 20
4.312570529513888
 30
0.0
 10
-3.425113932291666
 20
3.235633680555555
 30
0.0
 10
-3.41753472222222
 20
2.44395073784722
 30
0.0
 10
-3.41753472222222
 20
1.936832682291665
 30
0.0
 10
-3.41753472222222
 20
1.936832682291665
 30
0.0
 10
-3.41753472222222
 20
-10.7376736111111
 30
0.0
 10
-3.41753472222222
 20
-10.7376736111111
 30
0.0
 10
-3.41753472222222
 20
-10.7376736111111
 30
0.0
 10
-4.652256944444443
 20
-10.7376736111111
 30
0.0
 10
-4.652256944444443
 20
-10.7376736111111
 30
0.0
 10
-4.652256944444443
 20
-10.7376736111111
 30
0.0
 10
-4.652256944444443
 20
10.7376736111111
 30
0.0
 10
-4.652256944444443
 20
10.7376736111111
 30
0.0
  0
ENDBLK
  5
2469
330
2466
100
AcDbEntity
  8
0
100
AcDbBlockEnd
  0
BLOCK
  5
246D
330
246A
100
AcDbEntity
  8
0
 62
     7
100
AcDbBlockBegin
  2
AI9-BLK9
 70
     0
 10
0.0
 20
0.0
 30
0.0
  3
AI9-BLK9
  1

  0
SPLINE
  5
246B
330
246A
100
AcDbEntity
  8
LAYER_1
 62
     7
100
AcDbSpline
210
0.0
220
0.0
230
1.0
 70
    11
 71
     3
 72
    29
 73
    25
 74
     0
 42
0.0000000001
 43
0.0000000001
 40
0.0
 40
0.0
 40
0.0
 40
0.0
 40
1.0
 40
1.0
 40
1.0
 40
2.0
 40
2.0
 40
2.0
 40
3.0
 40
3.0
 40
3.0
 40
4.0
 40
4.0
 40
4.0
 40
5.0
 40
5.0
 40
5.0
 40
6.0
 40
6.0
 40
6.0
 40
7.0
 40
7.0
 40
7.0
 40
8.0
 40
8.0
 40
8.0
 40
8.0
 10
0.0668348524305556
 20
-8.753298611111111
 30
0.0
 10
-0.9067491319444444
 20
-8.753298611111111
 30
0.0
 10
-1.60954861111111
 20
-7.936810980902778
 30
0.0
 10
-2.041563585069444
 20
-6.30383572048611
 30
0.0
 10
-2.474267578124999
 20
-4.670860460069443
 30
0.0
 10
-2.689930555555555
 20
-2.664436848958333
 30
0.0
 10
-2.689930555555555
 20
-0.28525390625
 30
0.0
 10
-2.689930555555555
 20
2.68855251736111
 30
0.0
 10
-2.439127604166666
 20
4.938199869791666
 30
0.0
 10
-1.937521701388888
 20
6.464377170138886
 30
0.0
 10
-1.43591579861111
 20
7.989865451388887
 30
0.0
 10
-0.7827256944444444
 20
8.753298611111111
 30
0.0
 10
0.0220486111111111
 20
8.753298611111111
 30
0.0
 10
0.8468044704861108
 20
8.753298611111111
 30
0.0
 10
1.49792751736111
 20
7.982975260416663
 30
0.0
 10
1.974728732638888
 20
6.442328559027776
 30
0.0
 10
2.451529947916665
 20
4.901681857638886
 30
0.0
 10
2.689930555555555
 20
2.868386501736111
 30
0.0
 10
2.689930555555555
 20
0.3438205295138888
 30
0.0
 10
2.689930555555555
 20
-2.045697699652774
 30
0.0
 10
2.483224826388884
 20
-4.15891927083333
 30
0.0
 10
2.071191406249999
 20
-5.996533203124998
 30
0.0
 10
1.65915798611111
 20
-7.834836154513887
 30
0.0
 10
0.9908094618055557
 20
-8.753298611111111
 30
0.0
 10
0.0668348524305556
 20
-8.753298611111111
 30
0.0
  0
SPLINE
  5
246C
330
246A
100
AcDbEntity
  8
LAYER_1
 62
     7
100
AcDbSpline
210
0.0
220
0.0
230
1.0
 70
    11
 71
     3
 72
    29
 73
    25
 74
     0
 42
0.0000000001
 43
0.0000000001
 40
0.0
 40
0.0
 40
0.0
 40
0.0
 40
1.0
 40
1.0
 40
1.0
 40
2.0
 40
2.0
 40
2.0
 40
3.0
 40
3.0
 40
3.0
 40
4.0
 40
4.0
 40
4.0
 40
5.0
 40
5.0
 40
5.0
 40
6.0
 40
6.0
 40
6.0
 40
7.0
 40
7.0
 40
7.0
 40
8.0
 40
8.0
 40
8.0
 40
8.0
 10
-0.0289388020833333
 20
11.35503472222222
 30
0.0
 10
-1.317404513888887
 20
11.35503472222222
 30
0.0
 10
-2.28892144097222
 20
10.02798394097222
 30
0.0
 10
-2.94280056423611
 20
7.374571397569441
 30
0.0
 10
-3.450607638888888
 20
5.30613606770833
 30
0.0
 10
-3.704166666666666
 20
2.81877712673611
 30
0.0
 10
-3.704166666666666
 20
-0.0881944444444445
 30
0.0
 10
-3.704166666666666
 20
-3.307291666666666
 30
0.0
 10
-3.406510416666666
 20
-5.97035047743055
 30
0.0
 10
-2.811197916666666
 20
-8.077370876736106
 30
0.0
 10
-2.147672526041664
 20
-10.26293945312499
 30
0.0
 10
-1.229899088541666
 20
-11.35503472222222
 30
0.0
 10
-0.0585666232638889
 20
-11.35503472222222
 30
0.0
 10
1.20027126736111
 20
-11.35503472222222
 30
0.0
 10
2.166276041666665
 20
-10.10653211805555
 30
0.0
 10
2.840136718749998
 20
-7.609526909722221
 30
0.0
 10
3.416156684027776
 20
-5.483213975694441
 30
0.0
 10
3.704166666666666
 20
-2.814643012152775
 30
0.0
 10
3.704166666666666
 20
0.3948079427083333
 30
0.0
 10
3.704166666666666
 20
3.360346137152776
 30
0.0
 10
3.449918619791666
 20
5.793961588541666
 30
0.0
 10
2.94280056423611
 20
7.696343315972222
 30
0.0
 10
2.298567708333333
 20
10.13547092013888
 30
0.0
 10
1.307758246527777
 20
11.35503472222222
 30
0.0
 10
-0.0289388020833333
 20
11.35503472222222
 30
0.0
  0
ENDBLK
  5
246E
330
246A
100
AcDbEntity
  8
0
100
AcDbBlockEnd
  0
BLOCK
  5
2472
330
246F
100
AcDbEntity
  8
0
 62
     7
100
AcDbBlockBegin
  2
AI9-BLK8
 70
     0
 10
0.0
 20
0.0
 30
0.0
  3
AI9-BLK8
  1

  0
LWPOLYLINE
  5
2470
330
246F
100
AcDbEntity
  8
LAYER_1
 62
     7
100
AcDbPolyline
 90
       10
 70
     1
 43
0.0
 10
-3.792361111111107
 20
10.7376736111111
 10
-2.268939887152773
 20
10.7376736111111
 10
2.557638888888888
 20
-6.505718315972222
 10
2.557638888888888
 20
10.7376736111111
 10
3.792361111111107
 20
10.7376736111111
 10
3.792361111111107
 20
-10.7376736111111
 10
2.32612847222222
 20
-10.7376736111111
 10
-2.557638888888888
 20
6.549815538194441
 10
-2.557638888888888
 20
-10.7376736111111
 10
-3.792361111111107
 20
-10.7376736111111
  0
HATCH
  5
2471
330
246F
100
AcDbEntity
  8
LAYER_1
 62
     7
100
AcDbHatch
 10
0.0
 20
0.0
 30
0.0
210
0.0
220
0.0
230
1.0
  2
SOLID
 70
     1
 71
     0
 91
        1
 92
        3
 72
     0
 73
     1
 93
       10
 10
-3.792361111111107
 20
10.7376736111111
 10
-2.268939887152773
 20
10.7376736111111
 10
2.557638888888888
 20
-6.505718315972222
 10
2.557638888888888
 20
10.7376736111111
 10
3.792361111111107
 20
10.7376736111111
 10
3.792361111111107
 20
-10.7376736111111
 10
2.32612847222222
 20
-10.7376736111111
 10
-2.557638888888888
 20
6.549815538194441
 10
-2.557638888888888
 20
-10.7376736111111
 10
-3.792361111111107
 20
-10.7376736111111
 97
        0
 75
     2
 76
     1
 98
        1
 10
0.0
 20
0.0
  0
ENDBLK
  5
2473
330
246F
100
AcDbEntity
  8
0
100
AcDbBlockEnd
  0
BLOCK
  5
2477
330
2474
100
AcDbEntity
  8
0
 62
     7
100
AcDbBlockBegin
  2
AI9-BLK7
 70
     0
 10
0.0
 20
0.0
 30
0.0
  3
AI9-BLK7
  1

  0
LWPOLYLINE
  5
2475
330
2474
100
AcDbEntity
  8
LAYER_1
 62
     7
100
AcDbPolyline
 90
        4
 70
     1
 43
0.0
 10
-0.6614583333333333
 20
10.7376736111111
 10
0.6614583333333333
 20
10.7376736111111
 10
0.6614583333333333
 20
-10.7376736111111
 10
-0.6614583333333333
 20
-10.7376736111111
  0
HATCH
  5
2476
330
2474
100
AcDbEntity
  8
LAYER_1
 62
     7
100
AcDbHatch
 10
0.0
 20
0.0
 30
0.0
210
0.0
220
0.0
230
1.0
  2
SOLID
 70
     1
 71
     0
 91
        1
 92
        3
 72
     0
 73
     1
 93
        4
 10
-0.6614583333333333
 20
10.7376736111111
 10
0.6614583333333333
 20
10.7376736111111
 10
0.6614583333333333
 20
-10.7376736111111
 10
-0.6614583333333333
 20
-10.7376736111111
 97
        0
 75
     2
 76
     1
 98
        1
 10
0.0
 20
0.0
  0
ENDBLK
  5
2478
330
2474
100
AcDbEntity
  8
0
100
AcDbBlockEnd
  0
BLOCK
  5
247B
330
2479
100
AcDbEntity
  8
0
 62
     7
100
AcDbBlockBegin
  2
AI9-BLK6
 70
     0
 10
0.0
 20
0.0
 30
0.0
  3
AI9-BLK6
  1

  0
SPLINE
  5
247A
330
2479
100
AcDbEntity
  8
LAYER_1
 62
     7
100
AcDbSpline
210
0.0
220
0.0
230
1.0
 70
    11
 71
     3
 72
    59
 73
    55
 74
     0
 42
0.0000000001
 43
0.0000000001
 40
0.0
 40
0.0
 40
0.0
 40
0.0
 40
1.0
 40
1.0
 40
1.0
 40
2.0
 40
2.0
 40
2.0
 40
3.0
 40
3.0
 40
3.0
 40
4.0
 40
4.0
 40
4.0
 40
5.0
 40
5.0
 40
5.0
 40
6.0
 40
6.0
 40
6.0
 40
7.0
 40
7.0
 40
7.0
 40
8.0
 40
8.0
 40
8.0
 40
9.0
 40
9.0
 40
9.0
 40
10.0
 40
10.0
 40
10.0
 40
11.0
 40
11.0
 40
11.0
 40
12.0
 40
12.0
 40
12.0
 40
13.0
 40
13.0
 40
13.0
 40
14.0
 40
14.0
 40
14.0
 40
15.0
 40
15.0
 40
15.0
 40
16.0
 40
16.0
 40
16.0
 40
17.0
 40
17.0
 40
17.0
 40
18.0
 40
18.0
 40
18.0
 40
18.0
 10
3.062689887152775
 20
9.168088107638887
 30
0.0
 10
3.735172526041666
 20
7.739062499999997
 30
0.0
 10
4.110687934027776
 20
6.116422526041666
 30
0.0
 10
4.189236111111108
 20
4.299479166666666
 30
0.0
 10
4.189236111111108
 20
4.299479166666666
 30
0.0
 10
2.866319444444443
 20
4.299479166666666
 30
0.0
 10
2.866319444444443
 20
4.299479166666666
 30
0.0
 10
2.720936414930555
 20
5.667871093749997
 30
0.0
 10
2.435682508680555
 20
6.752387152777776
 30
0.0
 10
2.009868706597218
 20
7.553027343749997
 30
0.0
 10
1.584054904513888
 20
8.352978515624997
 30
0.0
 10
0.9839192708333332
 20
8.753298611111111
 30
0.0
 10
0.2101508246527778
 20
8.753298611111111
 30
0.0
 10
-0.7386284722222222
 20
8.753298611111111
 30
0.0
 10
-1.503439670138888
 20
8.010536024305555
 30
0.0
 10
-2.083593749999999
 20
6.526388888888886
 30
0.0
 10
-2.664436848958333
 20
5.042241753472221
 30
0.0
 10
-2.954513888888888
 20
2.767100694444443
 30
0.0
 10
-2.954513888888888
 20
-0.2990342881944444
 30
0.0
 10
-2.954513888888888
 20
-2.811197916666666
 30
0.0
 10
-2.693375651041666
 20
-4.847938368055555
 30
0.0
 10
-2.17041015625
 20
-6.409944661458332
 30
0.0
 10
-1.648133680555553
 20
-7.972639973958332
 30
0.0
 10
-0.8640299479166666
 20
-8.753298611111111
 30
0.0
 10
0.1812120225694444
 20
-8.753298611111111
 30
0.0
 10
1.138948567708333
 20
-8.753298611111111
 30
0.0
 10
1.865174696180553
 20
-7.927853732638887
 30
0.0
 10
2.359201388888884
 20
-6.275585937499998
 30
0.0
 10
2.62998589409722
 20
-5.406043836805555
 30
0.0
 10
2.828423394097221
 20
-4.262272135416666
 30
0.0
 10
2.954513888888888
 20
-2.844270833333331
 30
0.0
 10
2.954513888888888
 20
-2.844270833333331
 30
0.0
 10
4.277430555555555
 20
-2.844270833333331
 30
0.0
 10
4.277430555555555
 20
-2.844270833333331
 30
0.0
 10
4.169943576388888
 20
-5.109765624999996
 30
0.0
 10
3.795117187499998
 20
-7.009391276041665
 30
0.0
 10
3.151573350694443
 20
-8.542458767361106
 30
0.0
 10
2.381249999999999
 20
-10.38834092881943
 30
0.0
 10
1.347721354166665
 20
-11.3109375
 30
0.0
 10
0.0509874131944445
 20
-11.3109375
 30
0.0
 10
-1.07004665798611
 20
-11.3109375
 30
0.0
 10
-2.010557725694444
 20
-10.55577256944443
 30
0.0
 10
-2.771234809027776
 20
-9.04475368923611
 30
0.0
 10
-3.775824652777775
 20
-7.046598307291666
 30
0.0
 10
-4.277430555555555
 20
-3.961170789930555
 30
0.0
 10
-4.277430555555555
 20
0.2115288628472222
 30
0.0
 10
-4.277430555555555
 20
3.379638671874998
 30
0.0
 10
-3.902604166666666
 20
5.977929687499997
 30
0.0
 10
-3.151573350694443
 20
8.005712890624996
 30
0.0
 10
-2.333018663194443
 20
10.20919596354165
 30
0.0
 10
-1.20647243923611
 20
11.3109375
 30
0.0
 10
0.2266872829861111
 20
11.3109375
 30
0.0
 10
1.444873046875
 20
11.3109375
 30
0.0
 10
2.390207248263884
 20
10.59642469618055
 30
0.0
 10
3.062689887152775
 20
9.168088107638887
 30
0.0
  0
ENDBLK
  5
247C
330
2479
100
AcDbEntity
  8
0
100
AcDbBlockEnd
  0
BLOCK
  5
2480
330
247D
100
AcDbEntity
  8
0
 62
     7
100
AcDbBlockBegin
  2
AI9-BLK5
 70
     0
 10
0.0
 20
0.0
 30
0.0
  3
AI9-BLK5
  1

  0
SPLINE
  5
247E
330
247D
100
AcDbEntity
  8
LAYER_1
 62
     7
100
AcDbSpline
210
0.0
220
0.0
230
1.0
 70
    11
 71
     3
 72
    32
 73
    28
 74
     0
 42
0.0000000001
 43
0.0000000001
 40
0.0
 40
0.0
 40
0.0
 40
0.0
 40
1.0
 40
1.0
 40
1.0
 40
2.0
 40
2.0
 40
2.0
 40
3.0
 40
3.0
 40
3.0
 40
4.0
 40
4.0
 40
4.0
 40
5.0
 40
5.0
 40
5.0
 40
6.0
 40
6.0
 40
6.0
 40
7.0
 40
7.0
 40
7.0
 40
8.0
 40
8.0
 40
8.0
 40
9.0
 40
9.0
 40
9.0
 40
9.0
 10
-2.62378472222222
 20
-8.268229166666666
 30
0.0
 10
-2.62378472222222
 20
-8.268229166666666
 30
0.0
 10
-2.62378472222222
 20
8.180034722222217
 30
0.0
 10
-2.62378472222222
 20
8.180034722222217
 30
0.0
 10
-2.62378472222222
 20
8.180034722222217
 30
0.0
 10
-0.3376193576388888
 20
8.180034722222217
 30
0.0
 10
-0.3376193576388888
 20
8.180034722222217
 30
0.0
 10
0.6972873263888888
 20
8.180034722222217
 30
0.0
 10
1.449007161458333
 20
7.445540364583332
 30
0.0
 10
1.918918185763885
 20
5.977929687499997
 30
0.0
 10
2.388829210069443
 20
4.510319010416666
 30
0.0
 10
2.62378472222222
 20
2.449462890624999
 30
0.0
 10
2.62378472222222
 20
-0.204638671875
 30
0.0
 10
2.62378472222222
 20
-0.8950358072916666
 30
0.0
 10
2.590022786458332
 20
-1.643310546874999
 30
0.0
 10
2.523187934027773
 20
-2.45015190972222
 30
0.0
 10
2.408121744791666
 20
-3.80200737847222
 30
0.0
 10
2.226220703124999
 20
-4.909950086805555
 30
0.0
 10
1.976795789930553
 20
-5.774669053819441
 30
0.0
 10
1.659847005208333
 20
-6.853672960069442
 30
0.0
 10
1.252636718749998
 20
-7.583344184027778
 30
0.0
 10
0.7544759114583333
 20
-7.962304687499997
 30
0.0
 10
0.4664659288194444
 20
-8.166254340277777
 30
0.0
 10
0.1074869791666666
 20
-8.268229166666666
 30
0.0
 10
-0.3231499565972222
 20
-8.268229166666666
 30
0.0
 10
-0.3231499565972222
 20
-8.268229166666666
 30
0.0
 10
-2.62378472222222
 20
-8.268229166666666
 30
0.0
 10
-2.62378472222222
 20
-8.268229166666666
 30
0.0
  0
SPLINE
  5
247F
330
247D
100
AcDbEntity
  8
LAYER_1
 62
     7
100
AcDbSpline
210
0.0
220
0.0
230
1.0
 70
    11
 71
     3
 72
    26
 73
    22
 74
     0
 42
0.0000000001
 43
0.0000000001
 40
0.0
 40
0.0
 40
0.0
 40
0.0
 40
1.0
 40
1.0
 40
1.0
 40
2.0
 40
2.0
 40
2.0
 40
3.0
 40
3.0
 40
3.0
 40
4.0
 40
4.0
 40
4.0
 40
5.0
 40
5.0
 40
5.0
 40
6.0
 40
6.0
 40
6.0
 40
7.0
 40
7.0
 40
7.0
 40
7.0
 10
-3.946701388888888
 20
-10.7376736111111
 30
0.0
 10
-3.946701388888888
 20
-10.7376736111111
 30
0.0
 10
-0.0943956163194444
 20
-10.7376736111111
 30
0.0
 10
-0.0943956163194444
 20
-10.7376736111111
 30
0.0
 10
1.546847873263885
 20
-10.7376736111111
 30
0.0
 10
2.705777994791666
 20
-9.11021050347222
 30
0.0
 10
3.381705729166666
 20
-5.854595269097222
 30
0.0
 10
3.757910156249999
 20
-4.01284722222222
 30
0.0
 10
3.946701388888888
 20
-1.951991102430555
 30
0.0
 10
3.946701388888888
 20
0.328662109375
 30
0.0
 10
3.946701388888888
 20
3.281797960069443
 30
0.0
 10
3.622862413194443
 20
5.703700086805552
 30
0.0
 10
2.976562499999998
 20
7.594368489583332
 30
0.0
 10
2.25171440972222
 20
9.689675564236106
 30
0.0
 10
1.233344184027777
 20
10.7376736111111
 30
0.0
 10
-0.0799262152777778
 20
10.7376736111111
 30
0.0
 10
-0.0799262152777778
 20
10.7376736111111
 30
0.0
 10
-3.946701388888888
 20
10.7376736111111
 30
0.0
 10
-3.946701388888888
 20
10.7376736111111
 30
0.0
 10
-3.946701388888888
 20
10.7376736111111
 30
0.0
 10
-3.946701388888888
 20
-10.7376736111111
 30
0.0
 10
-3.946701388888888
 20
-10.7376736111111
 30
0.0
  0
ENDBLK
  5
2481
330
247D
100
AcDbEntity
  8
0
100
AcDbBlockEnd
  0
BLOCK
  5
2485
330
2482
100
AcDbEntity
  8
0
 62
     7
100
AcDbBlockBegin
  2
AI9-BLK4
 70
     0
 10
0.0
 20
0.0
 30
0.0
  3
AI9-BLK4
  1

  0
SPLINE
  5
2483
330
2482
100
AcDbEntity
  8
LAYER_1
 62
     7
100
AcDbSpline
210
0.0
220
0.0
230
1.0
 70
    11
 71
     3
 72
    26
 73
    22
 74
     0
 42
0.0000000001
 43
0.0000000001
 40
0.0
 40
0.0
 40
0.0
 40
0.0
 40
1.0
 40
1.0
 40
1.0
 40
2.0
 40
2.0
 40
2.0
 40
3.0
 40
3.0
 40
3.0
 40
4.0
 40
4.0
 40
4.0
 40
5.0
 40
5.0
 40
5.0
 40
6.0
 40
6.0
 40
6.0
 40
7.0
 40
7.0
 40
7.0
 40
7.0
 10
-2.645833333333333
 20
0.9039930555555551
 30
0.0
 10
-2.645833333333333
 20
0.9039930555555551
 30
0.0
 10
-2.645833333333333
 20
8.180034722222217
 30
0.0
 10
-2.645833333333333
 20
8.180034722222217
 30
0.0
 10
-2.645833333333333
 20
8.180034722222217
 30
0.0
 10
0.465087890625
 20
8.180034722222217
 30
0.0
 10
0.465087890625
 20
8.180034722222217
 30
0.0
 10
0.9026150173611108
 20
8.180034722222217
 30
0.0
 10
1.24988064236111
 20
8.034651692708331
 30
0.0
 10
1.506884765625
 20
7.745263671874997
 30
0.0
 10
2.001600477430554
 20
7.194048394097221
 30
0.0
 10
2.248958333333332
 20
6.160519748263887
 30
0.0
 10
2.248958333333332
 20
4.643299696180553
 30
0.0
 10
2.248958333333332
 20
3.232188585069443
 30
0.0
 10
2.072569444444444
 20
2.256537543402775
 30
0.0
 10
1.720480685763888
 20
1.715657552083333
 30
0.0
 10
1.368391927083333
 20
1.174088541666665
 30
0.0
 10
0.8929687499999998
 20
0.9039930555555551
 30
0.0
 10
0.2942111545138888
 20
0.9039930555555551
 30
0.0
 10
0.2942111545138888
 20
0.9039930555555551
 30
0.0
 10
-2.645833333333333
 20
0.9039930555555551
 30
0.0
 10
-2.645833333333333
 20
0.9039930555555551
 30
0.0
  0
SPLINE
  5
2484
330
2482
100
AcDbEntity
  8
LAYER_1
 62
     7
100
AcDbSpline
210
0.0
220
0.0
230
1.0
 70
    11
 71
     3
 72
    68
 73
    64
 74
     0
 42
0.0000000001
 43
0.0000000001
 40
0.0
 40
0.0
 40
0.0
 40
0.0
 40
1.0
 40
1.0
 40
1.0
 40
2.0
 40
2.0
 40
2.0
 40
3.0
 40
3.0
 40
3.0
 40
4.0
 40
4.0
 40
4.0
 40
5.0
 40
5.0
 40
5.0
 40
6.0
 40
6.0
 40
6.0
 40
7.0
 40
7.0
 40
7.0
 40
8.0
 40
8.0
 40
8.0
 40
9.0
 40
9.0
 40
9.0
 40
10.0
 40
10.0
 40
10.0
 40
11.0
 40
11.0
 40
11.0
 40
12.0
 40
12.0
 40
12.0
 40
13.0
 40
13.0
 40
13.0
 40
14.0
 40
14.0
 40
14.0
 40
15.0
 40
15.0
 40
15.0
 40
16.0
 40
16.0
 40
16.0
 40
17.0
 40
17.0
 40
17.0
 40
18.0
 40
18.0
 40
18.0
 40
19.0
 40
19.0
 40
19.0
 40
20.0
 40
20.0
 40
20.0
 40
21.0
 40
21.0
 40
21.0
 40
21.0
 10
-3.968749999999998
 20
-10.7376736111111
 30
0.0
 10
-3.968749999999998
 20
-10.7376736111111
 30
0.0
 10
-2.645833333333333
 20
-10.7376736111111
 30
0.0
 10
-2.645833333333333
 20
-10.7376736111111
 30
0.0
 10
-2.645833333333333
 20
-10.7376736111111
 30
0.0
 10
-2.645833333333333
 20
-1.521354166666665
 30
0.0
 10
-2.645833333333333
 20
-1.521354166666665
 30
0.0
 10
-2.645833333333333
 20
-1.521354166666665
 30
0.0
 10
0.2390896267361111
 20
-1.521354166666665
 30
0.0
 10
0.2390896267361111
 20
-1.521354166666665
 30
0.0
 10
0.7599880642361111
 20
-1.521354166666665
 30
0.0
 10
1.143771701388887
 20
-1.65295681423611
 30
0.0
 10
1.390440538194444
 20
-1.916162109374999
 30
0.0
 10
1.816254340277773
 20
-2.39434136284722
 30
0.0
 10
2.04363064236111
 20
-3.335541449652775
 30
0.0
 10
2.072569444444444
 20
-4.739762369791666
 30
0.0
 10
2.072569444444444
 20
-4.739762369791666
 30
0.0
 10
2.160763888888888
 20
-8.324039713541665
 30
0.0
 10
2.160763888888888
 20
-8.324039713541665
 30
0.0
 10
2.18005642361111
 20
-9.163264973958332
 30
0.0
 10
2.202794053819443
 20
-9.728949652777775
 30
0.0
 10
2.227598741319444
 20
-10.02109374999998
 30
0.0
 10
2.252403428819443
 20
-10.31392686631944
 30
0.0
 10
2.28892144097222
 20
-10.55301649305555
 30
0.0
 10
2.33853081597222
 20
-10.7376736111111
 30
0.0
 10
2.33853081597222
 20
-10.7376736111111
 30
0.0
 10
3.968749999999998
 20
-10.7376736111111
 30
0.0
 10
3.968749999999998
 20
-10.7376736111111
 30
0.0
 10
3.968749999999998
 20
-10.7376736111111
 30
0.0
 10
3.968749999999998
 20
-10.25260416666666
 30
0.0
 10
3.968749999999998
 20
-10.25260416666666
 30
0.0
 10
3.766867404513888
 20
-10.05830078125
 30
0.0
 10
3.625618489583333
 20
-9.621462673611112
 30
0.0
 10
3.545692274305555
 20
-8.942089843749997
 30
0.0
 10
3.49470486111111
 20
-8.543836805555555
 30
0.0
 10
3.459564887152775
 20
-7.937499999999999
 30
0.0
 10
3.439583333333333
 20
-7.121701388888887
 30
0.0
 10
3.439583333333333
 20
-7.121701388888887
 30
0.0
 10
3.395486111111106
 20
-4.232644314236106
 30
0.0
 10
3.395486111111106
 20
-4.232644314236106
 30
0.0
 10
3.375504557291666
 20
-2.981385633680555
 30
0.0
 10
3.26870659722222
 20
-2.077392578125
 30
0.0
 10
3.075781249999999
 20
-1.522043185763888
 30
0.0
 10
2.882166883680555
 20
-0.9666937934027776
 30
0.0
 10
2.592089843749999
 20
-0.5188313802083333
 30
0.0
 10
2.204861111111106
 20
-0.1770779079861111
 30
0.0
 10
2.63618706597222
 20
0.3197048611111111
 30
0.0
 10
2.971739366319443
 20
0.9770290798611107
 30
0.0
 10
3.211518012152775
 20
1.79558376736111
 30
0.0
 10
3.451296657986107
 20
2.613449435763888
 30
0.0
 10
3.571874999999999
 20
3.66558159722222
 30
0.0
 10
3.571874999999999
 20
4.951291232638888
 30
0.0
 10
3.571874999999999
 20
7.415912543402777
 30
0.0
 10
3.124701605902775
 20
9.106076388888887
 30
0.0
 10
2.231043836805555
 20
10.02178276909722
 30
0.0
 10
1.759754774305553
 20
10.498583984375
 30
0.0
 10
1.163753255208332
 20
10.7376736111111
 30
0.0
 10
0.443039279513889
 20
10.7376736111111
 30
0.0
 10
0.443039279513889
 20
10.7376736111111
 30
0.0
 10
-3.968749999999998
 20
10.7376736111111
 30
0.0
 10
-3.968749999999998
 20
10.7376736111111
 30
0.0
 10
-3.968749999999998
 20
10.7376736111111
 30
0.0
 10
-3.968749999999998
 20
-10.7376736111111
 30
0.0
 10
-3.968749999999998
 20
-10.7376736111111
 30
0.0
  0
ENDBLK
  5
2486
330
2482
100
AcDbEntity
  8
0
100
AcDbBlockEnd
  0
BLOCK
  5
248A
330
2487
100
AcDbEntity
  8
0
 62
     7
100
AcDbBlockBegin
  2
AI9-BLK3
 70
     0
 10
0.0
 20
0.0
 30
0.0
  3
AI9-BLK3
  1

  0
LWPOLYLINE
  5
2488
330
2487
100
AcDbEntity
  8
LAYER_1
 62
     7
100
AcDbPolyline
 90
        4
 70
     1
 43
0.0
 10
-0.6613722059461809
 20
10.7376736111111
 10
0.6613722059461809
 20
10.7376736111111
 10
0.6613722059461809
 20
-10.7376736111111
 10
-0.6613722059461809
 20
-10.7376736111111
  0
HATCH
  5
2489
330
2487
100
AcDbEntity
  8
LAYER_1
 62
     7
100
AcDbHatch
 10
0.0
 20
0.0
 30
0.0
210
0.0
220
0.0
230
1.0
  2
SOLID
 70
     1
 71
     0
 91
        1
 92
        3
 72
     0
 73
     1
 93
        4
 10
-0.6613722059461809
 20
10.7376736111111
 10
0.6613722059461809
 20
10.7376736111111
 10
0.6613722059461809
 20
-10.7376736111111
 10
-0.6613722059461809
 20
-10.7376736111111
 97
        0
 75
     2
 76
     1
 98
        1
 10
0.0
 20
0.0
  0
ENDBLK
  5
248B
330
2487
100
AcDbEntity
  8
0
100
AcDbBlockEnd
  0
BLOCK
  5
248F
330
248C
100
AcDbEntity
  8
0
 62
     7
100
AcDbBlockBegin
  2
AI9-BLK2
 70
     0
 10
0.0
 20
0.0
 30
0.0
  3
AI9-BLK2
  1

  0
LWPOLYLINE
  5
248D
330
248C
100
AcDbEntity
  8
LAYER_1
 62
     7
100
AcDbPolyline
 90
        7
 70
     1
 43
0.0
 10
-2.785704210069443
 20
10.7376736111111
 10
0.0
 20
-7.550960286458332
 10
2.771234809027776
 20
10.7376736111111
 10
4.233333333333331
 20
10.7376736111111
 10
0.6910861545138888
 20
-10.7376736111111
 10
-0.7055555555555558
 20
-10.7376736111111
 10
-4.233333333333331
 20
10.7376736111111
  0
HATCH
  5
248E
330
248C
100
AcDbEntity
  8
LAYER_1
 62
     7
100
AcDbHatch
 10
0.0
 20
0.0
 30
0.0
210
0.0
220
0.0
230
1.0
  2
SOLID
 70
     1
 71
     0
 91
        1
 92
        3
 72
     0
 73
     1
 93
        7
 10
-2.785704210069443
 20
10.7376736111111
 10
0.0
 20
-7.550960286458332
 10
2.771234809027776
 20
10.7376736111111
 10
4.233333333333331
 20
10.7376736111111
 10
0.6910861545138888
 20
-10.7376736111111
 10
-0.7055555555555558
 20
-10.7376736111111
 10
-4.233333333333331
 20
10.7376736111111
 97
        0
 75
     2
 76
     1
 98
        1
 10
0.0
 20
0.0
  0
ENDBLK
  5
2490
330
248C
100
AcDbEntity
  8
0
100
AcDbBlockEnd
  0
BLOCK
  5
2494
330
2491
100
AcDbEntity
  8
0
 62
     7
100
AcDbBlockBegin
  2
AI9-BLK1
 70
     0
 10
0.0
 20
0.0
 30
0.0
  3
AI9-BLK1
  1

  0
LWPOLYLINE
  5
2492
330
2491
100
AcDbEntity
  8
LAYER_1
 62
     7
100
AcDbPolyline
 90
       12
 70
     1
 43
0.0
 10
-3.571874999999999
 20
10.7376736111111
 10
3.483680555555555
 20
10.7376736111111
 10
3.483680555555555
 20
8.091840277777777
 10
-2.248958333333332
 20
8.091840277777777
 10
-2.248958333333332
 20
1.565451388888888
 10
3.042708333333333
 20
1.565451388888888
 10
3.042708333333333
 20
-0.9039930555555551
 10
-2.248958333333332
 20
-0.9039930555555551
 10
-2.248958333333332
 20
-8.180034722222217
 10
3.571874999999999
 20
-8.180034722222217
 10
3.571874999999999
 20
-10.7376736111111
 10
-3.571874999999999
 20
-10.7376736111111
  0
HATCH
  5
2493
330
2491
100
AcDbEntity
  8
LAYER_1
 62
     7
100
AcDbHatch
 10
0.0
 20
0.0
 30
0.0
210
0.0
220
0.0
230
1.0
  2
SOLID
 70
     1
 71
     0
 91
        1
 92
        3
 72
     0
 73
     1
 93
       12
 10
-3.571874999999999
 20
10.7376736111111
 10
3.483680555555555
 20
10.7376736111111
 10
3.483680555555555
 20
8.091840277777777
 10
-2.248958333333332
 20
8.091840277777777
 10
-2.248958333333332
 20
1.565451388888888
 10
3.042708333333333
 20
1.565451388888888
 10
3.042708333333333
 20
-0.9039930555555551
 10
-2.248958333333332
 20
-0.9039930555555551
 10
-2.248958333333332
 20
-8.180034722222217
 10
3.571874999999999
 20
-8.180034722222217
 10
3.571874999999999
 20
-10.7376736111111
 10
-3.571874999999999
 20
-10.7376736111111
 97
        0
 75
     2
 76
     1
 98
        1
 10
0.0
 20
0.0
  0
ENDBLK
  5
2495
330
2491
100
AcDbEntity
  8
0
100
AcDbBlockEnd
  0
BLOCK
  5
24B9
330
2496
100
AcDbEntity
  8
0
100
AcDbBlockBegin
  2
HD_LLC_logo_OT5
 70
     0
 10
0.0
 20
0.0
 30
0.0
  3
HD_LLC_logo_OT5
  1

  0
SPLINE
  5
2497
102
{ACAD_REACTORS
330
24B7
102
}
330
2496
100
AcDbEntity
  8
LAYER_1
 62
     7
100
AcDbSpline
210
0.0
220
0.0
230
1.0
 70
    11
 71
     3
 72
   113
 73
   109
 74
     0
 42
0.0000000001
 43
0.0000000001
 40
0.0
 40
0.0
 40
0.0
 40
0.0
 40
1.0
 40
1.0
 40
1.0
 40
2.0
 40
2.0
 40
2.0
 40
3.0
 40
3.0
 40
3.0
 40
4.0
 40
4.0
 40
4.0
 40
5.0
 40
5.0
 40
5.0
 40
6.0
 40
6.0
 40
6.0
 40
7.0
 40
7.0
 40
7.0
 40
8.0
 40
8.0
 40
8.0
 40
9.0
 40
9.0
 40
9.0
 40
10.0
 40
10.0
 40
10.0
 40
11.0
 40
11.0
 40
11.0
 40
12.0
 40
12.0
 40
12.0
 40
13.0
 40
13.0
 40
13.0
 40
14.0
 40
14.0
 40
14.0
 40
15.0
 40
15.0
 40
15.0
 40
16.0
 40
16.0
 40
16.0
 40
17.0
 40
17.0
 40
17.0
 40
18.0
 40
18.0
 40
18.0
 40
19.0
 40
19.0
 40
19.0
 40
20.0
 40
20.0
 40
20.0
 40
21.0
 40
21.0
 40
21.0
 40
22.0
 40
22.0
 40
22.0
 40
23.0
 40
23.0
 40
23.0
 40
24.0
 40
24.0
 40
24.0
 40
25.0
 40
25.0
 40
25.0
 40
26.0
 40
26.0
 40
26.0
 40
27.0
 40
27.0
 40
27.0
 40
28.0
 40
28.0
 40
28.0
 40
29.0
 40
29.0
 40
29.0
 40
30.0
 40
30.0
 40
30.0
 40
31.0
 40
31.0
 40
31.0
 40
32.0
 40
32.0
 40
32.0
 40
33.0
 40
33.0
 40
33.0
 40
34.0
 40
34.0
 40
34.0
 40
35.0
 40
35.0
 40
35.0
 40
36.0
 40
36.0
 40
36.0
 40
36.0
 10
193.3039632161458
 20
186.1548733181423
 30
0.0
 10
193.3039632161458
 20
186.1860514322916
 30
0.0
 10
193.3039632161458
 20
219.6932223849826
 30
0.0
 10
193.3039632161458
 20
219.6932223849826
 30
0.0
 10
193.3039632161458
 20
219.6932223849826
 30
0.0
 10
193.2974175347219
 20
219.7488606770833
 30
0.0
 10
193.2974175347219
 20
219.7488606770833
 30
0.0
 10
191.5293945312499
 20
235.455740017361
 30
0.0
 10
175.1458984374999
 20
235.2467949761284
 30
0.0
 10
174.9808783637151
 20
235.2428331163193
 30
0.0
 10
174.9808783637151
 20
235.2428331163193
 30
0.0
 10
125.8827555338541
 20
235.2430053710937
 30
0.0
 10
125.8827555338541
 20
235.2430053710937
 30
0.0
 10
125.8827555338541
 20
235.2430053710937
 30
0.0
 10
125.8827555338541
 20
255.5278998480901
 30
0.0
 10
125.8827555338541
 20
255.5278998480901
 30
0.0
 10
125.8827555338541
 20
255.5278998480901
 30
0.0
 10
84.5626247829861
 20
255.5278998480901
 30
0.0
 10
84.5626247829861
 20
255.5278998480901
 30
0.0
 10
84.5626247829861
 20
255.5278998480901
 30
0.0
 10
84.55711263020829
 20
233.7919311523436
 30
0.0
 10
84.55711263020829
 20
233.7919311523436
 30
0.0
 10
84.55711263020829
 20
233.7919311523436
 30
0.0
 10
64.42052951388888
 20
233.7919311523436
 30
0.0
 10
64.42052951388888
 20
233.7919311523436
 30
0.0
 10
64.42052951388888
 20
233.7919311523436
 30
0.0
 10
64.41501736111111
 20
255.5278998480901
 30
0.0
 10
64.41501736111111
 20
255.5278998480901
 30
0.0
 10
64.41501736111111
 20
255.5278998480901
 30
0.0
 10
23.91757541232637
 20
255.5278998480901
 30
0.0
 10
23.91757541232637
 20
255.5278998480901
 30
0.0
 10
23.91757541232637
 20
255.5278998480901
 30
0.0
 10
23.91757541232637
 20
233.2393378363715
 30
0.0
 10
23.91757541232637
 20
233.2393378363715
 30
0.0
 10
23.91757541232637
 20
233.2393378363715
 30
0.0
 10
43.65624999999999
 20
233.2393378363715
 30
0.0
 10
43.65624999999999
 20
233.2393378363715
 30
0.0
 10
43.65624999999999
 20
233.2393378363715
 30
0.0
 10
43.65624999999999
 20
211.5188720703125
 30
0.0
 10
43.65624999999999
 20
211.5188720703125
 30
0.0
 10
43.65624999999999
 20
211.5188720703125
 30
0.0
 10
23.91757541232637
 20
211.5188720703125
 30
0.0
 10
23.91757541232637
 20
211.5188720703125
 30
0.0
 10
23.91757541232637
 20
211.5188720703125
 30
0.0
 10
23.91757541232637
 20
189.2303100585936
 30
0.0
 10
23.91757541232637
 20
189.2303100585936
 30
0.0
 10
23.91757541232637
 20
189.2303100585936
 30
0.0
 10
64.41501736111111
 20
189.2303100585936
 30
0.0
 10
64.41501736111111
 20
189.2303100585936
 30
0.0
 10
64.41501736111111
 20
189.2303100585936
 30
0.0
 10
64.42052951388888
 20
211.069976128472
 30
0.0
 10
64.42052951388888
 20
211.069976128472
 30
0.0
 10
64.42052951388888
 20
211.069976128472
 30
0.0
 10
84.55711263020829
 20
211.069976128472
 30
0.0
 10
84.55711263020829
 20
211.069976128472
 30
0.0
 10
84.55711263020829
 20
211.069976128472
 30
0.0
 10
84.5626247829861
 20
189.2303100585936
 30
0.0
 10
84.5626247829861
 20
189.2303100585936
 30
0.0
 10
84.5626247829861
 20
189.2303100585936
 30
0.0
 10
125.8827555338541
 20
189.2303100585936
 30
0.0
 10
125.8827555338541
 20
189.2303100585936
 30
0.0
 10
125.8827555338541
 20
189.2303100585936
 30
0.0
 10
125.8827555338541
 20
211.5188720703125
 30
0.0
 10
125.8827555338541
 20
211.5188720703125
 30
0.0
 10
125.8827555338541
 20
211.5188720703125
 30
0.0
 10
105.3213921440971
 20
211.5188720703125
 30
0.0
 10
105.3213921440971
 20
211.5188720703125
 30
0.0
 10
105.3213921440971
 20
211.5188720703125
 30
0.0
 10
105.3213921440971
 20
233.2393378363715
 30
0.0
 10
105.3213921440971
 20
233.2393378363715
 30
0.0
 10
105.3213921440971
 20
233.2393378363715
 30
0.0
 10
175.0046495225693
 20
233.243127441406
 30
0.0
 10
175.0046495225693
 20
233.243127441406
 30
0.0
 10
175.6268337673611
 20
233.2560465494791
 30
0.0
 10
189.7165852864583
 20
233.3962619357638
 30
0.0
 10
191.3037407769094
 20
219.5690266927083
 30
0.0
 10
191.3037407769094
 20
219.4332899305555
 30
0.0
 10
191.3037407769094
 20
186.1142211914062
 30
0.0
 10
191.3037407769094
 20
186.1142211914062
 30
0.0
 10
191.3037407769094
 20
186.1142211914062
 30
0.0
 10
191.3051188151039
 20
186.0880384657115
 30
0.0
 10
191.3051188151039
 20
186.0880384657115
 30
0.0
 10
191.3054633246526
 20
186.0787367078991
 30
0.0
 10
191.3109754774304
 20
185.9566080729166
 30
0.0
 10
191.3109754774304
 20
185.7399115668401
 30
0.0
 10
191.3109754774304
 20
184.2090833875865
 30
0.0
 10
191.0488037109374
 20
177.9643310546874
 30
0.0
 10
186.9866916232638
 20
173.5652886284722
 30
0.0
 10
184.2540418836804
 20
170.6064683702255
 30
0.0
 10
180.3224989149304
 20
169.0308539496526
 30
0.0
 10
175.300927734375
 20
168.8825425889756
 30
0.0
 10
175.300927734375
 20
168.8825425889756
 30
0.0
 10
107.0094889322916
 20
168.8828870985243
 30
0.0
 10
107.0094889322916
 20
168.8828870985243
 30
0.0
 10
107.0094889322916
 20
168.8828870985243
 30
0.0
 10
107.0094889322916
 20
166.8830091688368
 30
0.0
 10
107.0094889322916
 20
166.8830091688368
 30
0.0
 10
107.0094889322916
 20
166.8830091688368
 30
0.0
 10
175.3305555555555
 20
166.8830091688368
 30
0.0
 10
175.3305555555555
 20
166.8830091688368
 30
0.0
 10
180.9467502170138
 20
167.0485460069444
 30
0.0
 10
185.3571614583333
 20
168.8448187934026
 30
0.0
 10
188.4687717013888
 20
172.2223904079861
 30
0.0
 10
192.9649658203124
 20
177.1034016927083
 30
0.0
 10
193.3136094835069
 20
183.7202243381076
 30
0.0
 10
193.3136094835069
 20
185.6520616319443
 30
0.0
 10
193.3136094835069
 20
185.9247409396701
 30
0.0
 10
193.3070638020833
 20
186.0868326822916
 30
0.0
 10
193.3039632161458
 20
186.1548733181423
 30
0.0
  0
INSERT
  5
2498
102
{ACAD_REACTORS
330
24B8
102
}
330
2496
100
AcDbEntity
  8
LAYER_1
 62
     7
100
AcDbBlockReference
  2
AI9-BLK14
 10
159.5625257703993
 20
200.5118781195744
 30
0.0
  0
INSERT
  5
2499
330
2496
100
AcDbEntity
  8
LAYER_1
 62
     7
100
AcDbBlockReference
  2
AI9-BLK13
 10
27.69615614149305
 20
179.2145562065971
 30
0.0
 42
0.9200000000000001
  0
INSERT
  5
249A
102
{ACAD_REACTORS
330
24A5
102
}
330
2496
100
AcDbEntity
  8
LAYER_1
 62
     7
100
AcDbBlockReference
  2
AI9-BLK11
 10
44.76591525607638
 20
179.2145562065971
 30
0.0
 42
0.9200000000000001
  0
INSERT
  5
249B
102
{ACAD_REACTORS
330
24B3
102
}
330
2496
100
AcDbEntity
  8
LAYER_1
 62
     7
100
AcDbBlockReference
  2
AI9-BLK10
 10
54.04665798611111
 20
179.2145562065971
 30
0.0
 42
0.9200000000000001
  0
INSERT
  5
249C
102
{ACAD_REACTORS
330
24B2
102
}
330
2496
100
AcDbEntity
  8
LAYER_1
 62
     7
100
AcDbBlockReference
  2
AI9-BLK9
 10
62.79013807508679
 20
179.2145562065971
 30
0.0
 42
0.9
  0
INSERT
  5
249D
330
2496
100
AcDbEntity
  8
LAYER_1
 62
     7
100
AcDbBlockReference
  2
AI9-BLK8
 10
71.03046196831595
 20
179.2145562065971
 30
0.0
 42
0.9200000000000001
  0
INSERT
  5
249E
330
2496
100
AcDbEntity
  8
LAYER_1
 62
     7
100
AcDbBlockReference
  2
AI9-BLK7
 10
76.93793945312498
 20
179.2145562065971
 30
0.0
 42
0.9200000000000001
  0
INSERT
  5
249F
102
{ACAD_REACTORS
330
24A6
102
}
330
2496
100
AcDbEntity
  8
LAYER_1
 62
     7
100
AcDbBlockReference
  2
AI9-BLK6
 10
82.55602891710069
 20
179.2145562065971
 30
0.0
 42
0.9
  0
INSERT
  5
24A0
102
{ACAD_REACTORS
330
24B4
102
}
330
2496
100
AcDbEntity
  8
LAYER_1
 62
     7
100
AcDbBlockReference
  2
AI9-BLK5
 10
94.32430284288193
 20
179.2145562065971
 30
0.0
 42
0.9200000000000001
  0
INSERT
  5
24A1
102
{ACAD_REACTORS
330
24B5
102
}
330
2496
100
AcDbEntity
  8
LAYER_1
 62
     7
100
AcDbBlockReference
  2
AI9-BLK4
 10
103.2081705729166
 20
179.2145562065971
 30
0.0
 42
0.9200000000000001
  0
INSERT
  5
24A2
330
2496
100
AcDbEntity
  8
LAYER_1
 62
     7
100
AcDbBlockReference
  2
AI9-BLK3
 10
108.850978597005
 20
179.2145562065971
 30
0.0
 42
0.9200000000000001
  0
INSERT
  5
24A3
330
2496
100
AcDbEntity
  8
LAYER_1
 62
     7
100
AcDbBlockReference
  2
AI9-BLK2
 10
114.2045708550346
 20
179.2145562065971
 30
0.0
 42
0.9200000000000001
  0
INSERT
  5
24A4
330
2496
100
AcDbEntity
  8
LAYER_1
 62
     7
100
AcDbBlockReference
  2
AI9-BLK1
 10
122.4125108506944
 20
179.2145562065971
 30
0.0
 42
0.9200000000000001
  0
HATCH
  5
24A5
330
2496
100
AcDbEntity
  8
0
  6
Continuous
100
AcDbHatch
 10
0.0
 20
0.0
 30
0.0
210
0.0
220
0.0
230
1.0
  2
SOLID
 70
     1
 71
     1
 91
        2
 92
       16
 93
        1
 72
     4
 94
        3
 73
     0
 74
     0
 95
       26
 96
       22
 40
0.0
 40
0.0
 40
0.0
 40
0.0
 40
1.0
 40
1.0
 40
1.0
 40
2.0
 40
2.0
 40
2.0
 40
3.0
 40
3.0
 40
3.0
 40
4.0
 40
4.0
 40
4.0
 40
5.0
 40
5.0
 40
5.0
 40
6.0
 40
6.0
 40
6.0
 40
7.0
 40
7.0
 40
7.0
 40
7.0
 10
42.12008192274304
 20
180.046229817708
 10
42.12008192274304
 20
180.046229817708
 10
42.12008192274304
 20
186.7401881510414
 10
42.12008192274304
 20
186.7401881510414
 10
42.12008192274304
 20
186.7401881510414
 10
45.23100314670138
 20
186.7401881510414
 10
45.23100314670138
 20
186.7401881510414
 10
45.66853027343749
 20
186.7401881510414
 10
46.01579589843749
 20
186.6064357638887
 10
46.27280002170138
 20
186.3401987847218
 10
46.76751573350694
 20
185.8330807291664
 10
47.01487358940972
 20
184.8822343749996
 10
47.01487358940972
 20
183.4863919270832
 10
47.01487358940972
 20
182.188169704861
 10
46.83848470052082
 20
181.2905707465276
 10
46.48639594184028
 20
180.7929611545137
 10
46.13430718315971
 20
180.2947176649304
 10
45.65888400607638
 20
180.046229817708
 10
45.06012641059028
 20
180.046229817708
 10
45.06012641059028
 20
180.046229817708
 10
42.12008192274304
 20
180.046229817708
 10
42.12008192274304
 20
180.046229817708
 97
        1
330
249A
 92
        1
 93
        1
 72
     4
 94
        3
 73
     0
 74
     0
 95
       68
 96
       64
 40
0.0
 40
0.0
 40
0.0
 40
0.0
 40
1.0
 40
1.0
 40
1.0
 40
2.0
 40
2.0
 40
2.0
 40
3.0
 40
3.0
 40
3.0
 40
4.0
 40
4.0
 40
4.0
 40
5.0
 40
5.0
 40
5.0
 40
6.0
 40
6.0
 40
6.0
 40
7.0
 40
7.0
 40
7.0
 40
8.0
 40
8.0
 40
8.0
 40
9.0
 40
9.0
 40
9.0
 40
10.0
 40
10.0
 40
10.0
 40
11.0
 40
11.0
 40
11.0
 40
12.0
 40
12.0
 40
12.0
 40
13.0
 40
13.0
 40
13.0
 40
14.0
 40
14.0
 40
14.0
 40
15.0
 40
15.0
 40
15.0
 40
16.0
 40
16.0
 40
16.0
 40
17.0
 40
17.0
 40
17.0
 40
18.0
 40
18.0
 40
18.0
 40
19.0
 40
19.0
 40
19.0
 40
20.0
 40
20.0
 40
20.0
 40
21.0
 40
21.0
 40
21.0
 40
21.0
 10
40.79716525607638
 20
169.3358964843748
 10
40.79716525607638
 20
169.3358964843748
 10
42.12008192274304
 20
169.3358964843748
 10
42.12008192274304
 20
169.3358964843748
 10
42.12008192274304
 20
169.3358964843748
 10
42.12008192274304
 20
177.8149103732637
 10
42.12008192274304
 20
177.8149103732637
 10
42.12008192274304
 20
177.8149103732637
 10
45.00500488281249
 20
177.8149103732637
 10
45.00500488281249
 20
177.8149103732637
 10
45.52590332031249
 20
177.8149103732637
 10
45.90968695746528
 20
177.6938359374998
 10
46.15635579427083
 20
177.4516870659719
 10
46.58216959635415
 20
177.0117621527776
 10
46.80954589843749
 20
176.1458580729164
 10
46.83848470052082
 20
174.8539748263887
 10
46.83848470052082
 20
174.8539748263887
 10
46.92667914496527
 20
171.5564396701385
 10
46.92667914496527
 20
171.5564396701385
 10
46.94597167968749
 20
170.7843524305554
 10
46.96870930989581
 20
170.2639225260415
 10
46.99351399739582
 20
169.9951499565971
 10
47.01831868489581
 20
169.725743489583
 10
47.0548366970486
 20
169.5057810329859
 10
47.10444607204859
 20
169.3358964843748
 10
47.10444607204859
 20
169.3358964843748
 10
48.73466525607638
 20
169.3358964843748
 10
48.73466525607638
 20
169.3358964843748
 10
48.73466525607638
 20
169.3358964843748
 10
48.73466525607638
 20
169.7821603732635
 10
48.73466525607638
 20
169.7821603732635
 10
48.53278266059028
 20
169.9609194878471
 10
48.39153374565971
 20
170.3628105468748
 10
48.31160753038194
 20
170.9878335503471
 10
48.26062011718749
 20
171.3542263454858
 10
48.22548014322915
 20
171.9120562065971
 10
48.20549858940971
 20
172.6625909288193
 10
48.20549858940971
 20
172.6625909288193
 10
48.16140136718749
 20
175.3205234374999
 10
48.16140136718749
 20
175.3205234374999
 10
48.14141981336803
 20
176.4716814236109
 10
48.03462185329859
 20
177.3033550347219
 10
47.84169650607638
 20
177.8142764756941
 10
47.64808213975693
 20
178.3251979166665
 10
47.35800509982638
 20
178.7372313368054
 10
46.97077636718749
 20
179.0516445312498
 10
47.4021023220486
 20
179.5086846788193
 10
47.73765462239582
 20
180.1134229600693
 10
47.97743326822915
 20
180.8664932725691
 10
48.21721191406249
 20
181.6189296874999
 10
48.33779025607638
 20
182.5868912760413
 10
48.33779025607638
 20
183.7697441406248
 10
48.33779025607638
 20
186.0371957465274
 10
47.89061686197916
 20
187.5921464843749
 10
46.99695909288194
 20
188.4345963541665
 10
46.52567003038194
 20
188.8732534722221
 10
45.92966851128472
 20
189.0932159288193
 10
45.20895453559027
 20
189.0932159288193
 10
45.20895453559027
 20
189.0932159288193
 10
40.79716525607638
 20
189.0932159288193
 10
40.79716525607638
 20
189.0932159288193
 10
40.79716525607638
 20
189.0932159288193
 10
40.79716525607638
 20
169.3358964843748
 10
40.79716525607638
 20
169.3358964843748
 97
        0
 75
     0
 76
     1
 98
        0
  0
HATCH
  5
24A6
330
2496
100
AcDbEntity
  8
0
  6
Continuous
100
AcDbHatch
 10
0.0
 20
0.0
 30
0.0
210
0.0
220
0.0
230
1.0
  2
SOLID
 70
     1
 71
     1
 91
        1
 92
        1
 93
        1
 72
     4
 94
        3
 73
     0
 74
     0
 95
       59
 96
       55
 40
0.0
 40
0.0
 40
0.0
 40
0.0
 40
1.0
 40
1.0
 40
1.0
 40
2.0
 40
2.0
 40
2.0
 40
3.0
 40
3.0
 40
3.0
 40
4.0
 40
4.0
 40
4.0
 40
5.0
 40
5.0
 40
5.0
 40
6.0
 40
6.0
 40
6.0
 40
7.0
 40
7.0
 40
7.0
 40
8.0
 40
8.0
 40
8.0
 40
9.0
 40
9.0
 40
9.0
 40
10.0
 40
10.0
 40
10.0
 40
11.0
 40
11.0
 40
11.0
 40
12.0
 40
12.0
 40
12.0
 40
13.0
 40
13.0
 40
13.0
 40
14.0
 40
14.0
 40
14.0
 40
15.0
 40
15.0
 40
15.0
 40
16.0
 40
16.0
 40
16.0
 40
17.0
 40
17.0
 40
17.0
 40
18.0
 40
18.0
 40
18.0
 40
18.0
 10
85.61871880425345
 20
187.4658355034721
 10
86.29120144314232
 20
186.1797124565971
 10
86.66671685112847
 20
184.7193364800346
 10
86.7452650282118
 20
183.0840874565969
 10
86.7452650282118
 20
183.0840874565969
 10
85.42234836154511
 20
183.0840874565969
 10
85.42234836154511
 20
183.0840874565969
 10
85.27696533203123
 20
184.3156401909719
 10
84.99171142578125
 20
185.2917046440971
 10
84.56589762369791
 20
186.0122808159719
 10
84.14008382161458
 20
186.7322368706594
 10
83.53994818793401
 20
187.0925249565969
 10
82.76617974175342
 20
187.0925249565969
 10
81.81740044487847
 20
187.0925249565969
 10
81.05258924696178
 20
186.4240386284721
 10
80.47243516710068
 20
185.0883062065971
 10
79.89159206814234
 20
183.7525737847219
 10
79.6015150282118
 20
181.7049468315971
 10
79.6015150282118
 20
178.9454253472221
 10
79.6015150282118
 20
176.6844780815969
 10
79.86265326605901
 20
174.8514116753471
 10
80.38561876085069
 20
173.4456060112846
 10
80.90789523654512
 20
172.0391802300344
 10
81.69199896918403
 20
171.3365874565971
 10
82.73724093967013
 20
171.3365874565971
 10
83.69497748480901
 20
171.3365874565971
 10
84.42120361328125
 20
172.0794878472221
 10
84.91523030598958
 20
173.5665288628469
 10
85.18601481119791
 20
174.3491167534719
 10
85.38445231119791
 20
175.3785112847221
 10
85.51054280598959
 20
176.6547124565971
 10
85.51054280598959
 20
176.6547124565971
 10
86.83345947265625
 20
176.6547124565971
 10
86.83345947265625
 20
176.6547124565971
 10
86.72597249348957
 20
174.6157671440971
 10
86.35114610460069
 20
172.9061040581596
 10
85.70760226779514
 20
171.526343315972
 10
84.93727891710069
 20
169.8650493706596
 10
83.90375027126735
 20
169.0347124565971
 10
82.60701633029514
 20
169.0347124565971
 10
81.48598225911458
 20
169.0347124565971
 10
80.54547119140625
 20
169.7143608940971
 10
79.78479410807292
 20
171.0742778862845
 10
78.78020426432292
 20
172.8726177300344
 10
78.27859836154512
 20
175.6495024956596
 10
78.27859836154512
 20
179.4049321831594
 10
78.27859836154512
 20
182.2562310112846
 10
78.65342475043402
 20
184.5946929253469
 10
79.40445556640622
 20
186.4196978081596
 10
80.22301025390625
 20
188.4028325737846
 10
81.34955647786458
 20
189.3943999565971
 10
82.78271620008679
 20
189.3943999565971
 10
84.00090196397568
 20
189.3943999565971
 10
84.94623616536458
 20
188.7513384331594
 10
85.61871880425345
 20
187.4658355034721
 97
        1
330
249F
 75
     0
 76
     1
 98
        1
 10
0.0
 20
0.0
  0
LINE
  5
24A7
102
{ACAD_REACTORS
330
24B6
102
}
330
2496
100
AcDbEntity
  8
LAYER_1
 62
     7
100
AcDbLine
 10
34.65766059027778
 20
177.4497853732638
 30
0.0
 11
36.19830729166666
 21
186.1658769531249
 31
0.0
  0
LINE
  5
24A8
102
{ACAD_REACTORS
330
24B6
102
}
330
2496
100
AcDbEntity
  8
LAYER_1
 62
     7
100
AcDbLine
 10
36.19830729166666
 20
186.1658769531249
 30
0.0
 11
37.67556423611111
 21
177.4497853732638
 31
0.0
  0
LINE
  5
24A9
102
{ACAD_REACTORS
330
24B6
102
}
330
2496
100
AcDbEntity
  8
LAYER_1
 62
     7
100
AcDbLine
 10
37.67556423611111
 20
177.4497853732638
 30
0.0
 11
34.65766059027778
 21
177.4497853732638
 31
0.0
  0
LINE
  5
24AA
102
{ACAD_REACTORS
330
24B6
102
}
330
2496
100
AcDbEntity
  8
LAYER_1
 62
     7
100
AcDbLine
 10
31.83957248263888
 20
169.3358964843748
 30
0.0
 11
33.22450086805555
 21
169.3358964843748
 31
0.0
  0
LINE
  5
24AB
102
{ACAD_REACTORS
330
24B6
102
}
330
2496
100
AcDbEntity
  8
LAYER_1
 62
     7
100
AcDbLine
 10
33.22450086805555
 20
169.3358964843748
 30
0.0
 11
34.27043185763887
 21
175.2590353732638
 31
0.0
  0
LINE
  5
24AC
102
{ACAD_REACTORS
330
24B6
102
}
330
2496
100
AcDbEntity
  8
LAYER_1
 62
     7
100
AcDbLine
 10
34.27043185763887
 20
175.2590353732638
 30
0.0
 11
38.04694552951389
 21
175.2590353732638
 31
0.0
  0
LINE
  5
24AD
102
{ACAD_REACTORS
330
24B6
102
}
330
2496
100
AcDbEntity
  8
LAYER_1
 62
     7
100
AcDbLine
 10
38.04694552951389
 20
175.2590353732638
 30
0.0
 11
39.05015733506942
 21
169.3358964843748
 31
0.0
  0
LINE
  5
24AE
102
{ACAD_REACTORS
330
24B6
102
}
330
2496
100
AcDbEntity
  8
LAYER_1
 62
     7
100
AcDbLine
 10
39.05015733506942
 20
169.3358964843748
 30
0.0
 11
40.43508572048611
 21
169.3358964843748
 31
0.0
  0
LINE
  5
24AF
102
{ACAD_REACTORS
330
24B6
102
}
330
2496
100
AcDbEntity
  8
LAYER_1
 62
     7
100
AcDbLine
 10
40.43508572048611
 20
169.3358964843748
 30
0.0
 11
36.952783203125
 21
189.0932159288193
 31
0.0
  0
LINE
  5
24B0
102
{ACAD_REACTORS
330
24B6
102
}
330
2496
100
AcDbEntity
  8
LAYER_1
 62
     7
100
AcDbLine
 10
36.952783203125
 20
189.0932159288193
 30
0.0
 11
35.47828233506943
 21
189.0932159288193
 31
0.0
  0
LINE
  5
24B1
102
{ACAD_REACTORS
330
24B6
102
}
330
2496
100
AcDbEntity
  8
LAYER_1
 62
     7
100
AcDbLine
 10
35.47828233506943
 20
189.0932159288193
 30
0.0
 11
31.83957248263888
 21
169.3358964843748
 31
0.0
  0
HATCH
  5
24B2
330
2496
100
AcDbEntity
  8
0
  6
Continuous
100
AcDbHatch
 10
0.0
 20
0.0
 30
0.0
210
0.0
220
0.0
230
1.0
  2
SOLID
 70
     1
 71
     1
 91
        2
 92
       16
 93
        1
 72
     4
 94
        3
 73
     0
 74
     0
 95
       29
 96
       25
 40
0.0
 40
0.0
 40
0.0
 40
0.0
 40
1.0
 40
1.0
 40
1.0
 40
2.0
 40
2.0
 40
2.0
 40
3.0
 40
3.0
 40
3.0
 40
4.0
 40
4.0
 40
4.0
 40
5.0
 40
5.0
 40
5.0
 40
6.0
 40
6.0
 40
6.0
 40
7.0
 40
7.0
 40
7.0
 40
8.0
 40
8.0
 40
8.0
 40
8.0
 10
62.85697292751734
 20
171.3365874565971
 10
61.88338894314235
 20
171.3365874565971
 10
61.18058946397566
 20
172.0714263237844
 10
60.74857449001735
 20
173.5411040581594
 10
60.31587049696178
 20
175.0107817925344
 10
60.10020751953123
 20
176.8165630425343
 10
60.10020751953123
 20
178.9578276909721
 10
60.10020751953123
 20
181.6342534722221
 10
60.35101047092013
 20
183.6589360894094
 10
60.85261637369789
 20
185.0324956597219
 10
61.35422227647566
 20
186.4054351128471
 10
62.00741238064235
 20
187.0925249565969
 10
62.81218668619789
 20
187.0925249565969
 10
63.6369425455729
 20
187.0925249565969
 10
64.28806559244789
 20
186.3992339409721
 10
64.76486680772568
 20
185.0126519097221
 10
65.24166802300347
 20
183.6260698784719
 10
65.48006863064235
 20
181.7961040581594
 10
65.48006863064235
 20
179.5239946831596
 10
65.48006863064235
 20
177.3734282769096
 10
65.27336290147568
 20
175.4715288628469
 10
64.86132948133678
 20
173.8176763237846
 10
64.4492960611979
 20
172.1632036675344
 10
63.78094753689235
 20
171.3365874565971
 10
62.85697292751734
 20
171.3365874565971
 97
        1
330
249C
 92
        1
 93
        1
 72
     4
 94
        3
 73
     0
 74
     0
 95
       29
 96
       25
 40
0.0
 40
0.0
 40
0.0
 40
0.0
 40
1.0
 40
1.0
 40
1.0
 40
2.0
 40
2.0
 40
2.0
 40
3.0
 40
3.0
 40
3.0
 40
4.0
 40
4.0
 40
4.0
 40
5.0
 40
5.0
 40
5.0
 40
6.0
 40
6.0
 40
6.0
 40
7.0
 40
7.0
 40
7.0
 40
8.0
 40
8.0
 40
8.0
 40
8.0
 10
62.76119927300346
 20
189.4340874565971
 10
61.47273356119789
 20
189.4340874565971
 10
60.50121663411457
 20
188.2397417534719
 10
59.84733751085068
 20
185.8516704644094
 10
59.3395304361979
 20
183.9900786675344
 10
59.08597140842012
 20
181.7514556206596
 10
59.08597140842012
 20
179.1351812065971
 10
59.08597140842012
 20
176.2379937065971
 10
59.3836276584201
 20
173.8412407769094
 10
59.9789401584201
 20
171.9449224175346
 10
60.6424655490451
 20
169.9779106987846
 10
61.5602389865451
 20
168.9950249565971
 10
62.7315714518229
 20
168.9950249565971
 10
63.9904093424479
 20
168.9950249565971
 10
64.95641411675345
 20
170.1186773003469
 10
65.63027479383679
 20
172.3659819878471
 10
66.20629475911457
 20
174.2796636284719
 10
66.49430474175345
 20
176.6813774956593
 10
66.49430474175345
 20
179.5698833550344
 10
66.49430474175345
 20
182.2388677300343
 10
66.24005669487845
 20
184.4291216362844
 10
65.73293863932289
 20
186.1412651909719
 10
65.08870578342011
 20
188.3364800347219
 10
64.09789632161457
 20
189.4340874565971
 10
62.76119927300346
 20
189.4340874565971
 97
        0
 75
     0
 76
     1
 98
        0
  0
HATCH
  5
24B3
330
2496
100
AcDbEntity
  8
0
  6
Continuous
100
AcDbHatch
 10
0.0
 20
0.0
 30
0.0
210
0.0
220
0.0
230
1.0
  2
SOLID
 70
     1
 71
     1
 91
        1
 92
        1
 93
        1
 72
     4
 94
        3
 73
     0
 74
     0
 95
       59
 96
       55
 40
0.0
 40
0.0
 40
0.0
 40
0.0
 40
1.0
 40
1.0
 40
1.0
 40
2.0
 40
2.0
 40
2.0
 40
3.0
 40
3.0
 40
3.0
 40
4.0
 40
4.0
 40
4.0
 40
5.0
 40
5.0
 40
5.0
 40
6.0
 40
6.0
 40
6.0
 40
7.0
 40
7.0
 40
7.0
 40
8.0
 40
8.0
 40
8.0
 40
9.0
 40
9.0
 40
9.0
 40
10.0
 40
10.0
 40
10.0
 40
11.0
 40
11.0
 40
11.0
 40
12.0
 40
12.0
 40
12.0
 40
13.0
 40
13.0
 40
13.0
 40
14.0
 40
14.0
 40
14.0
 40
15.0
 40
15.0
 40
15.0
 40
16.0
 40
16.0
 40
16.0
 40
17.0
 40
17.0
 40
17.0
 40
18.0
 40
18.0
 40
18.0
 40
18.0
 10
49.39440104166666
 20
189.0932159288193
 10
49.39440104166666
 20
189.0932159288193
 10
51.24786241319444
 20
189.0932159288193
 10
51.24786241319444
 20
189.0932159288193
 10
51.24786241319444
 20
189.0932159288193
 10
54.04665798611111
 20
172.3887471788193
 10
54.04665798611111
 20
172.3887471788193
 10
54.04665798611111
 20
172.3887471788193
 10
56.83994140624999
 20
189.0932159288193
 10
56.83994140624999
 20
189.0932159288193
 10
56.83994140624999
 20
189.0932159288193
 10
58.69891493055553
 20
189.0932159288193
 10
58.69891493055553
 20
189.0932159288193
 10
58.69891493055553
 20
189.0932159288193
 10
58.69891493055553
 20
169.3358964843748
 10
58.69891493055553
 20
169.3358964843748
 10
58.69891493055553
 20
169.3358964843748
 10
57.46419270833333
 20
169.3358964843748
 10
57.46419270833333
 20
169.3358964843748
 10
57.46419270833333
 20
169.3358964843748
 10
57.46419270833333
 20
180.9964422743054
 10
57.46419270833333
 20
180.9964422743054
 10
57.46419270833333
 20
181.3996011284721
 10
57.47108289930555
 20
182.0677291666664
 10
57.48624131944444
 20
183.0001924913193
 10
57.50071072048609
 20
183.9326558159721
 10
57.50828993055553
 20
184.932312282986
 10
57.50828993055553
 20
185.9997957899304
 10
57.50828993055553
 20
185.9997957899304
 10
54.700537109375
 20
169.3358964843748
 10
54.700537109375
 20
169.3358964843748
 10
54.700537109375
 20
169.3358964843748
 10
53.38382161458333
 20
169.3358964843748
 10
53.38382161458333
 20
169.3358964843748
 10
53.38382161458333
 20
169.3358964843748
 10
50.58502604166665
 20
185.9997957899304
 10
50.58502604166665
 20
185.9997957899304
 10
50.58502604166665
 20
185.9997957899304
 10
50.58502604166665
 20
185.3944236111109
 10
50.58502604166665
 20
185.3944236111109
 10
50.58502604166665
 20
184.9101258680554
 10
50.59191623263888
 20
184.1729029947915
 10
50.60707465277777
 20
183.1821210937498
 10
50.62154405381942
 20
182.1913391927082
 10
50.62912326388889
 20
181.4629908854165
 10
50.62912326388889
 20
180.9964422743054
 10
50.62912326388889
 20
180.9964422743054
 10
50.62912326388889
 20
169.3358964843748
 10
50.62912326388889
 20
169.3358964843748
 10
50.62912326388889
 20
169.3358964843748
 10
49.39440104166666
 20
169.3358964843748
 10
49.39440104166666
 20
169.3358964843748
 10
49.39440104166666
 20
169.3358964843748
 10
49.39440104166666
 20
189.0932159288193
 10
49.39440104166666
 20
189.0932159288193
 97
        1
330
249B
 75
     0
 76
     1
 98
        1
 10
0.0
 20
0.0
  0
HATCH
  5
24B4
330
2496
100
AcDbEntity
  8
0
  6
Continuous
100
AcDbHatch
 10
0.0
 20
0.0
 30
0.0
210
0.0
220
0.0
230
1.0
  2
SOLID
 70
     1
 71
     1
 91
        2
 92
       16
 93
        1
 72
     4
 94
        3
 73
     0
 74
     0
 95
       32
 96
       28
 40
0.0
 40
0.0
 40
0.0
 40
0.0
 40
1.0
 40
1.0
 40
1.0
 40
2.0
 40
2.0
 40
2.0
 40
3.0
 40
3.0
 40
3.0
 40
4.0
 40
4.0
 40
4.0
 40
5.0
 40
5.0
 40
5.0
 40
6.0
 40
6.0
 40
6.0
 40
7.0
 40
7.0
 40
7.0
 40
8.0
 40
8.0
 40
8.0
 40
9.0
 40
9.0
 40
9.0
 40
9.0
 10
91.70051812065969
 20
171.6077853732635
 10
91.70051812065969
 20
171.6077853732635
 10
91.70051812065969
 20
186.7401881510414
 10
91.70051812065969
 20
186.7401881510414
 10
91.70051812065969
 20
186.7401881510414
 10
93.98668348524305
 20
186.7401881510414
 10
93.98668348524305
 20
186.7401881510414
 10
95.02159016927082
 20
186.7401881510414
 10
95.77331000434028
 20
186.0644533420137
 10
96.24322102864582
 20
184.7142515190969
 10
96.71313205295138
 20
183.3640496961804
 10
96.94808756510417
 20
181.4680620659721
 10
96.94808756510417
 20
179.0262886284719
 10
96.94808756510417
 20
178.3911232638887
 10
96.91432562934028
 20
177.7027105034721
 10
96.84749077690971
 20
176.9604164496524
 10
96.7324245876736
 20
175.7167094184024
 10
96.55052354600693
 20
174.6974021267359
 10
96.30109863281248
 20
173.901860677083
 10
95.98414984809028
 20
172.9091770833332
 10
95.57693956163193
 20
172.2378795572914
 10
95.07877875434026
 20
171.8892358940971
 10
94.79076877170138
 20
171.7016022135415
 10
94.43178982204859
 20
171.6077853732635
 10
94.00115288628471
 20
171.6077853732635
 10
94.00115288628471
 20
171.6077853732635
 10
91.70051812065969
 20
171.6077853732635
 10
91.70051812065969
 20
171.6077853732635
 97
        1
330
24A0
 92
        1
 93
        1
 72
     4
 94
        3
 73
     0
 74
     0
 95
       26
 96
       22
 40
0.0
 40
0.0
 40
0.0
 40
0.0
 40
1.0
 40
1.0
 40
1.0
 40
2.0
 40
2.0
 40
2.0
 40
3.0
 40
3.0
 40
3.0
 40
4.0
 40
4.0
 40
4.0
 40
5.0
 40
5.0
 40
5.0
 40
6.0
 40
6.0
 40
6.0
 40
7.0
 40
7.0
 40
7.0
 40
7.0
 10
90.37760145399305
 20
169.3358964843748
 10
90.37760145399305
 20
169.3358964843748
 10
94.22990722656248
 20
169.3358964843748
 10
94.22990722656248
 20
169.3358964843748
 10
95.87115071614581
 20
169.3358964843748
 10
97.03008083767359
 20
170.8331625434026
 10
97.70600857204859
 20
173.8283285590274
 10
98.08221299913194
 20
175.5227367621524
 10
98.27100423177082
 20
177.4187243923609
 10
98.27100423177082
 20
179.5169253472221
 10
98.27100423177082
 20
182.233810329861
 10
97.94716525607638
 20
184.4619602864582
 10
97.30086534288195
 20
186.2013752170135
 10
96.57601725260416
 20
188.1290577256941
 10
95.5576470269097
 20
189.0932159288193
 10
94.24437662760416
 20
189.0932159288193
 10
94.24437662760416
 20
189.0932159288193
 10
90.37760145399305
 20
189.0932159288193
 10
90.37760145399305
 20
189.0932159288193
 10
90.37760145399305
 20
189.0932159288193
 10
90.37760145399305
 20
169.3358964843748
 10
90.37760145399305
 20
169.3358964843748
 97
        0
 75
     0
 76
     1
 98
        0
  0
HATCH
  5
24B5
330
2496
100
AcDbEntity
  8
0
  6
Continuous
100
AcDbHatch
 10
0.0
 20
0.0
 30
0.0
210
0.0
220
0.0
230
1.0
  2
SOLID
 70
     1
 71
     1
 91
        2
 92
       16
 93
        1
 72
     4
 94
        3
 73
     0
 74
     0
 95
       26
 96
       22
 40
0.0
 40
0.0
 40
0.0
 40
0.0
 40
1.0
 40
1.0
 40
1.0
 40
2.0
 40
2.0
 40
2.0
 40
3.0
 40
3.0
 40
3.0
 40
4.0
 40
4.0
 40
4.0
 40
5.0
 40
5.0
 40
5.0
 40
6.0
 40
6.0
 40
6.0
 40
7.0
 40
7.0
 40
7.0
 40
7.0
 10
100.5623372395832
 20
180.046229817708
 10
100.5623372395832
 20
180.046229817708
 10
100.5623372395832
 20
186.7401881510414
 10
100.5623372395832
 20
186.7401881510414
 10
100.5623372395832
 20
186.7401881510414
 10
103.6732584635416
 20
186.7401881510414
 10
103.6732584635416
 20
186.7401881510414
 10
104.1107855902777
 20
186.7401881510414
 10
104.4580512152777
 20
186.6064357638887
 10
104.7150553385415
 20
186.3401987847218
 10
105.2097710503471
 20
185.8330807291664
 10
105.4571289062497
 20
184.8822343749996
 10
105.4571289062497
 20
183.4863919270832
 10
105.4571289062497
 20
182.188169704861
 10
105.280740017361
 20
181.2905707465276
 10
104.9286512586804
 20
180.7929611545137
 10
104.5765624999999
 20
180.2947176649304
 10
104.1011393229166
 20
180.046229817708
 10
103.5023817274304
 20
180.046229817708
 10
103.5023817274304
 20
180.046229817708
 10
100.5623372395832
 20
180.046229817708
 10
100.5623372395832
 20
180.046229817708
 97
        1
330
24A1
 92
        1
 93
        1
 72
     4
 94
        3
 73
     0
 74
     0
 95
       68
 96
       64
 40
0.0
 40
0.0
 40
0.0
 40
0.0
 40
1.0
 40
1.0
 40
1.0
 40
2.0
 40
2.0
 40
2.0
 40
3.0
 40
3.0
 40
3.0
 40
4.0
 40
4.0
 40
4.0
 40
5.0
 40
5.0
 40
5.0
 40
6.0
 40
6.0
 40
6.0
 40
7.0
 40
7.0
 40
7.0
 40
8.0
 40
8.0
 40
8.0
 40
9.0
 40
9.0
 40
9.0
 40
10.0
 40
10.0
 40
10.0
 40
11.0
 40
11.0
 40
11.0
 40
12.0
 40
12.0
 40
12.0
 40
13.0
 40
13.0
 40
13.0
 40
14.0
 40
14.0
 40
14.0
 40
15.0
 40
15.0
 40
15.0
 40
16.0
 40
16.0
 40
16.0
 40
17.0
 40
17.0
 40
17.0
 40
18.0
 40
18.0
 40
18.0
 40
19.0
 40
19.0
 40
19.0
 40
20.0
 40
20.0
 40
20.0
 40
21.0
 40
21.0
 40
21.0
 40
21.0
 10
99.23942057291661
 20
169.3358964843748
 10
99.23942057291661
 20
169.3358964843748
 10
100.5623372395832
 20
169.3358964843748
 10
100.5623372395832
 20
169.3358964843748
 10
100.5623372395832
 20
169.3358964843748
 10
100.5623372395832
 20
177.8149103732637
 10
100.5623372395832
 20
177.8149103732637
 10
100.5623372395832
 20
177.8149103732637
 10
103.4472601996527
 20
177.8149103732637
 10
103.4472601996527
 20
177.8149103732637
 10
103.9681586371527
 20
177.8149103732637
 10
104.3519422743053
 20
177.6938359374998
 10
104.5986111111109
 20
177.4516870659719
 10
105.0244249131943
 20
177.0117621527776
 10
105.2518012152777
 20
176.1458580729164
 10
105.280740017361
 20
174.8539748263887
 10
105.280740017361
 20
174.8539748263887
 10
105.3689344618053
 20
171.5564396701385
 10
105.3689344618053
 20
171.5564396701385
 10
105.3882269965277
 20
170.7843524305554
 10
105.4109646267359
 20
170.2639225260415
 10
105.4357693142359
 20
169.9951499565971
 10
105.4605740017358
 20
169.725743489583
 10
105.4970920138888
 20
169.5057810329859
 10
105.5467013888887
 20
169.3358964843748
 10
105.5467013888887
 20
169.3358964843748
 10
107.1769205729166
 20
169.3358964843748
 10
107.1769205729166
 20
169.3358964843748
 10
107.1769205729166
 20
169.3358964843748
 10
107.1769205729166
 20
169.7821603732635
 10
107.1769205729166
 20
169.7821603732635
 10
106.9750379774303
 20
169.9609194878471
 10
106.8337890624997
 20
170.3628105468748
 10
106.7538628472221
 20
170.9878335503471
 10
106.7028754340274
 20
171.3542263454858
 10
106.6677354600692
 20
171.9120562065971
 10
106.6477539062497
 20
172.6625909288193
 10
106.6477539062497
 20
172.6625909288193
 10
106.6036566840277
 20
175.3205234374999
 10
106.6036566840277
 20
175.3205234374999
 10
106.5836751302082
 20
176.4716814236109
 10
106.4768771701387
 20
177.3033550347219
 10
106.2839518229166
 20
177.8142764756941
 10
106.0903374565971
 20
178.3251979166665
 10
105.8002604166666
 20
178.7372313368054
 10
105.4130316840277
 20
179.0516445312498
 10
105.8443576388886
 20
179.5086846788193
 10
106.179909939236
 20
180.1134229600693
 10
106.4196885850692
 20
180.8664932725691
 10
106.6594672309027
 20
181.6189296874999
 10
106.7800455729166
 20
182.5868912760413
 10
106.7800455729166
 20
183.7697441406248
 10
106.7800455729166
 20
186.0371957465274
 10
106.3328721788193
 20
187.5921464843749
 10
105.4392144097221
 20
188.4345963541665
 10
104.9679253472221
 20
188.8732534722221
 10
104.3719238281249
 20
189.0932159288193
 10
103.6512098524303
 20
189.0932159288193
 10
103.6512098524303
 20
189.0932159288193
 10
99.23942057291661
 20
189.0932159288193
 10
99.23942057291661
 20
189.0932159288193
 10
99.23942057291661
 20
189.0932159288193
 10
99.23942057291661
 20
169.3358964843748
 10
99.23942057291661
 20
169.3358964843748
 97
        0
 75
     0
 76
     1
 98
        0
  0
HATCH
  5
24B6
330
2496
100
AcDbEntity
  8
0
  6
Continuous
100
AcDbHatch
 10
0.0
 20
0.0
 30
0.0
210
0.0
220
0.0
230
1.0
  2
SOLID
 70
     1
 71
     1
 91
        2
 92
        1
 93
        8
 72
     1
 10
35.47828233506943
 20
189.0932159288193
 11
31.83957248263888
 21
169.3358964843748
 72
     1
 10
31.83957248263888
 20
169.3358964843748
 11
33.22450086805555
 21
169.3358964843748
 72
     1
 10
33.22450086805555
 20
169.3358964843748
 11
34.27043185763887
 21
175.2590353732638
 72
     1
 10
34.27043185763887
 20
175.2590353732638
 11
38.04694552951389
 21
175.2590353732638
 72
     1
 10
38.04694552951389
 20
175.2590353732638
 11
39.05015733506942
 21
169.3358964843748
 72
     1
 10
39.05015733506942
 20
169.3358964843748
 11
40.43508572048611
 21
169.3358964843748
 72
     1
 10
40.43508572048611
 20
169.3358964843748
 11
36.952783203125
 21
189.0932159288193
 72
     1
 10
36.952783203125
 20
189.0932159288193
 11
35.47828233506943
 21
189.0932159288193
 97
        8
330
24B1
330
24AA
330
24AB
330
24AC
330
24AD
330
24AE
330
24AF
330
24B0
 92
       16
 93
        3
 72
     1
 10
37.67556423611111
 20
177.4497853732638
 11
34.65766059027778
 21
177.4497853732638
 72
     1
 10
34.65766059027778
 20
177.4497853732638
 11
36.19830729166666
 21
186.1658769531249
 72
     1
 10
36.19830729166666
 20
186.1658769531249
 11
37.67556423611111
 21
177.4497853732638
 97
        3
330
24A9
330
24A7
330
24A8
 75
     0
 76
     1
 98
        1
 10
0.0
 20
0.0
  0
HATCH
  5
24B7
330
2496
100
AcDbEntity
  8
0
  6
Continuous
100
AcDbHatch
 10
0.0
 20
0.0
 30
0.0
210
0.0
220
0.0
230
1.0
  2
SOLID
 70
     1
 71
     1
 91
        1
 92
        1
 93
        1
 72
     4
 94
        3
 73
     0
 74
     0
 95
      113
 96
      109
 40
0.0
 40
0.0
 40
0.0
 40
0.0
 40
1.0
 40
1.0
 40
1.0
 40
2.0
 40
2.0
 40
2.0
 40
3.0
 40
3.0
 40
3.0
 40
4.0
 40
4.0
 40
4.0
 40
5.0
 40
5.0
 40
5.0
 40
6.0
 40
6.0
 40
6.0
 40
7.0
 40
7.0
 40
7.0
 40
8.0
 40
8.0
 40
8.0
 40
9.0
 40
9.0
 40
9.0
 40
10.0
 40
10.0
 40
10.0
 40
11.0
 40
11.0
 40
11.0
 40
12.0
 40
12.0
 40
12.0
 40
13.0
 40
13.0
 40
13.0
 40
14.0
 40
14.0
 40
14.0
 40
15.0
 40
15.0
 40
15.0
 40
16.0
 40
16.0
 40
16.0
 40
17.0
 40
17.0
 40
17.0
 40
18.0
 40
18.0
 40
18.0
 40
19.0
 40
19.0
 40
19.0
 40
20.0
 40
20.0
 40
20.0
 40
21.0
 40
21.0
 40
21.0
 40
22.0
 40
22.0
 40
22.0
 40
23.0
 40
23.0
 40
23.0
 40
24.0
 40
24.0
 40
24.0
 40
25.0
 40
25.0
 40
25.0
 40
26.0
 40
26.0
 40
26.0
 40
27.0
 40
27.0
 40
27.0
 40
28.0
 40
28.0
 40
28.0
 40
29.0
 40
29.0
 40
29.0
 40
30.0
 40
30.0
 40
30.0
 40
31.0
 40
31.0
 40
31.0
 40
32.0
 40
32.0
 40
32.0
 40
33.0
 40
33.0
 40
33.0
 40
34.0
 40
34.0
 40
34.0
 40
35.0
 40
35.0
 40
35.0
 40
36.0
 40
36.0
 40
36.0
 40
36.0
 10
193.3039632161458
 20
186.1548733181423
 10
193.3039632161458
 20
186.1860514322916
 10
193.3039632161458
 20
219.6932223849826
 10
193.3039632161458
 20
219.6932223849826
 10
193.3039632161458
 20
219.6932223849826
 10
193.2974175347219
 20
219.7488606770833
 10
193.2974175347219
 20
219.7488606770833
 10
191.5293945312499
 20
235.455740017361
 10
175.1458984374999
 20
235.2467949761284
 10
174.9808783637151
 20
235.2428331163193
 10
174.9808783637151
 20
235.2428331163193
 10
125.8827555338541
 20
235.2430053710937
 10
125.8827555338541
 20
235.2430053710937
 10
125.8827555338541
 20
235.2430053710937
 10
125.8827555338541
 20
255.5278998480901
 10
125.8827555338541
 20
255.5278998480901
 10
125.8827555338541
 20
255.5278998480901
 10
84.5626247829861
 20
255.5278998480901
 10
84.5626247829861
 20
255.5278998480901
 10
84.5626247829861
 20
255.5278998480901
 10
84.55711263020829
 20
233.7919311523436
 10
84.55711263020829
 20
233.7919311523436
 10
84.55711263020829
 20
233.7919311523436
 10
64.42052951388888
 20
233.7919311523436
 10
64.42052951388888
 20
233.7919311523436
 10
64.42052951388888
 20
233.7919311523436
 10
64.41501736111111
 20
255.5278998480901
 10
64.41501736111111
 20
255.5278998480901
 10
64.41501736111111
 20
255.5278998480901
 10
23.91757541232637
 20
255.5278998480901
 10
23.91757541232637
 20
255.5278998480901
 10
23.91757541232637
 20
255.5278998480901
 10
23.91757541232637
 20
233.2393378363715
 10
23.91757541232637
 20
233.2393378363715
 10
23.91757541232637
 20
233.2393378363715
 10
43.65624999999999
 20
233.2393378363715
 10
43.65624999999999
 20
233.2393378363715
 10
43.65624999999999
 20
233.2393378363715
 10
43.65624999999999
 20
211.5188720703125
 10
43.65624999999999
 20
211.5188720703125
 10
43.65624999999999
 20
211.5188720703125
 10
23.91757541232637
 20
211.5188720703125
 10
23.91757541232637
 20
211.5188720703125
 10
23.91757541232637
 20
211.5188720703125
 10
23.91757541232637
 20
189.2303100585936
 10
23.91757541232637
 20
189.2303100585936
 10
23.91757541232637
 20
189.2303100585936
 10
64.41501736111111
 20
189.2303100585936
 10
64.41501736111111
 20
189.2303100585936
 10
64.41501736111111
 20
189.2303100585936
 10
64.42052951388888
 20
211.069976128472
 10
64.42052951388888
 20
211.069976128472
 10
64.42052951388888
 20
211.069976128472
 10
84.55711263020829
 20
211.069976128472
 10
84.55711263020829
 20
211.069976128472
 10
84.55711263020829
 20
211.069976128472
 10
84.5626247829861
 20
189.2303100585936
 10
84.5626247829861
 20
189.2303100585936
 10
84.5626247829861
 20
189.2303100585936
 10
125.8827555338541
 20
189.2303100585936
 10
125.8827555338541
 20
189.2303100585936
 10
125.8827555338541
 20
189.2303100585936
 10
125.8827555338541
 20
211.5188720703125
 10
125.8827555338541
 20
211.5188720703125
 10
125.8827555338541
 20
211.5188720703125
 10
105.3213921440971
 20
211.5188720703125
 10
105.3213921440971
 20
211.5188720703125
 10
105.3213921440971
 20
211.5188720703125
 10
105.3213921440971
 20
233.2393378363715
 10
105.3213921440971
 20
233.2393378363715
 10
105.3213921440971
 20
233.2393378363715
 10
175.0046495225693
 20
233.243127441406
 10
175.0046495225693
 20
233.243127441406
 10
175.6268337673611
 20
233.2560465494791
 10
189.7165852864583
 20
233.3962619357638
 10
191.3037407769094
 20
219.5690266927083
 10
191.3037407769094
 20
219.4332899305555
 10
191.3037407769094
 20
186.1142211914062
 10
191.3037407769094
 20
186.1142211914062
 10
191.3037407769094
 20
186.1142211914062
 10
191.3051188151039
 20
186.0880384657115
 10
191.3051188151039
 20
186.0880384657115
 10
191.3054633246526
 20
186.0787367078991
 10
191.3109754774304
 20
185.9566080729166
 10
191.3109754774304
 20
185.7399115668401
 10
191.3109754774304
 20
184.2090833875865
 10
191.0488037109374
 20
177.9643310546874
 10
186.9866916232638
 20
173.5652886284722
 10
184.2540418836804
 20
170.6064683702255
 10
180.3224989149304
 20
169.0308539496526
 10
175.300927734375
 20
168.8825425889756
 10
175.300927734375
 20
168.8825425889756
 10
107.0094889322916
 20
168.8828870985243
 10
107.0094889322916
 20
168.8828870985243
 10
107.0094889322916
 20
168.8828870985243
 10
107.0094889322916
 20
166.8830091688368
 10
107.0094889322916
 20
166.8830091688368
 10
107.0094889322916
 20
166.8830091688368
 10
175.3305555555555
 20
166.8830091688368
 10
175.3305555555555
 20
166.8830091688368
 10
180.9467502170138
 20
167.0485460069444
 10
185.3571614583333
 20
168.8448187934026
 10
188.4687717013888
 20
172.2223904079861
 10
192.9649658203124
 20
177.1034016927083
 10
193.3136094835069
 20
183.7202243381076
 10
193.3136094835069
 20
185.6520616319443
 10
193.3136094835069
 20
185.9247409396701
 10
193.3070638020833
 20
186.0868326822916
 10
193.3039632161458
 20
186.1548733181423
 97
        1
330
2497
 75
     0
 76
     1
 98
        1
 10
0.0
 20
0.0
  0
HATCH
  5
24B8
330
2496
100
AcDbEntity
  8
0
  6
Continuous
100
AcDbHatch
 10
0.0
 20
0.0
 30
0.0
210
0.0
220
0.0
230
1.0
  2
SOLID
 70
     1
 71
     1
 91
        2
 92
        1
 93
        1
 72
     4
 94
        3
 73
     0
 74
     0
 95
       23
 96
       19
 40
0.0
 40
0.0
 40
0.0
 40
0.0
 40
1.0
 40
1.0
 40
1.0
 40
2.0
 40
2.0
 40
2.0
 40
3.0
 40
3.0
 40
3.0
 40
4.0
 40
4.0
 40
4.0
 40
5.0
 40
5.0
 40
5.0
 40
6.0
 40
6.0
 40
6.0
 40
6.0
 10
148.6593153211804
 20
211.3929538302949
 10
148.6593153211804
 20
211.3929538302949
 10
148.6593153211804
 20
189.630802408854
 10
148.6593153211804
 20
189.630802408854
 10
148.6593153211804
 20
189.630802408854
 10
161.3152180989583
 20
189.630802408854
 10
161.3152180989583
 20
189.630802408854
 10
162.8431179470483
 20
189.630802408854
 10
170.4657362196178
 20
190.1880466037324
 10
170.4657362196178
 20
201.1911648220484
 10
170.4657362196178
 20
211.1288872612845
 10
162.3356553819444
 20
211.3914035373261
 10
162.2536621093749
 20
211.3927815755205
 10
162.2536621093749
 20
211.3927815755205
 10
149.6594265407986
 20
211.3929538302949
 10
149.6594265407986
 20
211.3929538302949
 10
149.6594265407986
 20
211.3929538302949
 10
148.6593153211804
 20
211.3929538302949
 10
148.6593153211804
 20
211.3929538302949
 97
        1
330
2498
 92
       16
 93
        1
 72
     4
 94
        3
 73
     0
 74
     0
 95
       20
 96
       16
 40
0.0
 40
0.0
 40
0.0
 40
0.0
 40
1.0
 40
1.0
 40
1.0
 40
2.0
 40
2.0
 40
2.0
 40
3.0
 40
3.0
 40
3.0
 40
4.0
 40
4.0
 40
4.0
 40
5.0
 40
5.0
 40
5.0
 40
5.0
 10
162.2354031032984
 20
209.3930759006075
 10
162.467947048611
 20
209.3861857096352
 10
168.4655137803819
 20
209.1283203124997
 10
168.4655137803819
 20
201.1911648220484
 10
168.4655137803819
 20
192.3202162000866
 10
162.9926350911458
 20
191.6306803385414
 10
161.3152180989583
 20
191.6306803385414
 10
161.3152180989583
 20
191.6306803385414
 10
152.3310980902776
 20
191.6306803385414
 10
150.6595377604166
 20
191.6306803385414
 10
150.6595377604166
 20
193.3373806423609
 10
150.6595377604166
 20
207.686375596788
 10
150.6595377604166
 20
209.3930759006075
 10
152.3538357204859
 20
209.3930759006075
 10
162.2354031032984
 20
209.3930759006075
 10
162.2354031032984
 20
209.3930759006075
 97
        0
 75
     0
 76
     1
 98
        0
  0
ENDBLK
  5
24BA
330
2496
100
AcDbEntity
  8
0
100
AcDbBlockEnd
  0
BLOCK
  5
24BD
330
24BB
100
AcDbEntity
  8
0
100
AcDbBlockBegin
  2
HD logo-new
 70
     0
 10
0.0
 20
0.0
 30
0.0
  3
HD logo-new
  1

  0
INSERT
  5
24BC
330
24BB
100
AcDbEntity
  8
0
 62
     3
100
AcDbBlockReference
  2
HD_LLC_logo_OT5
 10
-27.1607188578505
 20
-68.37367811463031
 30
0.0
 41
0.2999999999999971
 42
0.3000000000000007
 43
0.3
  0
ENDBLK
  5
24BE
330
24BB
100
AcDbEntity
  8
0
100
AcDbBlockEnd
  0
BLOCK
  5
24C1
330
24BF
100
AcDbEntity
  8
0
100
AcDbBlockBegin
  2
HD Logo
 70
     0
 10
0.0
 20
0.0
 30
0.0
  3
HD Logo
  1

  0
INSERT
  5
24C0
330
24BF
100
AcDbEntity
  8
0
100
AcDbBlockReference
  2
HD logo-new
 10
0.9700256734946606
 20
7.273795608420527
 30
0.0
  0
ENDBLK
  5
24C2
330
24BF
100
AcDbEntity
  8
0
100
AcDbBlockEnd
  0
BLOCK
  5
24CD
330
24CB
100
AcDbEntity
  8
0
100
AcDbBlockBegin
  2
Harmonic Drive LLC
 70
     0
 10
0.0
 20
0.0
 30
0.0
  3
Harmonic Drive LLC
  1

  0
MTEXT
  5
24CC
330
24CB
100
AcDbEntity
  8
0
100
AcDbMText
 10
8.730232253264317
 20
-1.454758693481394
 30
0.0
 40
5.25
 41
158.5992
 71
     5
 72
     5
  1
{\fArial|b0|i0|c0|p34;Harmonic Drive LLC\P800-921-3332\Pwww.harmonicdrive.net}
 73
     1
 44
1.0
  0
ENDBLK
  5
24CE
330
24CB
100
AcDbEntity
  8
0
100
AcDbBlockEnd
  0
BLOCK
  5
2976
330
2974
100
AcDbEntity
  8
0
100
AcDbBlockBegin
  2
HD LLC
 70
     0
 10
0.0
 20
0.0
 30
0.0
  3
HD LLC
  1

  0
MTEXT
  5
2975
330
2974
100
AcDbEntity
  8
0
100
AcDbMText
 10
-2.314970886968865
 20
1.247205085865914
 30
0.0
 40
5.675387507387601
 41
236.1828726592229
 71
     5
 72
     5
  1
Harmonic Drive LLC\P800-921-3332\Pwww.harmonicdrive.net
 73
     1
 44
1.0
  0
ENDBLK
  5
2977
330
2974
100
AcDbEntity
  8
0
100
AcDbBlockEnd
  0
BLOCK
  5
2988
330
2985
100
AcDbEntity
  8
0
100
AcDbBlockBegin
  2
NTC
 70
     0
 10
0.0
 20
0.0
 30
0.0
  3
NTC
  1

  0
LWPOLYLINE
  5
2986
330
2985
100
AcDbEntity
  8
0
100
AcDbPolyline
 90
        8
 70
     1
 43
0.0
 10
4.581008201925953
 20
-10.78862239032818
 10
319.3921777697513
 20
-10.78862239032818
 42
-0.4142135623730951
 10
324.9046777697513
 20
-16.30112239032816
 10
324.9046777697513
 20
-117.4075202476924
 42
-0.4142135623730951
 10
319.3921777697513
 20
-122.9200202476925
 10
4.581008201925838
 20
-122.9200202476925
 42
-0.4142135623730951
 10
-0.9314917980741483
 20
-117.4075202476924
 10
-0.9314917980740915
 20
-16.30112239032816
 42
-0.4142135623730951
  0
MTEXT
  5
2987
330
2985
100
AcDbEntity
  8
0
  6
Continuous
370
    30
100
AcDbMText
 10
21.65307678143926
 20
-17.4535155144544
 30
0.0
 40
8.75
 41
294.5432999999998
 71
     1
 72
     5
  3
{\fTxt|b1|i0|c0|p2;Notice:\P\Ftxt.shx;\H0.5714x;All specifications and dimensions shown in the drawing are subject to change without notice. This drawing is the property of Harmonic Drive LLC.   This data is believed to be accurate, however, Harmonic
  1
 Drive LLC assumes no liability for any errors or omissions in the specifications, models, or drawings.\P\PHarmonic Drive LLC\PTel: 800-921-3332\Pwww.harmonicdrive.net}
 73
     1
 44
1.0
  0
ENDBLK
  5
2989
330
2985
100
AcDbEntity
  8
0
100
AcDbBlockEnd
  0
ENDSEC
  0
SECTION
  2
ENTITIES
  0
TEXT
  5
244E
330
21E0
100
AcDbEntity
  8
1
 62
     3
100
AcDbText
 10
-265.0283215338134
 20
-278.389719292448
 30
0.0
 40
6.4
  1
 
 41
0.9
100
AcDbText
  0
TEXT
  5
2729
330
21E0
100
AcDbEntity
  8
1
 62
     0
100
AcDbText
 10
319.1126783065317
 20
497.0693034017524
 30
0.0
 40
9.72
  1
REMARKS:  M.H.C = MINIMUM HOUSING CLEARANCE
 41
0.9
 72
     1
 11
445.9805483065316
 21
501.9293034017525
 31
0.0
100
AcDbText
 73
     2
  0
LINE
  5
272A
330
21E0
100
AcDbEntity
  8
1
 62
     7
100
AcDbLine
 10
480.7969617674998
 20
854.3215949841274
 30
0.0
 11
481.7969617675047
 21
853.7442447149375
 31
0.0
  0
LINE
  5
272B
330
21E0
100
AcDbEntity
  8
1
 62
     7
100
AcDbLine
 10
481.3969617675028
 20
849.4205949841278
 30
0.0
 11
481.7969617675047
 21
849.8205949841269
 31
0.0
  0
LINE
  5
272C
330
21E0
100
AcDbEntity
  8
1
 62
     7
100
AcDbLine
 10
481.7969617675047
 20
662.480594984127
 30
0.0
 11
481.3969617675028
 21
662.8805949841277
 31
0.0
  0
LINE
  5
272D
330
21E0
100
AcDbEntity
  8
1
 62
     7
100
AcDbLine
 10
481.7969617675047
 20
658.5569452533169
 30
0.0
 11
480.7969617674998
 21
657.9795949841273
 31
0.0
  0
LINE
  5
272E
330
21E0
100
AcDbEntity
  8
1
 62
     7
100
AcDbLine
 10
448.116961767244
 20
641.6615949841276
 30
0.0
 11
484.1169617675022
 21
641.6615949841276
 31
0.0
  0
LINE
  5
272F
330
21E0
100
AcDbEntity
  8
1
 62
     7
100
AcDbLine
 10
448.116961767244
 20
630.6615949841276
 30
0.0
 11
484.1169617675022
 21
630.6615949841276
 31
0.0
  0
LINE
  5
2730
330
21E0
100
AcDbEntity
  8
1
  6
CENTER
 62
     3
100
AcDbLine
 10
438.1169617672346
 20
636.1615949841276
 30
0.0
 11
494.1169617675121
 21
636.1615949841276
 31
0.0
  0
LINE
  5
2731
330
21E0
100
AcDbEntity
  8
1
 62
     7
100
AcDbLine
 10
463.1169617679756
 20
870.6615949841275
 30
0.0
 11
484.1169617675022
 21
870.6615949841275
 31
0.0
  0
LINE
  5
2732
330
21E0
100
AcDbEntity
  8
1
 62
     7
100
AcDbLine
 10
463.1169617679756
 20
881.6615949841274
 30
0.0
 11
484.1169617675022
 21
881.6615949841274
 31
0.0
  0
LINE
  5
2733
330
21E0
100
AcDbEntity
  8
1
  6
CENTER
 62
     3
100
AcDbLine
 10
438.1169617680799
 20
876.1615949841274
 30
0.0
 11
494.1169617673977
 21
876.1615949841274
 31
0.0
  0
LINE
  5
2734
330
21E0
100
AcDbEntity
  8
0
 62
     7
100
AcDbLine
 10
442.1169617675022
 20
858.6045949841269
 30
0.0
 11
484.1169617674506
 21
858.6045949841269
 31
0.0
  0
LINE
  5
2735
330
21E0
100
AcDbEntity
  8
0
 62
     7
100
AcDbLine
 10
443.24833261753
 20
856.73559498419
 30
0.0
 11
482.98559091732
 21
856.735594983631
 31
0.0
  0
LINE
  5
2736
330
21E0
100
AcDbEntity
  8
0
 62
     7
100
AcDbLine
 10
443.2483326173069
 20
655.5875949841277
 30
0.0
 11
482.9855909178487
 21
655.5875949841277
 31
0.0
  0
LINE
  5
2737
330
21E0
100
AcDbEntity
  8
0
 62
     7
100
AcDbLine
 10
442.1169617677305
 20
653.7185949841276
 30
0.0
 11
484.1169617677066
 21
653.7185949841276
 31
0.0
  0
LINE
  5
2738
330
21E0
100
AcDbEntity
  8
0
 62
     7
100
AcDbLine
 10
483.7169617673607
 20
623.6615949846358
 30
0.0
 11
448.5169617673437
 21
623.6615949846358
 31
0.0
  0
LINE
  5
2739
330
21E0
100
AcDbEntity
  8
0
 62
     7
100
AcDbLine
 10
483.7169617677999
 20
888.6615949844577
 30
0.0
 11
448.516961768075
 21
888.6615949844577
 31
0.0
  0
LINE
  5
273A
330
21E0
100
AcDbEntity
  8
0
 62
     7
100
AcDbLine
 10
450.3426348845673
 20
655.5875949838736
 30
0.0
 11
482.6510533612717
 21
655.5875949841277
 31
0.0
  0
LINE
  5
273B
330
21E0
100
AcDbEntity
  8
0
 62
     7
100
AcDbLine
 10
450.3426348840285
 20
856.7355949840122
 30
0.0
 11
482.651053360573
 21
856.735594983809
 31
0.0
  0
LINE
  5
273C
330
21E0
100
AcDbEntity
  8
0
 62
     7
100
AcDbLine
 10
436.0169617659492
 20
742.1615949841573
 30
0.0
 11
485.1169617634814
 21
742.1615949841573
 31
0.0
  0
LINE
  5
273D
330
21E0
100
AcDbEntity
  8
0
 62
     7
100
AcDbLine
 10
485.1169617634814
 20
770.1615949841106
 30
0.0
 11
436.0169617659492
 21
770.1615949841106
 31
0.0
  0
LINE
  5
273E
330
21E0
100
AcDbEntity
  8
0
 62
     7
100
AcDbLine
 10
436.0169617659492
 20
773.4615949841018
 30
0.0
 11
485.1169617634814
 21
773.4615949841018
 31
0.0
  0
LINE
  5
273F
330
21E0
100
AcDbEntity
  8
0
 62
     7
100
AcDbLine
 10
481.7169617647427
 20
728.6615949842858
 30
0.0
 11
484.6169617635045
 21
728.6615949842858
 31
0.0
  0
LINE
  5
2740
330
21E0
100
AcDbEntity
  8
0
 62
     7
100
AcDbLine
 10
481.7169617647427
 20
783.6615949839947
 30
0.0
 11
484.6169617635045
 21
783.6615949840965
 31
0.0
  0
LINE
  5
2741
330
21E0
100
AcDbEntity
  8
1
 62
     7
100
AcDbLine
 10
483.9705151580987
 20
855.9080415935346
 30
0.0
 11
481.3606807287341
 21
858.5178760228959
 31
0.0
  0
LINE
  5
2742
330
21E0
100
AcDbEntity
  8
1
 62
     7
100
AcDbLine
 10
481.6169617675045
 20
854.3215949841274
 30
0.0
 11
483.6431297456226
 21
854.4277819483147
 31
0.0
  0
LINE
  5
2743
330
21E0
100
AcDbEntity
  8
1
 62
     7
100
AcDbLine
 10
481.3606807287341
 20
653.8053139453585
 30
0.0
 11
483.9705151580987
 21
656.4151483747207
 31
0.0
  0
LINE
  5
2744
330
21E0
100
AcDbEntity
  8
1
 62
     7
100
AcDbLine
 10
483.6431297456226
 20
657.8954080199398
 30
0.0
 11
481.6169617675045
 21
658.0015949841273
 31
0.0
  0
LINE
  5
2745
330
21E0
100
AcDbEntity
  8
1
  6
CENTER
 62
     3
100
AcDbLine
 10
412.4386946208121
 20
756.1615949841275
 30
0.0
 11
494.6960600726844
 21
756.1615949841272
 31
0.0
  0
CIRCLE
  5
2746
330
21E0
100
AcDbEntity
  8
1
 62
     3
100
AcDbCircle
 10
167.5278004094375
 20
873.8558286325153
 30
0.0
 40
5.0
  0
CIRCLE
  5
2747
330
21E0
100
AcDbEntity
  8
1
  6
CENTER
 62
     3
100
AcDbCircle
 10
144.1169617675022
 20
756.1615949841275
 30
0.0
 40
119.9999999999999
  0
CIRCLE
  5
2748
330
21E0
100
AcDbEntity
  8
1
 62
     7
100
AcDbCircle
 10
144.116961761965
 20
756.1615949856006
 30
0.0
 40
132.4999999999991
  0
CIRCLE
  5
2749
330
21E0
100
AcDbEntity
  8
1
 62
     7
100
AcDbCircle
 10
144.116961761965
 20
756.1615949856006
 30
0.0
 40
108.9999999999827
  0
CIRCLE
  5
274A
330
21E0
100
AcDbEntity
  8
1
 62
     7
100
AcDbCircle
 10
144.1169617679087
 20
756.1615949841275
 30
0.0
 40
62.99999999989155
  0
CIRCLE
  5
274B
330
21E0
100
AcDbEntity
  8
1
 62
     7
100
AcDbCircle
 10
144.1169617678888
 20
756.1615949842533
 30
0.0
 40
32.49999999991445
  0
CIRCLE
  5
274C
330
21E0
100
AcDbEntity
  8
1
  6
CENTER
 62
     3
100
AcDbCircle
 10
144.1169617675022
 20
756.1615949841275
 30
0.0
 40
49.99999999999996
  0
CIRCLE
  5
274D
330
21E0
100
AcDbEntity
  8
1
 62
     7
100
AcDbCircle
 10
173.5062243821258
 20
715.7107452653802
 30
0.0
 40
9.000000000000067
  0
CIRCLE
  5
274E
330
21E0
100
AcDbEntity
  8
1
 62
     7
100
AcDbCircle
 10
173.5062243821258
 20
796.6124447028749
 30
0.0
 40
9.000000000000113
  0
CIRCLE
  5
274F
330
21E0
100
AcDbEntity
  8
1
 62
     7
100
AcDbCircle
 10
144.1169617675022
 20
756.1615949841275
 30
0.0
 40
102.2480896377415
  0
CIRCLE
  5
2750
330
21E0
100
AcDbEntity
  8
1
 62
     7
100
AcDbCircle
 10
144.1169617675022
 20
756.1615949841275
 30
0.0
 40
99.01714097854485
  0
ARC
  5
2751
330
21E0
100
AcDbEntity
  8
1
  6
CENTER
 62
     3
100
AcDbCircle
 10
144.1169617675022
 20
756.1615949841275
 30
0.0
 40
56.99999999999996
100
AcDbArc
 50
275.6483548163688
 51
306.5758780235249
  0
LINE
  5
2752
330
21E0
100
AcDbEntity
  8
2
  6
CENTER
 62
     3
100
AcDbLine
 10
-0.8830404099250017
 20
756.1615949841275
 30
0.0
 11
286.6169617679523
 21
756.1615949841275
 31
0.0
  0
LINE
  5
2753
330
21E0
100
AcDbEntity
  8
1
  6
CENTER
 62
     3
100
AcDbLine
 10
165.0480833385452
 20
727.3523776785598
 30
0.0
 11
183.0822308634556
 21
702.530503074163
 31
0.0
  0
LINE
  5
2754
330
21E0
100
AcDbEntity
  8
1
  6
CENTER
 62
     3
100
AcDbLine
 10
165.0480833385452
 20
784.9708122896952
 30
0.0
 11
183.0822308634557
 21
809.792686894092
 31
0.0
  0
CIRCLE
  5
2755
330
21E0
100
AcDbEntity
  8
1
 62
     7
100
AcDbCircle
 10
96.56413595274475
 20
771.6124447028752
 30
0.0
 40
9.000000000000051
  0
LINE
  5
2756
330
21E0
100
AcDbEntity
  8
2
  6
CENTER
 62
     3
100
AcDbLine
 10
144.1169617675022
 20
611.1615928067003
 30
0.0
 11
144.1169617675022
 21
901.1615971615546
 31
0.0
  0
CIRCLE
  5
2757
330
21E0
100
AcDbEntity
  8
1
 62
     7
100
AcDbCircle
 10
98.19494988369156
 20
645.2960510827733
 30
0.0
 40
5.499999999999894
  0
LINE
  5
2758
330
21E0
100
AcDbEntity
  8
1
  6
CENTER
 62
     3
100
AcDbLine
 10
101.669254763942
 20
653.6837650444931
 30
0.0
 11
94.06435796486661
 21
635.3239200517171
 31
0.0
  0
CIRCLE
  5
2759
330
21E0
100
AcDbEntity
  8
1
 62
     7
100
AcDbCircle
 10
120.7061231255668
 20
638.4673613357399
 30
0.0
 40
3.800000000000123
  0
CIRCLE
  5
275A
330
21E0
100
AcDbEntity
  8
1
 62
     3
100
AcDbCircle
 10
120.7061231255668
 20
638.4673613357399
 30
0.0
 40
5.0
  0
LINE
  5
275B
330
21E0
100
AcDbEntity
  8
1
  6
CENTER
 62
     3
100
AcDbLine
 10
122.4773083939786
 20
647.3717109834979
 30
0.0
 11
118.6003656262667
 21
627.8810034986671
 31
0.0
  0
CIRCLE
  5
275C
330
21E0
100
AcDbEntity
  8
1
 62
     7
100
AcDbCircle
 10
144.1169617675023
 20
636.1615949841276
 30
0.0
 40
5.500000000000028
  0
CIRCLE
  5
275D
330
21E0
100
AcDbEntity
  8
1
 62
     7
100
AcDbCircle
 10
96.56413595274456
 20
740.7107452653804
 30
0.0
 40
9.0
  0
LINE
  5
275E
330
21E0
100
AcDbEntity
  8
1
  6
CENTER
 62
     3
100
AcDbLine
 10
110.2496956428986
 20
767.1657368055729
 30
0.0
 11
81.06983198946384
 21
776.6468492399647
 31
0.0
  0
LINE
  5
275F
330
21E0
100
AcDbEntity
  8
1
  6
CENTER
 62
     3
100
AcDbLine
 10
110.2496956428986
 20
745.1574531626826
 30
0.0
 11
81.06983198946357
 21
735.6763407282908
 31
0.0
  0
CIRCLE
  5
2760
330
21E0
100
AcDbEntity
  8
1
 62
     7
100
AcDbCircle
 10
59.26414802511647
 20
671.3087812417419
 30
0.0
 40
5.499999999999943
  0
LINE
  5
2761
330
21E0
100
AcDbEntity
  8
1
  6
CENTER
 62
     3
100
AcDbLine
 10
65.68382636225163
 20
677.7284595788771
 30
0.0
 11
51.63180936319884
 21
663.6764425798239
 31
0.0
  0
CIRCLE
  5
2762
330
21E0
100
AcDbEntity
  8
1
 62
     7
100
AcDbCircle
 10
33.25141786614784
 20
710.2395831003168
 30
0.0
 40
5.5
  0
LINE
  5
2763
330
21E0
100
AcDbEntity
  8
1
  6
CENTER
 62
     3
100
AcDbLine
 10
41.63913182786785
 20
713.7138879805673
 30
0.0
 11
23.27928683509196
 21
706.1089911814918
 31
0.0
  0
CIRCLE
  5
2764
330
21E0
100
AcDbEntity
  8
1
 62
     7
100
AcDbCircle
 10
24.11696176750234
 20
756.1615949841275
 30
0.0
 40
5.500000000000006
  0
CIRCLE
  5
2765
330
21E0
100
AcDbEntity
  8
1
 62
     7
100
AcDbCircle
 10
114.7276991528782
 20
715.7107452653804
 30
0.0
 40
8.999999999999886
  0
LINE
  5
2766
330
21E0
100
AcDbEntity
  8
1
  6
CENTER
 62
     3
100
AcDbLine
 10
123.1858401964593
 20
727.3523776785601
 30
0.0
 11
105.1516926715486
 21
702.5305030741633
 31
0.0
  0
CIRCLE
  5
2767
330
21E0
100
AcDbEntity
  8
1
 62
     7
100
AcDbCircle
 10
144.1169617675018
 20
706.1615949841276
 30
0.0
 40
8.999999999999943
  0
CIRCLE
  5
2768
330
21E0
100
AcDbEntity
  8
1
 62
     3
100
AcDbCircle
 10
161.7309304468742
 20
701.9513735553037
 30
0.0
 40
4.000000000000044
  0
CIRCLE
  5
2769
330
21E0
100
AcDbEntity
  8
1
 62
     7
100
AcDbCircle
 10
161.7309304468742
 20
701.9513735553037
 30
0.0
 40
3.000000000000106
  0
LINE
  5
276A
330
21E0
100
AcDbEntity
  8
1
  6
CENTER
 62
     3
100
AcDbLine
 10
158.7398614566437
 20
711.1569373450903
 30
0.0
 11
164.6022160233386
 21
693.1144652060888
 31
0.0
  0
CIRCLE
  5
276B
330
21E0
100
AcDbEntity
  8
1
 62
     7
100
AcDbCircle
 10
98.19494988369156
 20
867.0271388854819
 30
0.0
 40
5.5
  0
LINE
  5
276C
330
21E0
100
AcDbEntity
  8
1
  6
CENTER
 62
     3
100
AcDbLine
 10
101.669254763942
 20
858.6394249237621
 30
0.0
 11
94.06435796486661
 21
876.999269916538
 31
0.0
  0
CIRCLE
  5
276D
330
21E0
100
AcDbEntity
  8
1
 62
     7
100
AcDbCircle
 10
59.26414802511647
 20
841.014408726513
 30
0.0
 40
5.499999999999952
  0
LINE
  5
276E
330
21E0
100
AcDbEntity
  8
1
  6
CENTER
 62
     3
100
AcDbLine
 10
65.68382636225163
 20
834.5947303893776
 30
0.0
 11
51.63180936319884
 21
848.6467473884314
 31
0.0
  0
CIRCLE
  5
276F
330
21E0
100
AcDbEntity
  8
1
 62
     7
100
AcDbCircle
 10
33.25141786614784
 20
802.0836068679383
 30
0.0
 40
5.49999999999996
  0
LINE
  5
2770
330
21E0
100
AcDbEntity
  8
1
  6
CENTER
 62
     3
100
AcDbLine
 10
41.63913182786785
 20
798.6093019876875
 30
0.0
 11
23.27928683509196
 21
806.2141987867631
 31
0.0
  0
ARC
  5
2771
330
21E0
100
AcDbEntity
  8
1
  6
CENTER
 62
     3
100
AcDbCircle
 10
144.1169617675022
 20
756.1615949841275
 30
0.0
 40
56.99999999999997
100
AcDbArc
 50
95.64835481636885
 51
126.5758780235249
  0
CIRCLE
  5
2772
330
21E0
100
AcDbEntity
  8
1
 62
     3
100
AcDbCircle
 10
126.5029930881303
 20
810.3718164129514
 30
0.0
 40
4.000000000000158
  0
CIRCLE
  5
2773
330
21E0
100
AcDbEntity
  8
1
 62
     7
100
AcDbCircle
 10
126.5029930881303
 20
810.3718164129514
 30
0.0
 40
2.999999999999984
  0
LINE
  5
2774
330
21E0
100
AcDbEntity
  8
1
  6
CENTER
 62
     3
100
AcDbLine
 10
129.2500756702533
 20
801.9171655746907
 30
0.0
 11
123.6317075116656
 21
819.208724762166
 31
0.0
  0
CIRCLE
  5
2775
330
21E0
100
AcDbEntity
  8
1
 62
     7
100
AcDbCircle
 10
114.7276991528791
 20
796.6124447028749
 30
0.0
 40
9.000000000000012
  0
LINE
  5
2776
330
21E0
100
AcDbEntity
  8
1
  6
CENTER
 62
     3
100
AcDbLine
 10
123.1858401964593
 20
784.9708122896952
 30
0.0
 11
105.1516926715489
 21
809.792686894092
 31
0.0
  0
CIRCLE
  5
2777
330
21E0
100
AcDbEntity
  8
1
 62
     7
100
AcDbCircle
 10
144.1169617675023
 20
806.1615949841275
 30
0.0
 40
9.000000000000088
  0
CIRCLE
  5
2778
330
21E0
100
AcDbEntity
  8
1
 62
     7
100
AcDbCircle
 10
167.5278004094375
 20
873.8558286325153
 30
0.0
 40
3.800000000000008
  0
CIRCLE
  5
2779
330
21E0
100
AcDbEntity
  8
1
 62
     7
100
AcDbCircle
 10
144.116961767502
 20
876.1615949841273
 30
0.0
 40
5.500000000000163
  0
LINE
  5
277A
330
21E0
100
AcDbEntity
  8
1
  6
CENTER
 62
     3
100
AcDbLine
 10
165.7566151410256
 20
864.9514789847572
 30
0.0
 11
169.6335579087378
 21
884.4421864695879
 31
0.0
  0
CIRCLE
  5
277B
330
21E0
100
AcDbEntity
  8
1
 62
     7
100
AcDbCircle
 10
191.6697875822598
 20
771.6124447028748
 30
0.0
 40
9.000000000000085
  0
LINE
  5
277C
330
21E0
100
AcDbEntity
  8
0
 62
     7
100
AcDbLine
 10
436.0169617659492
 20
756.1615949841275
 30
0.0
 11
436.0169617659492
 21
783.6615949840965
 31
0.0
  0
LINE
  5
277D
330
21E0
100
AcDbEntity
  8
1
 62
     7
100
AcDbLine
 10
384.1169617675021
 20
797.1615949841277
 30
0.0
 11
384.1169617675021
 21
703.1615949841278
 31
0.0
  0
LINE
  5
277E
330
21E0
100
AcDbEntity
  8
1
 62
     7
100
AcDbLine
 10
392.1169617675021
 20
797.1615949841277
 30
0.0
 11
392.1169617675021
 21
703.1615949841278
 31
0.0
  0
CIRCLE
  5
277F
330
21E0
100
AcDbEntity
  8
1
 62
     7
100
AcDbCircle
 10
190.038973651313
 20
645.2960510827733
 30
0.0
 40
5.5
  0
LINE
  5
2780
330
21E0
100
AcDbEntity
  8
1
  6
CENTER
 62
     3
100
AcDbLine
 10
186.5646687710626
 20
653.6837650444931
 30
0.0
 11
194.1695655701381
 21
635.3239200517171
 31
0.0
  0
CIRCLE
  5
2781
330
21E0
100
AcDbEntity
  8
1
 62
     7
100
AcDbCircle
 10
254.9825056688566
 20
710.239583100317
 30
0.0
 40
5.500000000000063
  0
LINE
  5
2782
330
21E0
100
AcDbEntity
  8
1
  6
CENTER
 62
     3
100
AcDbLine
 10
246.5947917071367
 20
713.7138879805676
 30
0.0
 11
264.9546366999127
 21
706.1089911814918
 31
0.0
  0
CIRCLE
  5
2783
330
21E0
100
AcDbEntity
  8
1
 62
     7
100
AcDbCircle
 10
228.9697755098882
 20
671.308781241742
 30
0.0
 40
5.499999999999976
  0
LINE
  5
2784
330
21E0
100
AcDbEntity
  8
1
  6
CENTER
 62
     3
100
AcDbLine
 10
222.5500971727529
 20
677.7284595788771
 30
0.0
 11
236.6021141718058
 21
663.676442579824
 31
0.0
  0
CIRCLE
  5
2785
330
21E0
100
AcDbEntity
  8
1
 62
     7
100
AcDbCircle
 10
191.6697875822596
 20
740.7107452653802
 30
0.0
 40
9.000000000000119
  0
LINE
  5
2786
330
21E0
100
AcDbEntity
  8
1
  6
CENTER
 62
     3
100
AcDbLine
 10
177.9842278921058
 20
745.1574531626822
 30
0.0
 11
207.1640915455408
 21
735.6763407282906
 31
0.0
  0
LINE
  5
2787
330
21E0
100
AcDbEntity
  8
1
  6
CENTER
 62
     3
100
AcDbLine
 10
177.9842278921058
 20
767.1657368055726
 30
0.0
 11
207.1640915455408
 21
776.6468492399642
 31
0.0
  0
CIRCLE
  5
2788
330
21E0
100
AcDbEntity
  8
1
 62
     7
100
AcDbCircle
 10
264.116961767502
 20
756.1615949841275
 30
0.0
 40
5.499999999999936
  0
ARC
  5
2789
330
21E0
100
AcDbEntity
  8
1
 62
     7
100
AcDbCircle
 10
397.0169617675033
 20
662.9015949841276
 30
0.0
 40
4.901020301938261
100
AcDbArc
 50
178.8308606720907
 51
268.8308606720939
  0
ARC
  5
278A
330
21E0
100
AcDbEntity
  8
1
 62
     7
100
AcDbCircle
 10
396.6129617675022
 20
662.4975949841276
 30
0.0
 40
5.900847396772742
100
AcDbArc
 50
179.0289780689204
 51
269.0289780689204
  0
LINE
  5
278B
330
21E0
100
AcDbEntity
  8
1
  6
DIVIDE
 62
     7
100
AcDbLine
 10
387.1169617672444
 20
650.1615949841277
 30
0.0
 11
387.1169617672444
 21
678.1742035354811
 31
0.0
  0
LINE
  5
278C
330
21E0
100
AcDbEntity
  8
1
 62
     7
100
AcDbLine
 10
426.8689617675038
 20
656.5975949841272
 30
0.0
 11
396.5129617675021
 21
656.5975949841276
 31
0.0
  0
LINE
  5
278D
330
21E0
100
AcDbEntity
  8
1
  6
DIVIDE
 62
     7
100
AcDbLine
 10
417.7653199647941
 20
650.1615949841277
 30
0.0
 11
387.1169617672444
 21
650.1615949841277
 31
0.0
  0
ARC
  5
278E
330
21E0
100
AcDbEntity
  8
1
 62
     7
100
AcDbCircle
 10
427.607045623201
 20
576.6975949841276
 30
0.0
 40
79.90340898721473
100
AcDbArc
 50
75.09767792736991
 51
90.52926016310964
  0
LINE
  5
278F
330
21E0
100
AcDbEntity
  8
0
 62
     7
100
AcDbLine
 10
442.1169617677868
 20
654.4562241338455
 30
0.0
 11
443.2483326173069
 21
655.5875949841277
 31
0.0
  0
LINE
  5
2790
330
21E0
100
AcDbEntity
  8
0
 62
     7
100
AcDbLine
 10
447.8169617672968
 20
647.1615949847547
 30
0.0
 11
442.9169617674776
 21
647.1615949839927
 31
0.0
  0
LINE
  5
2791
330
21E0
100
AcDbEntity
  8
0
 62
     7
100
AcDbLine
 10
442.1169617672786
 20
647.9615949841912
 30
0.0
 11
442.1169617677868
 21
654.4562241338455
 31
0.0
  0
LINE
  5
2792
330
21E0
100
AcDbEntity
  8
0
 62
     7
100
AcDbLine
 10
442.9169617674776
 20
647.1615949839927
 30
0.0
 11
442.1169617672786
 21
647.9615949841912
 31
0.0
  0
LINE
  5
2793
330
21E0
100
AcDbEntity
  8
0
 62
     7
100
AcDbLine
 10
448.116961767244
 20
624.0615949842271
 30
0.0
 11
448.116961767244
 21
630.6615949841276
 31
0.0
  0
LINE
  5
2794
330
21E0
100
AcDbEntity
  8
0
 62
     7
100
AcDbLine
 10
448.5169617673437
 20
623.6615949846358
 30
0.0
 11
448.116961767244
 21
624.0615949842271
 31
0.0
  0
LINE
  5
2795
330
21E0
100
AcDbEntity
  8
1
 62
     7
100
AcDbLine
 10
448.1559617675047
 20
653.913505346387
 30
0.0
 11
464.1169617675029
 21
653.7185949841276
 31
0.0
  0
LINE
  5
2796
330
21E0
100
AcDbEntity
  8
0
 62
     7
100
AcDbLine
 10
448.116961767244
 20
641.6615949841276
 30
0.0
 11
448.116961767244
 21
646.8615949842991
 31
0.0
  0
LINE
  5
2797
330
21E0
100
AcDbEntity
  8
0
 62
     7
100
AcDbLine
 10
448.116961767244
 20
630.6615949841276
 30
0.0
 11
448.116961767244
 21
641.6615949841276
 31
0.0
  0
ARC
  5
2798
330
21E0
100
AcDbEntity
  8
0
 62
     7
100
AcDbCircle
 10
447.8169617671699
 20
646.8615949846801
 30
0.0
 40
0.3000000000744194
100
AcDbArc
 50
359.9999999272118
 51
89.99999997574596
  0
LINE
  5
2799
330
21E0
100
AcDbEntity
  8
1
 62
     7
100
AcDbLine
 10
473.7169617675035
 20
653.7185949841276
 30
0.0
 11
464.1169617675029
 21
653.7185949841276
 31
0.0
  0
LINE
  5
279A
330
21E0
100
AcDbEntity
  8
1
 62
     7
100
AcDbLine
 10
481.3606807287341
 20
653.8053139453585
 30
0.0
 11
473.7169617675035
 21
653.7185949841276
 31
0.0
  0
LINE
  5
279B
330
21E0
100
AcDbEntity
  8
1
 62
     7
100
AcDbLine
 10
396.9169617675033
 20
658.0015949841273
 30
0.0
 11
481.6169617675045
 21
658.0015949841273
 31
0.0
  0
LINE
  5
279C
330
21E0
100
AcDbEntity
  8
1
 62
     7
100
AcDbLine
 10
390.7129617675022
 20
691.3615949841279
 30
0.0
 11
390.7129617675022
 21
662.5975949841277
 31
0.0
  0
LINE
  5
279D
330
21E0
100
AcDbEntity
  8
1
 62
     7
100
AcDbLine
 10
392.1169617675021
 20
695.1615949841278
 30
0.0
 11
392.1169617675021
 21
663.0015949841277
 31
0.0
  0
LINE
  5
279E
330
21E0
100
AcDbEntity
  8
1
 62
     7
100
AcDbLine
 10
390.0320799862808
 20
692.161594984127
 30
0.0
 11
384.6169617675016
 21
692.161594984127
 31
0.0
  0
LINE
  5
279F
330
21E0
100
AcDbEntity
  8
1
 62
     3
100
AcDbLine
 10
384.1169617675021
 20
695.1615949841278
 30
0.0
 11
392.1169617675021
 21
695.1615949841278
 31
0.0
  0
LINE
  5
27A0
330
21E0
100
AcDbEntity
  8
1
 62
     3
100
AcDbLine
 10
384.1169617675021
 20
703.1615949841278
 30
0.0
 11
392.1169617675021
 21
703.1615949841278
 31
0.0
  0
LINE
  5
27A1
330
21E0
100
AcDbEntity
  8
1
  6
CENTER
 62
     3
100
AcDbLine
 10
382.5169617675025
 20
699.1615949841278
 30
0.0
 11
393.7169617675018
 21
699.1615949841278
 31
0.0
  0
LINE
  5
27A2
330
21E0
100
AcDbEntity
  8
1
 62
     7
100
AcDbLine
 10
384.1169617675021
 20
695.9615949841278
 30
0.0
 11
392.1169617675021
 21
695.9615949841278
 31
0.0
  0
LINE
  5
27A3
330
21E0
100
AcDbEntity
  8
1
 62
     7
100
AcDbLine
 10
384.1169617675021
 20
702.3615949841278
 30
0.0
 11
392.1169617675021
 21
702.3615949841278
 31
0.0
  0
LINE
  5
27A4
330
21E0
100
AcDbEntity
  8
1
 62
     7
100
AcDbLine
 10
384.1169617675021
 20
692.6615949841275
 30
0.0
 11
384.6169617675016
 21
692.161594984127
 31
0.0
  0
LINE
  5
27A5
330
21E0
100
AcDbEntity
  8
1
 62
     7
100
AcDbLine
 10
384.1169617675021
 20
695.1615949841278
 30
0.0
 11
384.1169617675021
 21
692.6615949841275
 31
0.0
  0
LINE
  5
27A6
330
21E0
100
AcDbEntity
  8
1
 62
     7
100
AcDbLine
 10
384.1169617675021
 20
703.1615949841278
 30
0.0
 11
384.1169617675021
 21
702.3615949841278
 31
0.0
  0
LINE
  5
27A7
330
21E0
100
AcDbEntity
  8
1
 62
     7
100
AcDbLine
 10
384.1169617675021
 20
695.9615949841278
 30
0.0
 11
384.1169617675021
 21
695.1615949841278
 31
0.0
  0
LINE
  5
27A8
330
21E0
100
AcDbEntity
  8
1
 62
     7
100
AcDbLine
 10
384.1169617675021
 20
702.3615949841278
 30
0.0
 11
384.1169617675021
 21
695.9615949841278
 31
0.0
  0
ARC
  5
27A9
330
21E0
100
AcDbEntity
  8
1
 62
     7
100
AcDbCircle
 10
389.9129617675022
 20
691.3615949841279
 30
0.0
 40
0.7999999999999475
100
AcDbArc
 50
0.0
 51
90.0
  0
LINE
  5
27AA
330
21E0
100
AcDbEntity
  8
1
 62
     7
100
AcDbLine
 10
392.1169617675021
 20
703.1615949841278
 30
0.0
 11
392.1169617675021
 21
702.3615949841278
 31
0.0
  0
LINE
  5
27AB
330
21E0
100
AcDbEntity
  8
1
 62
     7
100
AcDbLine
 10
392.1169617675021
 20
695.9615949841278
 30
0.0
 11
392.1169617675021
 21
695.1615949841278
 31
0.0
  0
LINE
  5
27AC
330
21E0
100
AcDbEntity
  8
1
 62
     7
100
AcDbLine
 10
392.1169617675021
 20
702.3615949841278
 30
0.0
 11
392.1169617675021
 21
695.9615949841278
 31
0.0
  0
LINE
  5
27AD
330
21E0
100
AcDbEntity
  8
1
 62
     7
100
AcDbLine
 10
384.1169617675021
 20
723.6615949841278
 30
0.0
 11
392.1169617675021
 21
723.6615949841278
 31
0.0
  0
LINE
  5
27AE
330
21E0
100
AcDbEntity
  8
1
  6
CENTER
 62
     3
100
AcDbLine
 10
377.8654341743073
 20
756.1615949841277
 30
0.0
 11
394.0727319444366
 21
756.1615949841277
 31
0.0
  0
LINE
  5
27AF
330
21E0
100
AcDbEntity
  8
1
 62
     7
100
AcDbLine
 10
439.1169617657255
 20
694.9115949841276
 30
0.0
 11
439.1169617657255
 21
727.6615949842915
 31
0.0
  0
LINE
  5
27B0
330
21E0
100
AcDbEntity
  8
0
 62
     7
100
AcDbLine
 10
447.9169617657379
 20
694.9115949841276
 30
0.0
 11
447.9169617657379
 21
726.1615949843002
 31
0.0
  0
LINE
  5
27B1
330
21E0
100
AcDbEntity
  8
0
 62
     7
100
AcDbLine
 10
464.579461767656
 20
718.1615949843462
 30
0.0
 11
464.579461767656
 21
727.6615949842915
 31
0.0
  0
LINE
  5
27B2
330
21E0
100
AcDbEntity
  8
0
 62
     7
100
AcDbLine
 10
455.4169617613751
 20
685.0415949845063
 30
0.0
 11
455.4169617613751
 21
727.6615949842915
 31
0.0
  0
LINE
  5
27B3
330
21E0
100
AcDbEntity
  8
0
 62
     7
100
AcDbLine
 10
477.516961766027
 20
727.6615949842915
 30
0.0
 11
477.516961766027
 21
685.0415949845063
 31
0.0
  0
LINE
  5
27B4
330
21E0
100
AcDbEntity
  8
0
 62
     7
100
AcDbLine
 10
447.9169617657379
 20
695.1615949844785
 30
0.0
 11
447.9169617657379
 21
721.661594978484
 31
0.0
  0
LINE
  5
27B5
330
21E0
100
AcDbEntity
  8
0
 62
     7
100
AcDbLine
 10
454.8794617675262
 20
728.4115949844142
 30
0.0
 11
454.8794617675262
 21
717.9115949842206
 31
0.0
  0
LINE
  5
27B6
330
21E0
100
AcDbEntity
  8
0
 62
     7
100
AcDbLine
 10
439.4169617657772
 20
695.1615949844785
 30
0.0
 11
439.4169617657772
 21
721.6615949843261
 31
0.0
  0
LINE
  5
27B7
330
21E0
100
AcDbEntity
  8
1
 62
     7
100
AcDbLine
 10
447.9169617657379
 20
694.9115949841276
 30
0.0
 11
439.1169617657255
 21
694.9115949841276
 31
0.0
  0
LINE
  5
27B8
330
21E0
100
AcDbEntity
  8
0
 62
     7
100
AcDbLine
 10
447.9169617657379
 20
695.1615949844785
 30
0.0
 11
439.4169617657772
 21
695.1615949844785
 31
0.0
  0
LINE
  5
27B9
330
21E0
100
AcDbEntity
  8
0
 62
     7
100
AcDbLine
 10
451.8794617675386
 20
671.6615949846137
 30
0.0
 11
451.8794617675386
 21
695.1615949844785
 31
0.0
  0
LINE
  5
27BA
330
21E0
100
AcDbEntity
  8
0
 62
     7
100
AcDbLine
 10
448.879461767541
 20
671.6615949846137
 30
0.0
 11
448.879461767541
 21
695.1615949844785
 31
0.0
  0
ARC
  5
27BB
330
21E0
100
AcDbEntity
  8
1
 62
     7
100
AcDbCircle
 10
467.3194617675005
 20
671.490594984127
 30
0.0
 40
9.525000000000087
100
AcDbArc
 50
90.0
 51
244.6804942667414
  0
LINE
  5
27BC
330
21E0
100
AcDbEntity
  8
1
 62
     7
100
AcDbLine
 10
458.1594617675036
 20
685.0305949841274
 30
0.0
 11
476.4794617675036
 21
685.0305949841274
 31
0.0
  0
LINE
  5
27BD
330
21E0
100
AcDbEntity
  8
1
 62
     7
100
AcDbLine
 10
462.94293060687
 20
679.9505949841273
 30
0.0
 11
458.1594617675036
 21
679.9505949841273
 31
0.0
  0
LINE
  5
27BE
330
21E0
100
AcDbEntity
  8
1
 62
     7
100
AcDbLine
 10
463.2459467006368
 20
662.8805949841277
 30
0.0
 11
453.2419617675045
 21
662.8805949841277
 31
0.0
  0
LINE
  5
27BF
330
21E0
100
AcDbEntity
  8
1
 62
     7
100
AcDbLine
 10
467.3194617675005
 20
657.9795949841273
 30
0.0
 11
453.8419617675017
 21
657.9795949841273
 31
0.0
  0
LINE
  5
27C0
330
21E0
100
AcDbEntity
  8
0
 62
     7
100
AcDbLine
 10
477.516961766027
 20
685.0415949845063
 30
0.0
 11
455.4169617613751
 21
685.0415949845063
 31
0.0
  0
LINE
  5
27C1
330
21E0
100
AcDbEntity
  8
1
 62
     7
100
AcDbLine
 10
454.0944617675005
 20
672.0456240068497
 30
0.0
 11
453.4096587393905
 21
677.4041828582665
 31
0.0
  0
LINE
  5
27C2
330
21E0
100
AcDbEntity
  8
1
 62
     7
100
AcDbLine
 10
457.5944617675034
 20
664.9305949841275
 30
0.0
 11
457.5944617675034
 21
678.3055949841275
 31
0.0
  0
LINE
  5
27C3
330
21E0
100
AcDbEntity
  8
1
 62
     7
100
AcDbLine
 10
452.8419617675026
 20
662.480594984127
 30
0.0
 11
452.8419617675026
 21
679.2124640207799
 31
0.0
  0
LINE
  5
27C4
330
21E0
100
AcDbEntity
  8
0
 62
     7
100
AcDbLine
 10
448.879461767541
 20
671.6615949846137
 30
0.0
 11
451.8794617675386
 21
671.6615949846137
 31
0.0
  0
ARC
  5
27C5
330
21E0
100
AcDbEntity
  8
1
 62
     7
100
AcDbCircle
 10
454.8944617675046
 20
665.7305949841277
 30
0.0
 40
0.8000000000038197
100
AcDbArc
 50
180.0
 51
270.0
  0
LINE
  5
27C6
330
21E0
100
AcDbEntity
  8
1
 62
     7
100
AcDbLine
 10
460.3457913424349
 20
665.0026410845879
 30
0.0
 11
457.5944617675034
 21
664.9305949841275
 31
0.0
  0
LINE
  5
27C7
330
21E0
100
AcDbEntity
  8
1
 62
     7
100
AcDbLine
 10
457.5944617675034
 20
664.9305949841275
 30
0.0
 11
454.8944617675046
 21
664.9305949841275
 31
0.0
  0
LINE
  5
27C8
330
21E0
100
AcDbEntity
  8
1
 62
     7
100
AcDbLine
 10
454.0944617675005
 20
672.0456240068497
 30
0.0
 11
454.0944617675005
 21
665.7305949841277
 31
0.0
  0
LINE
  5
27C9
330
21E0
100
AcDbEntity
  8
1
 62
     7
100
AcDbLine
 10
453.8419617675017
 20
657.9795949841273
 30
0.0
 11
452.8419617675026
 21
658.5569452533169
 31
0.0
  0
LINE
  5
27CA
330
21E0
100
AcDbEntity
  8
1
 62
     7
100
AcDbLine
 10
453.2419617675045
 20
662.8805949841277
 30
0.0
 11
452.8419617675026
 21
662.480594984127
 31
0.0
  0
LINE
  5
27CB
330
21E0
100
AcDbEntity
  8
1
 62
     7
100
AcDbLine
 10
452.8419617675026
 20
662.480594984127
 30
0.0
 11
452.8419617675026
 21
658.5569452533169
 31
0.0
  0
ARC
  5
27CC
330
21E0
100
AcDbEntity
  8
1
 62
     7
100
AcDbCircle
 10
454.2032049451862
 20
677.5055949841271
 30
0.0
 40
0.800000000000409
100
AcDbArc
 50
90.0
 51
187.2827028340406
  0
LINE
  5
27CD
330
21E0
100
AcDbEntity
  8
1
 62
     7
100
AcDbLine
 10
457.5944617675034
 20
678.3055949841275
 30
0.0
 11
454.2032049451862
 21
678.3055949841275
 31
0.0
  0
LINE
  5
27CE
330
21E0
100
AcDbEntity
  8
1
 62
     7
100
AcDbLine
 10
457.5944617675034
 20
678.3055949841275
 30
0.0
 11
460.6650346696951
 21
678.3055949841275
 31
0.0
  0
LINE
  5
27CF
330
21E0
100
AcDbEntity
  8
1
 62
     7
100
AcDbLine
 10
458.1594617675036
 20
685.0305949841274
 30
0.0
 11
457.1594617675042
 21
684.0305949841276
 31
0.0
  0
LINE
  5
27D0
330
21E0
100
AcDbEntity
  8
1
 62
     7
100
AcDbLine
 10
457.1594617675042
 20
680.9505949841279
 30
0.0
 11
458.1594617675036
 21
679.9505949841273
 31
0.0
  0
LINE
  5
27D1
330
21E0
100
AcDbEntity
  8
1
 62
     7
100
AcDbLine
 10
457.1594617675042
 20
680.9505949841279
 30
0.0
 11
457.1594617675042
 21
684.0305949841276
 31
0.0
  0
ARC
  5
27D2
330
21E0
100
AcDbEntity
  8
1
 62
     7
100
AcDbCircle
 10
467.3194617675005
 20
671.490594984127
 30
0.0
 40
9.525000000000167
100
AcDbArc
 50
295.3195057332878
 51
62.64654933005643
  0
LINE
  5
27D3
330
21E0
100
AcDbEntity
  8
1
 62
     7
100
AcDbLine
 10
480.7969617674998
 20
657.9795949841273
 30
0.0
 11
467.3194617675005
 21
657.9795949841273
 31
0.0
  0
LINE
  5
27D4
330
21E0
100
AcDbEntity
  8
1
 62
     7
100
AcDbLine
 10
481.3969617675028
 20
662.8805949841277
 30
0.0
 11
471.3929768343702
 21
662.8805949841277
 31
0.0
  0
ARC
  5
27D5
330
21E0
100
AcDbEntity
  8
1
 62
     7
100
AcDbCircle
 10
467.3194617675005
 20
671.490594984127
 30
0.0
 40
9.524999999999863
100
AcDbArc
 50
270.0
 51
295.3195057332878
  0
ARC
  5
27D6
330
21E0
100
AcDbEntity
  8
1
 62
     7
100
AcDbCircle
 10
467.3194617675005
 20
671.490594984127
 30
0.0
 40
9.524999999997641
100
AcDbArc
 50
244.6804942667414
 51
270.0
  0
LINE
  5
27D7
330
21E0
100
AcDbEntity
  8
1
 62
     7
100
AcDbLine
 10
476.4794617675036
 20
679.9505949841273
 30
0.0
 11
471.6959929281374
 21
679.9505949841273
 31
0.0
  0
ARC
  5
27D8
330
21E0
100
AcDbEntity
  8
1
 62
     7
100
AcDbCircle
 10
467.3194617675005
 20
671.490594984127
 30
0.0
 40
9.525000000001472
100
AcDbArc
 50
62.64654933005643
 51
90.0
  0
LINE
  5
27D9
330
21E0
100
AcDbEntity
  8
1
 62
     7
100
AcDbLine
 10
477.4794617675026
 20
684.0305949841276
 30
0.0
 11
477.4794617675026
 21
680.9505949841279
 31
0.0
  0
LINE
  5
27DA
330
21E0
100
AcDbEntity
  8
1
 62
     7
100
AcDbLine
 10
476.4794617675036
 20
679.9505949841273
 30
0.0
 11
477.4794617675026
 21
680.9505949841279
 31
0.0
  0
LINE
  5
27DB
330
21E0
100
AcDbEntity
  8
1
 62
     7
100
AcDbLine
 10
477.4794617675026
 20
684.0305949841276
 30
0.0
 11
476.4794617675036
 21
685.0305949841274
 31
0.0
  0
LINE
  5
27DC
330
21E0
100
AcDbEntity
  8
0
 62
     7
100
AcDbLine
 10
455.4169617624622
 20
718.1615949843462
 30
0.0
 11
464.579461767656
 21
718.1615949843462
 31
0.0
  0
LINE
  5
27DD
330
21E0
100
AcDbEntity
  8
0
 62
     7
100
AcDbLine
 10
451.8794617675386
 20
695.1615949844785
 30
0.0
 11
455.3794617675335
 21
695.1615949844785
 31
0.0
  0
LINE
  5
27DE
330
21E0
100
AcDbEntity
  8
0
 62
     7
100
AcDbLine
 10
448.879461767541
 20
695.1615949844785
 30
0.0
 11
447.9169617657379
 21
695.1615949844785
 31
0.0
  0
LINE
  5
27DF
330
21E0
100
AcDbEntity
  8
0
 62
     7
100
AcDbLine
 10
454.8794617675262
 20
717.9115949842206
 30
0.0
 11
455.4169617623314
 21
717.9115949842206
 31
0.0
  0
LINE
  5
27E0
330
21E0
100
AcDbEntity
  8
0
 62
     7
100
AcDbLine
 10
439.1169617657255
 20
727.6615949842915
 30
0.0
 11
447.9169617657379
 21
727.6615949842915
 31
0.0
  0
LINE
  5
27E1
330
21E0
100
AcDbEntity
  8
0
 62
     7
100
AcDbLine
 10
439.4169617657772
 20
721.6615949843261
 30
0.0
 11
448.4169617657366
 21
721.6615949843261
 31
0.0
  0
LINE
  5
27E2
330
21E0
100
AcDbEntity
  8
1
 62
     7
100
AcDbLine
 10
436.0169617659492
 20
756.1615949841275
 30
0.0
 11
436.0169617659492
 21
728.6615949842858
 31
0.0
  0
LINE
  5
27E3
330
21E0
100
AcDbEntity
  8
1
 62
     7
100
AcDbLine
 10
439.1169617657255
 20
728.6615949842858
 30
0.0
 11
436.0169617659492
 21
728.6615949842858
 31
0.0
  0
LINE
  5
27E4
330
21E0
100
AcDbEntity
  8
1
 62
     7
100
AcDbLine
 10
439.1169617657255
 20
727.6615949842915
 30
0.0
 11
439.1169617657255
 21
728.6615949842858
 31
0.0
  0
LINE
  5
27E5
330
21E0
100
AcDbEntity
  8
0
 62
     7
100
AcDbLine
 10
450.9169617659775
 20
728.6615949842858
 30
0.0
 11
479.4794617675676
 21
728.6615949842858
 31
0.0
  0
LINE
  5
27E6
330
21E0
100
AcDbEntity
  8
0
 62
     7
100
AcDbLine
 10
455.4169617613751
 20
727.6615949842915
 30
0.0
 11
477.516961766027
 21
727.6615949842915
 31
0.0
  0
LINE
  5
27E7
330
21E0
100
AcDbEntity
  8
0
 62
     7
100
AcDbLine
 10
451.4169617657816
 20
728.4115949844142
 30
0.0
 11
454.8794617675262
 21
728.4115949844142
 31
0.0
  0
ARC
  5
27E8
330
21E0
100
AcDbEntity
  8
0
 62
     7
100
AcDbCircle
 10
450.6669617658506
 20
725.9115949841732
 30
0.0
 40
2.761340254420519
100
AcDbArc
 50
84.80557108985179
 51
174.8055710898516
  0
LINE
  5
27E9
330
21E0
100
AcDbEntity
  8
0
 62
     7
100
AcDbLine
 10
448.4169617657366
 20
725.9115949844287
 30
0.0
 11
448.4169617657366
 21
727.41159498442
 31
0.0
  0
LINE
  5
27EA
330
21E0
100
AcDbEntity
  8
0
 62
     7
100
AcDbLine
 10
448.4169617657366
 20
725.9115949844287
 30
0.0
 11
451.4169617657816
 21
728.4115949844142
 31
0.0
  0
LINE
  5
27EB
330
21E0
100
AcDbEntity
  8
0
 62
     7
100
AcDbLine
 10
448.4169617657366
 20
721.6615949843261
 30
0.0
 11
448.4169617657366
 21
725.9115949844287
 31
0.0
  0
LINE
  5
27EC
330
21E0
100
AcDbEntity
  8
0
 62
     7
100
AcDbLine
 10
477.5169617658722
 20
727.6615949842915
 30
0.0
 11
477.5169617658722
 21
728.6615949842858
 31
0.0
  0
LINE
  5
27ED
330
21E0
100
AcDbEntity
  8
0
 62
     7
100
AcDbLine
 10
479.4794617675676
 20
727.6615949842915
 30
0.0
 11
477.5169617658722
 21
727.6615949842915
 31
0.0
  0
LINE
  5
27EE
330
21E0
100
AcDbEntity
  8
0
 62
     7
100
AcDbLine
 10
481.7169617647427
 20
725.1615949843059
 30
0.0
 11
481.7169617647427
 21
728.6615949842858
 31
0.0
  0
LINE
  5
27EF
330
21E0
100
AcDbEntity
  8
0
 62
     7
100
AcDbLine
 10
479.4794617675676
 20
725.1615949843059
 30
0.0
 11
481.7169617647427
 21
725.1615949843059
 31
0.0
  0
LINE
  5
27F0
330
21E0
100
AcDbEntity
  8
0
 62
     7
100
AcDbLine
 10
479.4794617675676
 20
723.6615949843145
 30
0.0
 11
479.4794617675676
 21
728.6615949842858
 31
0.0
  0
LINE
  5
27F1
330
21E0
100
AcDbEntity
  8
0
 62
     7
100
AcDbLine
 10
477.5169617658722
 20
723.6615949843145
 30
0.0
 11
479.4794617675676
 21
723.6615949843145
 31
0.0
  0
LINE
  5
27F2
330
21E0
100
AcDbEntity
  8
0
 62
     7
100
AcDbLine
 10
481.7169617647427
 20
730.1615949842772
 30
0.0
 11
481.7169617647427
 21
728.6615949842858
 31
0.0
  0
LINE
  5
27F3
330
21E0
100
AcDbEntity
  8
0
 62
     7
100
AcDbLine
 10
479.4794617675676
 20
730.1615949842772
 30
0.0
 11
481.7169617647427
 21
730.1615949842772
 31
0.0
  0
LINE
  5
27F4
330
21E0
100
AcDbEntity
  8
0
 62
     7
100
AcDbLine
 10
479.4794617675676
 20
728.6615949842858
 30
0.0
 11
479.4794617675676
 21
730.1615949842772
 31
0.0
  0
CIRCLE
  5
27F5
330
21E0
100
AcDbEntity
  8
1
 62
     7
100
AcDbCircle
 10
254.9825056688565
 20
802.0836068679383
 30
0.0
 40
5.5
  0
LINE
  5
27F6
330
21E0
100
AcDbEntity
  8
1
  6
CENTER
 62
     3
100
AcDbLine
 10
246.5947917071366
 20
798.6093019876876
 30
0.0
 11
264.9546366999127
 21
806.2141987867631
 31
0.0
  0
CIRCLE
  5
27F7
330
21E0
100
AcDbEntity
  8
1
 62
     7
100
AcDbCircle
 10
228.9697755098879
 20
841.0144087265132
 30
0.0
 40
5.500000000000111
  0
LINE
  5
27F8
330
21E0
100
AcDbEntity
  8
1
  6
CENTER
 62
     3
100
AcDbLine
 10
222.5500971727526
 20
834.5947303893781
 30
0.0
 11
236.6021141718058
 21
848.646747388431
 31
0.0
  0
CIRCLE
  5
27F9
330
21E0
100
AcDbEntity
  8
1
 62
     7
100
AcDbCircle
 10
190.038973651313
 20
867.0271388854819
 30
0.0
 40
5.499999999999968
  0
LINE
  5
27FA
330
21E0
100
AcDbEntity
  8
1
  6
CENTER
 62
     3
100
AcDbLine
 10
186.5646687710626
 20
858.6394249237621
 30
0.0
 11
194.1695655701379
 21
876.999269916538
 31
0.0
  0
LINE
  5
27FB
330
21E0
100
AcDbEntity
  8
1
 62
     7
100
AcDbLine
 10
396.5129617675021
 20
855.7255949841273
 30
0.0
 11
426.8689617675038
 21
855.7255949841273
 31
0.0
  0
LINE
  5
27FC
330
21E0
100
AcDbEntity
  8
1
 62
     7
100
AcDbLine
 10
481.6169617675045
 20
854.3215949841274
 30
0.0
 11
396.9169617675033
 21
854.3215949841274
 31
0.0
  0
LINE
  5
27FD
330
21E0
100
AcDbEntity
  8
1
  6
DIVIDE
 62
     7
100
AcDbLine
 10
387.1169617672444
 20
862.161594984127
 30
0.0
 11
417.7653199647941
 21
862.161594984127
 31
0.0
  0
LINE
  5
27FE
330
21E0
100
AcDbEntity
  8
1
 62
     7
100
AcDbLine
 10
390.7129617675022
 20
849.7255949841273
 30
0.0
 11
390.7129617675022
 21
820.9615949841273
 31
0.0
  0
LINE
  5
27FF
330
21E0
100
AcDbEntity
  8
1
 62
     7
100
AcDbLine
 10
392.1169617675021
 20
849.3215949841278
 30
0.0
 11
392.1169617675021
 21
815.1615949841279
 31
0.0
  0
LINE
  5
2800
330
21E0
100
AcDbEntity
  8
1
  6
DIVIDE
 62
     7
100
AcDbLine
 10
387.1169617672444
 20
834.1489864327737
 30
0.0
 11
387.1169617672444
 21
862.161594984127
 31
0.0
  0
LINE
  5
2801
330
21E0
100
AcDbEntity
  8
1
 62
     7
100
AcDbLine
 10
384.1169617675021
 20
815.1615949841279
 30
0.0
 11
384.1169617675021
 21
797.1615949841277
 31
0.0
  0
LINE
  5
2802
330
21E0
100
AcDbEntity
  8
1
 62
     7
100
AcDbLine
 10
392.1169617675021
 20
815.1615949841279
 30
0.0
 11
392.1169617675021
 21
797.1615949841277
 31
0.0
  0
LINE
  5
2803
330
21E0
100
AcDbEntity
  8
1
 62
     7
100
AcDbLine
 10
392.1169617675021
 20
788.6615949841275
 30
0.0
 11
384.1169617675021
 21
788.6615949841275
 31
0.0
  0
LINE
  5
2804
330
21E0
100
AcDbEntity
  8
1
  6
CENTER
 62
     3
100
AcDbLine
 10
382.5169617675025
 20
806.1615949841277
 30
0.0
 11
393.6649107905426
 21
806.1615949841277
 31
0.0
  0
LINE
  5
2805
330
21E0
100
AcDbEntity
  8
1
 62
     7
100
AcDbLine
 10
384.1169617675021
 20
797.1615949841277
 30
0.0
 11
392.1169617675021
 21
797.1615949841277
 31
0.0
  0
LINE
  5
2806
330
21E0
100
AcDbEntity
  8
1
 62
     7
100
AcDbLine
 10
384.6169617675016
 20
820.1615949841274
 30
0.0
 11
389.9129617675022
 21
820.1615949841274
 31
0.0
  0
LINE
  5
2807
330
21E0
100
AcDbEntity
  8
1
 62
     7
100
AcDbLine
 10
384.1169617675021
 20
815.1615949841279
 30
0.0
 11
392.1169617675021
 21
815.1615949841279
 31
0.0
  0
LINE
  5
2808
330
21E0
100
AcDbEntity
  8
1
 62
     7
100
AcDbLine
 10
384.1169617675021
 20
819.6615949841277
 30
0.0
 11
384.1169617675021
 21
815.1615949841279
 31
0.0
  0
LINE
  5
2809
330
21E0
100
AcDbEntity
  8
1
 62
     7
100
AcDbLine
 10
384.6169617675016
 20
820.1615949841274
 30
0.0
 11
384.1169617675021
 21
819.6615949841277
 31
0.0
  0
ARC
  5
280A
330
21E0
100
AcDbEntity
  8
1
 62
     7
100
AcDbCircle
 10
389.9129617675022
 20
820.9615949841273
 30
0.0
 40
0.7999999999999475
100
AcDbArc
 50
270.0
 51
0.0
  0
ARC
  5
280B
330
21E0
100
AcDbEntity
  8
1
 62
     7
100
AcDbCircle
 10
397.0169617675033
 20
849.4215949841278
 30
0.0
 40
4.901020301936672
100
AcDbArc
 50
91.169139327906
 51
181.169139327906
  0
ARC
  5
280C
330
21E0
100
AcDbEntity
  8
1
 62
     7
100
AcDbCircle
 10
396.6129617675022
 20
849.8255949841276
 30
0.0
 40
5.900847396772721
100
AcDbArc
 50
90.97102193107959
 51
180.9710219310795
  0
ARC
  5
280D
330
21E0
100
AcDbEntity
  8
1
 62
     7
100
AcDbCircle
 10
467.3194617675005
 20
840.8105949841273
 30
0.0
 40
9.524999999998565
100
AcDbArc
 50
115.3195057332555
 51
270.0
  0
ARC
  5
280E
330
21E0
100
AcDbEntity
  8
1
 62
     7
100
AcDbCircle
 10
467.3194617675005
 20
840.8105949841273
 30
0.0
 40
9.52500000000067
100
AcDbArc
 50
297.3534506699465
 51
64.6804942667121
  0
LINE
  5
280F
330
21E0
100
AcDbEntity
  8
1
 62
     7
100
AcDbLine
 10
457.5944617675034
 20
833.9955949841275
 30
0.0
 11
457.5944617675034
 21
847.3705949841276
 31
0.0
  0
LINE
  5
2810
330
21E0
100
AcDbEntity
  8
1
 62
     7
100
AcDbLine
 10
454.0944617675005
 20
846.570594984127
 30
0.0
 11
454.0944617675005
 21
840.2555659614057
 31
0.0
  0
LINE
  5
2811
330
21E0
100
AcDbEntity
  8
1
 62
     7
100
AcDbLine
 10
452.8419617675026
 20
833.0887259474749
 30
0.0
 11
452.8419617675026
 21
849.8205949841269
 31
0.0
  0
LINE
  5
2812
330
21E0
100
AcDbEntity
  8
1
 62
     7
100
AcDbLine
 10
447.9169617657379
 20
817.4115949841274
 30
0.0
 11
439.1169617657255
 21
817.4115949841274
 31
0.0
  0
LINE
  5
2813
330
21E0
100
AcDbEntity
  8
1
 62
     7
100
AcDbLine
 10
439.1169617657255
 20
817.4115949841274
 30
0.0
 11
439.1169617657255
 21
783.6615949840965
 31
0.0
  0
LINE
  5
2814
330
21E0
100
AcDbEntity
  8
1
 62
     7
100
AcDbLine
 10
439.1169617657255
 20
783.6615949840965
 30
0.0
 11
436.0169617659492
 21
783.6615949840965
 31
0.0
  0
LINE
  5
2815
330
21E0
100
AcDbEntity
  8
0
 62
     7
100
AcDbLine
 10
447.9169617657379
 20
817.4115949841274
 30
0.0
 11
447.9169617657379
 21
786.1615949840311
 31
0.0
  0
LINE
  5
2816
330
21E0
100
AcDbEntity
  8
0
 62
     7
100
AcDbLine
 10
464.579461767656
 20
827.281594983876
 30
0.0
 11
464.579461767656
 21
784.6615949840652
 31
0.0
  0
LINE
  5
2817
330
21E0
100
AcDbEntity
  8
0
 62
     7
100
AcDbLine
 10
455.4169617647643
 20
784.6615949840652
 30
0.0
 11
455.4169617647643
 21
827.281594983876
 31
0.0
  0
LINE
  5
2818
330
21E0
100
AcDbEntity
  8
0
 62
     7
100
AcDbLine
 10
477.516961766027
 20
827.281594983876
 30
0.0
 11
477.516961766027
 21
784.6615949840652
 31
0.0
  0
LINE
  5
2819
330
21E0
100
AcDbEntity
  8
0
 62
     7
100
AcDbLine
 10
447.9169617657379
 20
817.1615949840814
 30
0.0
 11
447.9169617657379
 21
790.6615949840561
 31
0.0
  0
LINE
  5
281A
330
21E0
100
AcDbEntity
  8
0
 62
     7
100
AcDbLine
 10
464.3794617675096
 20
817.1615949840814
 30
0.0
 11
464.3794617675096
 21
794.4115949840345
 31
0.0
  0
LINE
  5
281B
330
21E0
100
AcDbEntity
  8
0
 62
     7
100
AcDbLine
 10
450.9169617659775
 20
783.6615949839947
 30
0.0
 11
479.4794617675676
 21
783.6615949839947
 31
0.0
  0
LINE
  5
281C
330
21E0
100
AcDbEntity
  8
0
 62
     7
100
AcDbLine
 10
464.579461767656
 20
794.1615949840611
 30
0.0
 11
455.3794617676646
 21
794.1615949840611
 31
0.0
  0
LINE
  5
281D
330
21E0
100
AcDbEntity
  8
0
 62
     7
100
AcDbLine
 10
477.516961766027
 20
784.6615949840652
 30
0.0
 11
455.4169617647643
 21
784.6615949840652
 31
0.0
  0
LINE
  5
281E
330
21E0
100
AcDbEntity
  8
0
 62
     7
100
AcDbLine
 10
464.3794617675096
 20
794.4115949840345
 30
0.0
 11
455.3794617675335
 21
794.4115949840345
 31
0.0
  0
LINE
  5
281F
330
21E0
100
AcDbEntity
  8
0
 62
     7
100
AcDbLine
 10
451.4169617657991
 20
783.9115949839935
 30
0.0
 11
455.4169617646332
 21
783.9115949839935
 31
0.0
  0
ARC
  5
2820
330
21E0
100
AcDbEntity
  8
0
 62
     7
100
AcDbCircle
 10
450.6669617658758
 20
786.4115949841328
 30
0.0
 40
2.761340254443463
100
AcDbArc
 50
185.1944289095727
 51
275.194428909576
  0
LINE
  5
2821
330
21E0
100
AcDbEntity
  8
0
 62
     7
100
AcDbLine
 10
448.4169617657165
 20
786.4115949840043
 30
0.0
 11
451.4169617657991
 21
783.9115949839935
 31
0.0
  0
LINE
  5
2822
330
21E0
100
AcDbEntity
  8
0
 62
     7
100
AcDbLine
 10
448.4169617657366
 20
790.6615949840561
 30
0.0
 11
448.4169617657366
 21
784.9115949839622
 31
0.0
  0
LINE
  5
2823
330
21E0
100
AcDbEntity
  8
0
 62
     7
100
AcDbLine
 10
447.9169617657379
 20
790.6615949840561
 30
0.0
 11
448.4169617657366
 21
790.6615949840561
 31
0.0
  0
LINE
  5
2824
330
21E0
100
AcDbEntity
  8
0
 62
     7
100
AcDbLine
 10
455.3794617675335
 20
794.4115949840345
 30
0.0
 11
454.8794617675262
 21
794.4115949840345
 31
0.0
  0
LINE
  5
2825
330
21E0
100
AcDbEntity
  8
0
 62
     7
100
AcDbLine
 10
454.8794617675262
 20
794.4115949840345
 30
0.0
 11
454.8794617675262
 21
783.9115949839935
 31
0.0
  0
LINE
  5
2826
330
21E0
100
AcDbEntity
  8
0
 62
     7
100
AcDbLine
 10
455.3794617675335
 20
794.4115949840345
 30
0.0
 11
455.4169617646332
 21
783.9115949839935
 31
0.0
  0
LINE
  5
2827
330
21E0
100
AcDbEntity
  8
0
 62
     7
100
AcDbLine
 10
477.5169617658722
 20
783.6615949840965
 30
0.0
 11
477.5169617658722
 21
784.6615949840652
 31
0.0
  0
LINE
  5
2828
330
21E0
100
AcDbEntity
  8
0
 62
     7
100
AcDbLine
 10
481.7169617647427
 20
787.1615949840761
 30
0.0
 11
481.7169617647427
 21
783.6615949839947
 31
0.0
  0
LINE
  5
2829
330
21E0
100
AcDbEntity
  8
0
 62
     7
100
AcDbLine
 10
479.4794617675676
 20
787.1615949840761
 30
0.0
 11
481.7169617647427
 21
787.1615949840761
 31
0.0
  0
LINE
  5
282A
330
21E0
100
AcDbEntity
  8
0
 62
     7
100
AcDbLine
 10
479.4794617675676
 20
784.6615949840652
 30
0.0
 11
477.5169617658722
 21
784.6615949840652
 31
0.0
  0
LINE
  5
282B
330
21E0
100
AcDbEntity
  8
0
 62
     7
100
AcDbLine
 10
479.4794617675676
 20
788.661594984042
 30
0.0
 11
479.4794617675676
 21
783.6615949839947
 31
0.0
  0
LINE
  5
282C
330
21E0
100
AcDbEntity
  8
0
 62
     7
100
AcDbLine
 10
477.5169617658722
 20
788.661594984042
 30
0.0
 11
479.4794617675676
 21
788.661594984042
 31
0.0
  0
LINE
  5
282D
330
21E0
100
AcDbEntity
  8
0
 62
     7
100
AcDbLine
 10
481.7169617647427
 20
782.161594984054
 30
0.0
 11
481.7169617647427
 21
783.6615949839947
 31
0.0
  0
LINE
  5
282E
330
21E0
100
AcDbEntity
  8
0
 62
     7
100
AcDbLine
 10
479.4794617675676
 20
782.161594984054
 30
0.0
 11
481.7169617647427
 21
782.161594984054
 31
0.0
  0
LINE
  5
282F
330
21E0
100
AcDbEntity
  8
0
 62
     7
100
AcDbLine
 10
479.4794617675676
 20
783.6615949839947
 30
0.0
 11
479.4794617675676
 21
782.161594984054
 31
0.0
  0
LINE
  5
2830
330
21E0
100
AcDbEntity
  8
1
 62
     7
100
AcDbLine
 10
476.4794617675036
 20
827.270594984127
 30
0.0
 11
458.1594617675036
 21
827.270594984127
 31
0.0
  0
LINE
  5
2831
330
21E0
100
AcDbEntity
  8
1
 62
     7
100
AcDbLine
 10
458.1594617675036
 20
832.350594984128
 30
0.0
 11
462.94293060687
 21
832.350594984128
 31
0.0
  0
LINE
  5
2832
330
21E0
100
AcDbEntity
  8
0
 62
     7
100
AcDbLine
 10
455.4169617647643
 20
827.281594983876
 30
0.0
 11
477.516961766027
 21
827.281594983876
 31
0.0
  0
LINE
  5
2833
330
21E0
100
AcDbEntity
  8
0
 62
     7
100
AcDbLine
 10
451.8794617675386
 20
817.1615949840814
 30
0.0
 11
464.3794617675096
 21
817.1615949840814
 31
0.0
  0
LINE
  5
2834
330
21E0
100
AcDbEntity
  8
0
 62
     7
100
AcDbLine
 10
451.8794617675386
 20
840.6615949839208
 30
0.0
 11
451.8794617675386
 21
817.1615949840814
 31
0.0
  0
LINE
  5
2835
330
21E0
100
AcDbEntity
  8
0
 62
     7
100
AcDbLine
 10
448.879461767541
 20
817.1615949840814
 30
0.0
 11
448.879461767541
 21
840.6615949839208
 31
0.0
  0
LINE
  5
2836
330
21E0
100
AcDbEntity
  8
0
 62
     7
100
AcDbLine
 10
451.8794617675386
 20
817.1615949840814
 30
0.0
 11
455.3794617675335
 21
817.1615949840814
 31
0.0
  0
LINE
  5
2837
330
21E0
100
AcDbEntity
  8
0
 62
     7
100
AcDbLine
 10
447.9169617657379
 20
817.1615949840814
 30
0.0
 11
448.879461767541
 21
817.1615949840814
 31
0.0
  0
LINE
  5
2838
330
21E0
100
AcDbEntity
  8
0
 62
     7
100
AcDbLine
 10
447.9169617657379
 20
817.1615949840814
 30
0.0
 11
448.879461767541
 21
817.1615949840814
 31
0.0
  0
LINE
  5
2839
330
21E0
100
AcDbEntity
  8
0
 62
     7
100
AcDbLine
 10
448.879461767541
 20
840.6615949839208
 30
0.0
 11
451.8794617675386
 21
840.6615949839208
 31
0.0
  0
ARC
  5
283A
330
21E0
100
AcDbEntity
  8
1
 62
     7
100
AcDbCircle
 10
454.2032049451862
 20
834.7955949841265
 30
0.0
 40
0.800000000002967
100
AcDbArc
 50
172.7172971658607
 51
270.0
  0
LINE
  5
283B
330
21E0
100
AcDbEntity
  8
1
 62
     7
100
AcDbLine
 10
460.6650346696951
 20
833.9955949841275
 30
0.0
 11
457.5944617675034
 21
833.9955949841275
 31
0.0
  0
LINE
  5
283C
330
21E0
100
AcDbEntity
  8
1
 62
     7
100
AcDbLine
 10
454.2032049451862
 20
833.9955949841275
 30
0.0
 11
457.5944617675034
 21
833.9955949841275
 31
0.0
  0
LINE
  5
283D
330
21E0
100
AcDbEntity
  8
1
 62
     7
100
AcDbLine
 10
453.4096587393905
 20
834.8970071099886
 30
0.0
 11
454.0944617675005
 21
840.2555659614057
 31
0.0
  0
LINE
  5
283E
330
21E0
100
AcDbEntity
  8
1
 62
     7
100
AcDbLine
 10
457.1594617675042
 20
828.2705949841274
 30
0.0
 11
457.1594617675042
 21
831.3505949841278
 31
0.0
  0
LINE
  5
283F
330
21E0
100
AcDbEntity
  8
1
 62
     7
100
AcDbLine
 10
458.1594617675036
 20
832.350594984128
 30
0.0
 11
457.1594617675042
 21
831.3505949841278
 31
0.0
  0
LINE
  5
2840
330
21E0
100
AcDbEntity
  8
1
 62
     7
100
AcDbLine
 10
457.1594617675042
 20
828.2705949841274
 30
0.0
 11
458.1594617675036
 21
827.270594984127
 31
0.0
  0
LINE
  5
2841
330
21E0
100
AcDbEntity
  8
1
 62
     7
100
AcDbLine
 10
471.6959929281374
 20
832.350594984128
 30
0.0
 11
476.4794617675036
 21
832.350594984128
 31
0.0
  0
ARC
  5
2842
330
21E0
100
AcDbEntity
  8
1
 62
     7
100
AcDbCircle
 10
467.3194617675005
 20
840.8105949841273
 30
0.0
 40
9.525000000000547
100
AcDbArc
 50
270.0
 51
297.3534506699465
  0
LINE
  5
2843
330
21E0
100
AcDbEntity
  8
1
 62
     7
100
AcDbLine
 10
476.4794617675036
 20
827.270594984127
 30
0.0
 11
477.4794617675026
 21
828.2705949841274
 31
0.0
  0
LINE
  5
2844
330
21E0
100
AcDbEntity
  8
1
 62
     7
100
AcDbLine
 10
477.4794617675026
 20
831.3505949841278
 30
0.0
 11
476.4794617675036
 21
832.350594984128
 31
0.0
  0
LINE
  5
2845
330
21E0
100
AcDbEntity
  8
1
 62
     7
100
AcDbLine
 10
477.4794617675026
 20
831.3505949841278
 30
0.0
 11
477.4794617675026
 21
828.2705949841274
 31
0.0
  0
ARC
  5
2846
330
21E0
100
AcDbEntity
  8
1
 62
     7
100
AcDbCircle
 10
427.607045623201
 20
935.6255949841269
 30
0.0
 40
79.90340898721389
100
AcDbArc
 50
269.4707398368903
 51
284.9023220726305
  0
LINE
  5
2847
330
21E0
100
AcDbEntity
  8
0
 62
     7
100
AcDbLine
 10
442.1169617675022
 20
857.8669658339894
 30
0.0
 11
443.24833261753
 21
856.73559498419
 31
0.0
  0
LINE
  5
2848
330
21E0
100
AcDbEntity
  8
0
 62
     7
100
AcDbLine
 10
447.8169617677739
 20
865.1615949844403
 30
0.0
 11
442.9169617682087
 21
865.1615949844403
 31
0.0
  0
LINE
  5
2849
330
21E0
100
AcDbEntity
  8
0
 62
     7
100
AcDbLine
 10
442.1169617675022
 20
864.3615949841146
 30
0.0
 11
442.1169617675022
 21
857.8669658339894
 31
0.0
  0
LINE
  5
284A
330
21E0
100
AcDbEntity
  8
0
 62
     7
100
AcDbLine
 10
442.9169617682087
 20
865.1615949844403
 30
0.0
 11
442.1169617675022
 21
864.3615949841146
 31
0.0
  0
LINE
  5
284B
330
21E0
100
AcDbEntity
  8
1
 62
     7
100
AcDbLine
 10
462.1354663105429
 20
879.9615949841275
 30
0.0
 11
462.1354663105429
 21
872.3615949841276
 31
0.0
  0
LINE
  5
284C
330
21E0
100
AcDbEntity
  8
0
 62
     7
100
AcDbLine
 10
448.1169617679756
 20
872.3615949841276
 30
0.0
 11
448.1169617679756
 21
879.9615949841275
 31
0.0
  0
LINE
  5
284D
330
21E0
100
AcDbEntity
  8
1
 62
     7
100
AcDbLine
 10
463.1169617679756
 20
881.6615949841274
 30
0.0
 11
463.1169617679756
 21
870.6615949841275
 31
0.0
  0
LINE
  5
284E
330
21E0
100
AcDbEntity
  8
1
 62
     7
100
AcDbLine
 10
453.8419617675017
 20
854.3215949841274
 30
0.0
 11
467.3194617675005
 21
854.3215949841274
 31
0.0
  0
LINE
  5
284F
330
21E0
100
AcDbEntity
  8
1
 62
     7
100
AcDbLine
 10
453.2419617675045
 20
849.4205949841278
 30
0.0
 11
463.2459467006368
 21
849.4205949841278
 31
0.0
  0
LINE
  5
2850
330
21E0
100
AcDbEntity
  8
1
 62
     7
100
AcDbLine
 10
462.1354663105429
 20
872.3615949841276
 30
0.0
 11
463.1169617679756
 21
870.6615949841275
 31
0.0
  0
LINE
  5
2851
330
21E0
100
AcDbEntity
  8
1
 62
     3
100
AcDbLine
 10
448.1169617679756
 20
871.1615949841275
 30
0.0
 11
462.8282866333808
 21
871.1615949841275
 31
0.0
  0
LINE
  5
2852
330
21E0
100
AcDbEntity
  8
1
 62
     7
100
AcDbLine
 10
464.1169617675029
 20
858.6045949841269
 30
0.0
 11
448.1559617675047
 21
858.409684621869
 31
0.0
  0
ARC
  5
2853
330
21E0
100
AcDbEntity
  8
1
 62
     7
100
AcDbCircle
 10
454.8944617675046
 20
846.570594984127
 30
0.0
 40
0.800000000000864
100
AcDbArc
 50
90.0
 51
180.0
  0
LINE
  5
2854
330
21E0
100
AcDbEntity
  8
1
 62
     7
100
AcDbLine
 10
454.8944617675046
 20
847.3705949841276
 30
0.0
 11
457.5944617675034
 21
847.3705949841276
 31
0.0
  0
LINE
  5
2855
330
21E0
100
AcDbEntity
  8
1
 62
     7
100
AcDbLine
 10
457.5944617675034
 20
847.3705949841276
 30
0.0
 11
460.3457913424349
 21
847.2985488836675
 31
0.0
  0
LINE
  5
2856
330
21E0
100
AcDbEntity
  8
1
 62
     7
100
AcDbLine
 10
452.8419617675026
 20
853.7442447149375
 30
0.0
 11
452.8419617675026
 21
849.8205949841269
 31
0.0
  0
LINE
  5
2857
330
21E0
100
AcDbEntity
  8
1
 62
     7
100
AcDbLine
 10
452.8419617675026
 20
849.8205949841269
 30
0.0
 11
453.2419617675045
 21
849.4205949841278
 31
0.0
  0
LINE
  5
2858
330
21E0
100
AcDbEntity
  8
1
 62
     7
100
AcDbLine
 10
452.8419617675026
 20
853.7442447149375
 30
0.0
 11
453.8419617675017
 21
854.3215949841274
 31
0.0
  0
LINE
  5
2859
330
21E0
100
AcDbEntity
  8
1
 62
     7
100
AcDbLine
 10
448.1169617679756
 20
872.3615949841276
 30
0.0
 11
462.1354663105429
 21
872.3615949841276
 31
0.0
  0
ARC
  5
285A
330
21E0
100
AcDbEntity
  8
0
 62
     7
100
AcDbCircle
 10
447.8169617680025
 20
865.4615949844133
 30
0.0
 40
0.2999999999729113
100
AcDbArc
 50
269.9999999563349
 51
359.9999999320808
  0
LINE
  5
285B
330
21E0
100
AcDbEntity
  8
0
 62
     7
100
AcDbLine
 10
448.1169617679756
 20
865.4615949840573
 30
0.0
 11
448.1169617679756
 21
871.1615949841275
 31
0.0
  0
LINE
  5
285C
330
21E0
100
AcDbEntity
  8
0
 62
     7
100
AcDbLine
 10
448.1169617679756
 20
871.1615949841275
 30
0.0
 11
448.1169617679756
 21
872.3615949841276
 31
0.0
  0
LINE
  5
285D
330
21E0
100
AcDbEntity
  8
1
 62
     7
100
AcDbLine
 10
471.3929768343702
 20
849.4205949841278
 30
0.0
 11
481.3969617675028
 21
849.4205949841278
 31
0.0
  0
LINE
  5
285E
330
21E0
100
AcDbEntity
  8
1
 62
     7
100
AcDbLine
 10
467.3194617675005
 20
854.3215949841274
 30
0.0
 11
480.7969617674998
 21
854.3215949841274
 31
0.0
  0
ARC
  5
285F
330
21E0
100
AcDbEntity
  8
1
 62
     7
100
AcDbCircle
 10
467.3194617675005
 20
840.8105949841273
 30
0.0
 40
9.524999999999408
100
AcDbArc
 50
90.0
 51
115.3195057332555
  0
ARC
  5
2860
330
21E0
100
AcDbEntity
  8
1
 62
     7
100
AcDbCircle
 10
467.3194617675005
 20
840.8105949841273
 30
0.0
 40
9.525000000001092
100
AcDbArc
 50
64.6804942667121
 51
90.0
  0
LINE
  5
2861
330
21E0
100
AcDbEntity
  8
1
 62
     7
100
AcDbLine
 10
464.1169617675029
 20
858.6045949841269
 30
0.0
 11
473.7169617675035
 21
858.6045949841269
 31
0.0
  0
LINE
  5
2862
330
21E0
100
AcDbEntity
  8
1
 62
     7
100
AcDbLine
 10
473.7169617675035
 20
858.6045949841269
 30
0.0
 11
481.3606807287341
 21
858.5178760228959
 31
0.0
  0
LINE
  5
2863
330
21E0
100
AcDbEntity
  8
1
 62
     7
100
AcDbLine
 10
463.1169617679756
 20
881.6615949841274
 30
0.0
 11
462.1354663105429
 21
879.9615949841275
 31
0.0
  0
LINE
  5
2864
330
21E0
100
AcDbEntity
  8
1
 62
     3
100
AcDbLine
 10
448.1169617679756
 20
881.1615949841275
 30
0.0
 11
462.8282866333808
 21
881.1615949841275
 31
0.0
  0
LINE
  5
2865
330
21E0
100
AcDbEntity
  8
0
 62
     7
100
AcDbLine
 10
448.1169617679756
 20
881.1615949841275
 30
0.0
 11
448.1169617679756
 21
888.2615949841042
 31
0.0
  0
LINE
  5
2866
330
21E0
100
AcDbEntity
  8
1
 62
     7
100
AcDbLine
 10
462.1354663105429
 20
879.9615949841275
 30
0.0
 11
448.1169617679756
 21
879.9615949841275
 31
0.0
  0
LINE
  5
2867
330
21E0
100
AcDbEntity
  8
0
 62
     7
100
AcDbLine
 10
448.1169617679756
 20
879.9615949841275
 30
0.0
 11
448.1169617679756
 21
881.1615949841275
 31
0.0
  0
LINE
  5
2868
330
21E0
100
AcDbEntity
  8
0
 62
     7
100
AcDbLine
 10
448.516961768075
 20
888.6615949844577
 30
0.0
 11
448.1169617679756
 21
888.2615949841042
 31
0.0
  0
TEXT
  5
2869
330
21E0
100
AcDbEntity
  8
1
 62
     0
100
AcDbText
 10
655.7239851260531
 20
498.1286673528213
 30
0.0
 40
13.0
  1
CSF-80-XXX-2A-GR.dxf
 41
0.9
100
AcDbText
  0
ARC
  5
286A
330
21E0
100
AcDbEntity
  8
0
 62
     7
100
AcDbCircle
 10
800.5894608539442
 20
795.2627706275536
 30
0.0
 40
10.58000000013056
100
AcDbArc
 50
84.28386589529871
 51
162.5916156228214
  0
ARC
  5
286B
330
21E0
100
AcDbEntity
  8
0
 62
     7
100
AcDbCircle
 10
787.2415410250428
 20
814.1748408630952
 30
0.0
 40
10.57999999888977
100
AcDbArc
 50
267.8363843805143
 51
346.1441341071024
  0
ARC
  5
286C
330
21E0
100
AcDbEntity
  8
0
 62
     7
100
AcDbCircle
 10
725.1169621309939
 20
756.1615949827403
 30
0.0
 40
91.20999999976808
100
AcDbArc
 50
314.7040853460237
 51
319.2039146575814
  0
ARC
  5
286D
330
21E0
100
AcDbEntity
  8
0
 62
     7
100
AcDbCircle
 10
794.5571711690193
 20
707.1406059193678
 30
0.0
 40
10.57999999880876
100
AcDbArc
 50
189.5763843797658
 51
267.8841341069053
  0
ARC
  5
286E
330
21E0
100
AcDbEntity
  8
0
 62
     7
100
AcDbCircle
 10
786.9930427092776
 20
813.9427878794654
 30
0.0
 40
9.524999998455372
100
AcDbArc
 50
248.8733308358705
 51
16.37531879710727
  0
ARC
  5
286F
330
21E0
100
AcDbEntity
  8
0
 62
     7
100
AcDbCircle
 10
800.2875708592712
 20
795.1063659243342
 30
0.0
 40
9.524999997104693
100
AcDbArc
 50
54.05268120617972
 51
181.5546691526711
  0
ARC
  5
2870
330
21E0
100
AcDbEntity
  8
0
 62
     7
100
AcDbCircle
 10
794.2794103328298
 20
707.3366898755353
 30
0.0
 40
9.524999998417149
100
AcDbArc
 50
170.6133308339985
 51
298.1153187967461
  0
ARC
  5
2871
330
21E0
100
AcDbEntity
  8
0
 62
     7
100
AcDbCircle
 10
794.2794103328033
 20
707.3366898755534
 30
0.0
 40
9.524999997262098
100
AcDbArc
 50
351.4446812048086
 51
118.9466691510254
  0
ARC
  5
2872
330
21E0
100
AcDbEntity
  8
0
 62
     7
100
AcDbCircle
 10
725.1169621322894
 20
756.1615949841275
 30
0.0
 40
98.17099999995505
100
AcDbArc
 50
0.0
 51
111.8220822383586
  0
ARC
  5
2873
330
21E0
100
AcDbEntity
  8
0
 62
     7
100
AcDbCircle
 10
725.1169621322894
 20
756.1615949841275
 30
0.0
 40
98.170999999955
100
AcDbArc
 50
248.1779177616413
 51
0.0
  0
ARC
  5
2874
330
21E0
100
AcDbEntity
  8
0
 62
     7
100
AcDbCircle
 10
725.1169621322894
 20
756.1615949841275
 30
0.0
 40
93.2699999997987
100
AcDbArc
 50
0.0
 51
113.0328288644033
  0
ARC
  5
2875
330
21E0
100
AcDbEntity
  8
0
 62
     7
100
AcDbCircle
 10
725.1169621322894
 20
756.1615949841275
 30
0.0
 40
93.2699999997988
100
AcDbArc
 50
246.9671711355966
 51
0.0
  0
ARC
  5
2876
330
21E0
100
AcDbEntity
  8
0
 62
     7
100
AcDbCircle
 10
725.1169621322894
 20
756.1615949841275
 30
0.0
 40
76.2000000000443
100
AcDbArc
 50
0.0
 51
118.6140114242018
  0
ARC
  5
2877
330
21E0
100
AcDbEntity
  8
0
 62
     7
100
AcDbCircle
 10
725.1169621322894
 20
756.1615949841275
 30
0.0
 40
76.2000000000443
100
AcDbArc
 50
241.3859885757981
 51
0.0
  0
ARC
  5
2878
330
21E0
100
AcDbEntity
  8
0
 62
     7
100
AcDbCircle
 10
725.1169621322894
 20
756.1615949841275
 30
0.0
 40
71.11999999992621
100
AcDbArc
 50
0.0
 51
120.8714859981033
  0
ARC
  5
2879
330
21E0
100
AcDbEntity
  8
0
 62
     7
100
AcDbCircle
 10
725.1169621322894
 20
756.1615949841275
 30
0.0
 40
71.11999999992615
100
AcDbArc
 50
239.1285140018929
 51
0.0
  0
ARC
  5
287A
330
21E0
100
AcDbEntity
  8
1
  6
CENTER
 62
     3
100
AcDbCircle
 10
725.1169621322894
 20
756.1615949841275
 30
0.0
 40
119.9999999999999
100
AcDbArc
 50
252.2956336613334
 51
0.0
  0
ARC
  5
287B
330
21E0
100
AcDbEntity
  8
1
  6
CENTER
 62
     3
100
AcDbCircle
 10
725.1169621322894
 20
756.1615949841275
 30
0.0
 40
120.0000000000003
100
AcDbArc
 50
0.0
 51
107.7043663386665
  0
ARC
  5
287C
330
21E0
100
AcDbEntity
  8
1
 62
     7
100
AcDbCircle
 10
725.1169621322894
 20
756.1615949841275
 30
0.0
 40
132.4999999999995
100
AcDbArc
 50
254.0131668241027
 51
0.0
  0
ARC
  5
287D
330
21E0
100
AcDbEntity
  8
1
 62
     7
100
AcDbCircle
 10
725.1169621322894
 20
756.1615949841275
 30
0.0
 40
132.5000000000003
100
AcDbArc
 50
0.0
 51
105.9868331758972
  0
ARC
  5
287E
330
21E0
100
AcDbEntity
  8
1
 62
     7
100
AcDbCircle
 10
725.1169617634811
 20
756.1615950930175
 30
0.0
 40
102.4429998911094
100
AcDbArc
 50
249.131506716622
 51
90.0
  0
ARC
  5
287F
330
21E0
100
AcDbEntity
  8
1
 62
     7
100
AcDbCircle
 10
725.1169617634811
 20
756.1615950930175
 30
0.0
 40
100.5739998908945
100
AcDbArc
 50
248.7250372439695
 51
90.0
  0
LINE
  5
2880
330
21E0
100
AcDbEntity
  8
1
  6
CENTER
 62
     3
100
AcDbLine
 10
577.3395343285346
 20
756.1615950930175
 30
0.0
 11
874.6334128492096
 21
756.1615950930175
 31
0.0
  0
CIRCLE
  5
2881
330
21E0
100
AcDbEntity
  8
1
 62
     7
100
AcDbCircle
 10
725.1169621322894
 20
756.1615949841275
 30
0.0
 40
27.49999999958743
  0
ARC
  5
2882
330
21E0
100
AcDbEntity
  8
0
 62
     7
100
AcDbCircle
 10
725.1169621322925
 20
757.7657616508371
 30
0.0
 40
30.38749999968701
100
AcDbArc
 50
90.0000000000065
 51
250.730361122028
  0
ARC
  5
2883
330
21E0
100
AcDbEntity
  8
0
 62
     7
100
AcDbCircle
 10
725.1169621322863
 20
757.7657616508371
 30
0.0
 40
30.38749999968701
100
AcDbArc
 50
289.2696388779719
 51
89.99999999999349
  0
ARC
  5
2884
330
21E0
100
AcDbEntity
  8
0
 62
     7
100
AcDbCircle
 10
725.1169613946824
 20
756.1615949841525
 30
0.0
 40
77.85000000008759
100
AcDbArc
 50
158.1067979993468
 51
162.7692019980518
  0
ARC
  5
2885
330
21E0
100
AcDbEntity
  8
0
 62
     7
100
AcDbCircle
 10
641.8938691976823
 20
773.4508091117795
 30
0.0
 40
10.58000000003565
100
AcDbArc
 50
33.06038437651406
 51
111.3681341044034
  0
ARC
  5
2886
330
21E0
100
AcDbEntity
  8
0
 62
     7
100
AcDbCircle
 10
642.2267615667615
 20
773.381652255791
 30
0.0
 40
9.524999997119023
100
AcDbArc
 50
14.09733084710311
 51
141.5993187931781
  0
ARC
  5
2887
330
21E0
100
AcDbEntity
  8
1
 62
     7
100
AcDbCircle
 10
725.1169621322894
 20
756.1615949841275
 30
0.0
 40
98.170999999955
100
AcDbArc
 50
111.8220822383586
 51
248.1779177616413
  0
ARC
  5
2888
330
21E0
100
AcDbEntity
  8
1
 62
     7
100
AcDbCircle
 10
725.1169621322894
 20
756.1615949841275
 30
0.0
 40
93.26999999979872
100
AcDbArc
 50
113.0328288644033
 51
246.9671711355966
  0
ARC
  5
2889
330
21E0
100
AcDbEntity
  8
1
 62
     7
100
AcDbCircle
 10
725.1169621322894
 20
756.1615949841275
 30
0.0
 40
76.20000000004427
100
AcDbArc
 50
118.6140114242018
 51
241.3859885757981
  0
ARC
  5
288A
330
21E0
100
AcDbEntity
  8
1
 62
     7
100
AcDbCircle
 10
725.1169621322894
 20
756.1615949841275
 30
0.0
 40
71.11999999992609
100
AcDbArc
 50
120.8714859981033
 51
239.1285140018929
  0
ARC
  5
288B
330
21E0
100
AcDbEntity
  8
1
 62
     7
100
AcDbCircle
 10
725.1169617634811
 20
756.1615950930175
 30
0.0
 40
32.49999999920844
100
AcDbArc
 50
73.53636733489612
 51
253.5363673348931
  0
ARC
  5
288C
330
21E0
100
AcDbEntity
  8
1
 62
     7
100
AcDbCircle
 10
725.1169621322899
 20
756.1615949841323
 30
0.0
 40
32.50000000178142
100
AcDbArc
 50
285.2452776740991
 51
73.53636801235618
  0
ARC
  5
288D
330
21E0
100
AcDbEntity
  8
1
 62
     7
100
AcDbCircle
 10
725.1169621322894
 20
756.1615949841275
 30
0.0
 40
132.4999999999995
100
AcDbArc
 50
105.9868331758972
 51
254.0131668241027
  0
ARC
  5
288E
330
21E0
100
AcDbEntity
  8
1
 62
     7
100
AcDbCircle
 10
725.1169617634811
 20
756.1615950930175
 30
0.0
 40
102.4429998911094
100
AcDbArc
 50
110.8684932833752
 51
249.131506716622
  0
ARC
  5
288F
330
21E0
100
AcDbEntity
  8
1
 62
     7
100
AcDbCircle
 10
725.1169617634811
 20
756.1615950930175
 30
0.0
 40
100.5739998908945
100
AcDbArc
 50
111.2749627560304
 51
248.7250372439695
  0
ARC
  5
2890
330
21E0
100
AcDbEntity
  8
1
  6
CENTER
 62
     3
100
AcDbCircle
 10
725.1169621322894
 20
756.1615949841275
 30
0.0
 40
119.9999999999999
100
AcDbArc
 50
107.7043663386665
 51
252.2956336613334
  0
LINE
  5
2891
330
21E0
100
AcDbEntity
  8
1
  6
CENTER
 62
     3
100
AcDbLine
 10
725.1169617634811
 20
611.4461427079683
 30
0.0
 11
725.1169617634811
 21
902.6706953355651
 31
0.0
  0
LINE
  5
2892
330
21E0
100
AcDbEntity
  8
0
 62
     7
100
AcDbLine
 10
485.1169617634814
 20
783.1615949840229
 30
0.0
 11
485.1169617634814
 21
756.1615949841275
 31
0.0
  0
CIRCLE
  5
2893
330
21E0
100
AcDbEntity
  8
1
 62
     7
100
AcDbCircle
 10
640.2641478096256
 20
671.3087811391618
 30
0.0
 40
5.500000000000079
  0
ARC
  5
2894
330
21E0
100
AcDbEntity
  8
0
 62
     7
100
AcDbCircle
 10
640.3154154434713
 20
750.3566139947844
 30
0.0
 40
10.57999999886334
100
AcDbArc
 50
240.8118658924204
 51
319.1196156200071
  0
ARC
  5
2895
330
21E0
100
AcDbEntity
  8
0
 62
     7
100
AcDbCircle
 10
645.0261655192491
 20
727.6929382543402
 30
0.0
 40
10.57999999971042
100
AcDbArc
 50
64.36438437684152
 51
142.6721341059172
  0
ARC
  5
2896
330
21E0
100
AcDbEntity
  8
0
 62
     7
100
AcDbCircle
 10
725.1169613946347
 20
756.161594984315
 30
0.0
 40
91.20999999981657
100
AcDbArc
 50
189.4920853432381
 51
193.9919146546309
  0
ARC
  5
2897
330
21E0
100
AcDbEntity
  8
0
 62
     7
100
AcDbCircle
 10
641.8938691980432
 20
773.4508091123346
 30
0.0
 40
10.57999999892063
100
AcDbArc
 50
225.1598658918885
 51
303.4676156191689
  0
ARC
  5
2898
330
21E0
100
AcDbEntity
  8
0
 62
     7
100
AcDbCircle
 10
640.3154154438439
 20
750.3566139954946
 30
0.0
 40
10.57999999986082
100
AcDbArc
 50
48.71238437715965
 51
127.0201341046093
  0
ARC
  5
2899
330
21E0
100
AcDbEntity
  8
0
 62
     7
100
AcDbCircle
 10
645.3465287029358
 20
727.8068128805309
 30
0.0
 40
9.524999997234328
100
AcDbArc
 50
45.40133084762476
 51
172.9033187926947
  0
ARC
  5
289A
330
21E0
100
AcDbEntity
  8
0
 62
     7
100
AcDbCircle
 10
640.6546216273934
 20
750.3798339187274
 30
0.0
 40
9.524999997089235
100
AcDbArc
 50
29.74933084657444
 51
157.2513187936984
  0
ARC
  5
289B
330
21E0
100
AcDbEntity
  8
0
 62
     7
100
AcDbCircle
 10
640.6546216273857
 20
750.3798339187271
 30
0.0
 40
9.524999998460103
100
AcDbArc
 50
210.5806812028665
 51
338.0826691652934
  0
ARC
  5
289C
330
21E0
100
AcDbEntity
  8
0
 62
     7
100
AcDbCircle
 10
642.2267615667672
 20
773.3816522557897
 30
0.0
 40
9.524999998667842
100
AcDbArc
 50
194.9286812026283
 51
322.43066916588
  0
LINE
  5
289D
330
21E0
100
AcDbEntity
  8
1
  6
CENTER
 62
     3
100
AcDbLine
 10
632.9220175937358
 20
663.9666509232718
 30
0.0
 11
648.6686561804557
 21
679.7132895099919
 31
0.0
  0
LINE
  5
289E
330
21E0
100
AcDbEntity
  8
1
 62
     7
100
AcDbLine
 10
484.1169617675022
 20
656.7687017653138
 30
0.0
 11
484.1169617675022
 21
657.3960932525626
 31
0.0
  0
LINE
  5
289F
330
21E0
100
AcDbEntity
  8
1
  6
DIVIDE
 62
     7
100
AcDbLine
 10
487.1169617672214
 20
650.1615949841274
 30
0.0
 11
487.1169617672214
 21
678.1742035354811
 31
0.0
  0
LINE
  5
28A0
330
21E0
100
AcDbEntity
  8
0
 62
     7
100
AcDbLine
 10
484.1169617675022
 20
630.6615949841276
 30
0.0
 11
484.1169617673596
 21
624.0615949842271
 31
0.0
  0
LINE
  5
28A1
330
21E0
100
AcDbEntity
  8
0
 62
     7
100
AcDbLine
 10
484.1169617673596
 20
624.0615949842271
 30
0.0
 11
483.7169617673607
 21
623.6615949846358
 31
0.0
  0
LINE
  5
28A2
330
21E0
100
AcDbEntity
  8
0
 62
     7
100
AcDbLine
 10
484.1169617676378
 20
650.1615949841274
 30
0.0
 11
484.1169617675022
 21
641.6615949841276
 31
0.0
  0
LINE
  5
28A3
330
21E0
100
AcDbEntity
  8
0
 62
     7
100
AcDbLine
 10
484.1169617675022
 20
641.6615949841276
 30
0.0
 11
484.1169617675022
 21
630.6615949841276
 31
0.0
  0
ARC
  5
28A4
330
21E0
100
AcDbEntity
  8
1
 62
     7
100
AcDbCircle
 10
483.6169617675026
 20
656.7687017653138
 30
0.0
 40
0.500000000001848
100
AcDbArc
 50
315.0000000002392
 51
0.0
  0
LINE
  5
28A5
330
21E0
100
AcDbEntity
  8
0
 62
     7
100
AcDbLine
 10
482.9855909178487
 20
655.5875949841277
 30
0.0
 11
484.1169617677066
 21
654.4562241338455
 31
0.0
  0
LINE
  5
28A6
330
21E0
100
AcDbEntity
  8
0
 62
     7
100
AcDbLine
 10
484.1169617677066
 20
654.4562241338455
 30
0.0
 11
484.1169617676378
 21
650.1615949841274
 31
0.0
  0
LINE
  5
28A7
330
21E0
100
AcDbEntity
  8
1
  6
DIVIDE
 62
     7
100
AcDbLine
 10
484.1169617676378
 20
650.1615949841274
 30
0.0
 11
487.1169617672214
 21
650.1615949841274
 31
0.0
  0
LINE
  5
28A8
330
21E0
100
AcDbEntity
  8
1
 62
     7
100
AcDbLine
 10
481.7969617675047
 20
679.2124640207799
 30
0.0
 11
481.7969617675047
 21
662.480594984127
 31
0.0
  0
LINE
  5
28A9
330
21E0
100
AcDbEntity
  8
1
 62
     7
100
AcDbLine
 10
484.1169617675022
 20
685.0305949841274
 30
0.0
 11
484.1169617675022
 21
657.3960932525626
 31
0.0
  0
ARC
  5
28AA
330
21E0
100
AcDbEntity
  8
1
 62
     7
100
AcDbCircle
 10
483.6169617675026
 20
657.3960932525626
 30
0.0
 40
0.4999999999995381
100
AcDbArc
 50
0.0
 51
87.00000000015085
  0
LINE
  5
28AB
330
21E0
100
AcDbEntity
  8
1
 62
     7
100
AcDbLine
 10
481.7969617675047
 20
658.5569452533169
 30
0.0
 11
481.7969617675047
 21
662.480594984127
 31
0.0
  0
LINE
  5
28AC
330
21E0
100
AcDbEntity
  8
1
 62
     7
100
AcDbLine
 10
485.1169617634814
 20
756.1615949841275
 30
0.0
 11
485.1169617634814
 21
729.1615949842829
 31
0.0
  0
LINE
  5
28AD
330
21E0
100
AcDbEntity
  8
0
 62
     7
100
AcDbLine
 10
484.6169617635045
 20
728.6615949842858
 30
0.0
 11
485.1169617634814
 21
729.1615949842829
 31
0.0
  0
CIRCLE
  5
28AE
330
21E0
100
AcDbEntity
  8
1
 62
     7
100
AcDbCircle
 10
614.2514175858289
 20
710.2395830947598
 30
0.0
 40
5.499999999999978
  0
LINE
  5
28AF
330
21E0
100
AcDbEntity
  8
1
  6
CENTER
 62
     3
100
AcDbLine
 10
604.658462162447
 20
706.2660508551545
 30
0.0
 11
625.2324369611486
 21
714.7880702486992
 31
0.0
  0
CIRCLE
  5
28B0
330
21E0
100
AcDbEntity
  8
1
 62
     7
100
AcDbCircle
 10
605.1169614644179
 20
756.1615950930172
 30
0.0
 40
5.499999999999943
  0
ARC
  5
28B1
330
21E0
100
AcDbEntity
  8
0
 62
     7
100
AcDbCircle
 10
725.1169613946931
 20
756.1615949844151
 30
0.0
 40
91.20999999957657
100
AcDbArc
 50
173.8400853430407
 51
178.3399146543536
  0
CIRCLE
  5
28B2
330
21E0
100
AcDbEntity
  8
1
 62
     7
100
AcDbCircle
 10
679.1949497652238
 20
645.2960509153645
 30
0.0
 40
5.500000000000094
  0
LINE
  5
28B3
330
21E0
100
AcDbEntity
  8
1
  6
CENTER
 62
     3
100
AcDbLine
 10
675.2214175256186
 20
635.7030954919828
 30
0.0
 11
683.7434369191637
 21
656.2770702906846
 31
0.0
  0
CIRCLE
  5
28B4
330
21E0
100
AcDbEntity
  8
1
 62
     7
100
AcDbCircle
 10
748.5278003705448
 20
638.4673616199437
 30
0.0
 40
6.0
  0
CIRCLE
  5
28B5
330
21E0
100
AcDbEntity
  8
1
 62
     3
100
AcDbCircle
 10
748.5278003705448
 20
638.4673616199437
 30
0.0
 40
4.800000000000012
  0
CIRCLE
  5
28B6
330
21E0
100
AcDbEntity
  8
1
 62
     7
100
AcDbCircle
 10
725.116961763481
 20
636.1615947939542
 30
0.0
 40
5.499999999999936
  0
CIRCLE
  5
28B7
330
21E0
100
AcDbEntity
  8
1
 62
     7
100
AcDbCircle
 10
748.5278003705448
 20
638.4673616199437
 30
0.0
 40
3.60000000000008
  0
LINE
  5
28B8
330
21E0
100
AcDbEntity
  8
1
  6
CENTER
 62
     3
100
AcDbLine
 10
746.2090018210703
 20
650.1247491419974
 30
0.0
 11
750.5534896329398
 21
628.2835339923293
 31
0.0
  0
CIRCLE
  5
28B9
330
21E0
100
AcDbEntity
  8
1
 62
     7
100
AcDbCircle
 10
771.0389737617388
 20
645.2960509153645
 30
0.0
 40
5.500000000000094
  0
LINE
  5
28BA
330
21E0
100
AcDbEntity
  8
1
  6
CENTER
 62
     3
100
AcDbLine
 10
766.4904866077989
 20
656.2770702906846
 30
0.0
 11
775.012506001344
 21
635.7030954919828
 31
0.0
  0
ARC
  5
28BB
330
21E0
100
AcDbEntity
  8
1
 62
     7
100
AcDbCircle
 10
725.1169621320355
 20
756.1615949841275
 30
0.0
 40
13.99999999933694
100
AcDbArc
 50
106.6015495986461
 51
270.0000000010389
  0
ARC
  5
28BC
330
21E0
100
AcDbEntity
  8
0
 62
     7
100
AcDbCircle
 10
645.0261655192498
 20
727.6929382535733
 30
0.0
 40
10.57999999874829
100
AcDbArc
 50
256.4638658939292
 51
334.7716156209848
  0
ARC
  5
28BD
330
21E0
100
AcDbEntity
  8
0
 62
     7
100
AcDbCircle
 10
725.1169613949492
 20
756.1615949835958
 30
0.0
 40
77.84999999995374
100
AcDbArc
 50
205.0627979987484
 51
209.7252019976177
  0
ARC
  5
28BE
330
21E0
100
AcDbEntity
  8
0
 62
     7
100
AcDbCircle
 10
655.6767523575379
 20
707.1406059199926
 30
0.0
 40
10.57999999995396
100
AcDbArc
 50
80.01638437714245
 51
158.3241341048611
  0
ARC
  5
28BF
330
21E0
100
AcDbEntity
  8
0
 62
     7
100
AcDbCircle
 10
655.9545131941592
 20
707.3366898755534
 30
0.0
 40
9.524999997262176
100
AcDbArc
 50
61.05333084897452
 51
188.5553187951913
  0
ARC
  5
28C0
330
21E0
100
AcDbEntity
  8
0
 62
     7
100
AcDbCircle
 10
645.3465287030417
 20
727.8068128805687
 30
0.0
 40
9.524999998401851
100
AcDbArc
 50
226.2326812017693
 51
353.7346691653163
  0
ARC
  5
28C1
330
21E0
100
AcDbEntity
  8
0
 62
     7
100
AcDbCircle
 10
671.4772880998623
 20
690.2238557995824
 30
0.0
 40
10.57999999882411
100
AcDbArc
 50
287.7678658932258
 51
6.075615618647265
  0
ARC
  5
28C2
330
21E0
100
AcDbEntity
  8
0
 62
     7
100
AcDbCircle
 10
725.1169613936583
 20
756.1615949847446
 30
0.0
 40
91.20999999969333
100
AcDbArc
 50
236.4480853443152
 51
240.9479146557838
  0
ARC
  5
28C3
330
21E0
100
AcDbEntity
  8
0
 62
     7
100
AcDbCircle
 10
671.6918467930695
 20
690.4876067562256
 30
0.0
 40
9.524999998526807
100
AcDbArc
 50
257.5366812029573
 51
25.0386691656995
  0
ARC
  5
28C4
330
21E0
100
AcDbEntity
  8
0
 62
     7
100
AcDbCircle
 10
671.6918467930128
 20
690.4876067561547
 30
0.0
 40
9.524999997099838
100
AcDbArc
 50
76.70533084802858
 51
204.2073187930775
  0
ARC
  5
28C5
330
21E0
100
AcDbEntity
  8
0
 62
     7
100
AcDbCircle
 10
655.9545131941328
 20
707.3366898755353
 30
0.0
 40
9.52499999841717
100
AcDbArc
 50
241.8846812032537
 51
9.386669166001425
  0
ARC
  5
28C6
330
21E0
100
AcDbEntity
  8
0
 62
     7
100
AcDbCircle
 10
725.1169613949998
 20
756.1615949834979
 30
0.0
 40
91.2099999996562
100
AcDbArc
 50
205.1440853428214
 51
209.6439146543144
  0
ARC
  5
28C7
330
21E0
100
AcDbEntity
  8
0
 62
     7
100
AcDbCircle
 10
655.6767523579438
 20
707.1406059193678
 30
0.0
 40
10.57999999880878
100
AcDbArc
 50
272.1158658930946
 51
350.423615620234
  0
ARC
  5
28C8
330
21E0
100
AcDbEntity
  8
0
 62
     7
100
AcDbCircle
 10
725.1169613950849
 20
756.1615949836873
 30
0.0
 40
77.84999999979402
100
AcDbArc
 50
220.7147979992612
 51
225.377201998013
  0
ARC
  5
28C9
330
21E0
100
AcDbEntity
  8
0
 62
     7
100
AcDbCircle
 10
671.4772880998673
 20
690.2238557995699
 30
0.0
 40
10.57999999992964
100
AcDbArc
 50
95.66838437651041
 51
173.9761341062527
  0
ARC
  5
28CA
330
21E0
100
AcDbEntity
  8
0
 62
     7
100
AcDbCircle
 10
725.1169613959689
 20
756.1615949827403
 30
0.0
 40
91.20999999976808
100
AcDbArc
 50
220.7960853424186
 51
225.2959146539762
  0
ARC
  5
28CB
330
21E0
100
AcDbEntity
  8
0
 62
     7
100
AcDbCircle
 10
725.1169613928523
 20
756.1615949852351
 30
0.0
 40
77.84999999998206
100
AcDbArc
 50
236.3667980011391
 51
241.0292019997049
  0
ARC
  5
28CC
330
21E0
100
AcDbEntity
  8
0
 62
     7
100
AcDbCircle
 10
691.2559451710012
 20
678.1972981536155
 30
0.0
 40
10.57999999988076
100
AcDbArc
 50
111.3203843766522
 51
189.6281341056336
  0
ARC
  5
28CD
330
21E0
100
AcDbEntity
  8
0
 62
     7
100
AcDbCircle
 10
691.3913892360959
 20
678.5091553409363
 30
0.0
 40
9.524999997043488
100
AcDbArc
 50
92.35733084787696
 51
219.8593187935648
  0
ARC
  5
28CE
330
21E0
100
AcDbEntity
  8
0
 62
     7
100
AcDbCircle
 10
691.3859688957577
 20
678.511510018141
 30
0.0
 40
9.524999998581648
100
AcDbArc
 50
92.3533308351611
 51
106.8544104823523
  0
ARC
  5
28CF
330
21E0
100
AcDbEntity
  8
0
 62
     7
100
AcDbCircle
 10
691.3859688957543
 20
678.511510018137
 30
0.0
 40
9.524999996983334
100
AcDbArc
 50
273.1846812045993
 51
40.68666915295592
  0
ARC
  5
28D0
330
21E0
100
AcDbEntity
  8
0
 62
     7
100
AcDbCircle
 10
691.2505030599658
 20
678.1996622871531
 30
0.0
 40
10.57999999989447
100
AcDbArc
 50
303.4158658951426
 51
21.72361562405902
  0
ARC
  5
28D1
330
21E0
100
AcDbEntity
  8
0
 62
     7
100
AcDbCircle
 10
713.539985343754
 20
671.9536760666507
 30
0.0
 40
10.57999999879241
100
AcDbArc
 50
126.9683843801638
 51
205.2761341063745
  0
ARC
  5
28D2
330
21E0
100
AcDbEntity
  8
0
 62
     7
100
AcDbCircle
 10
713.5862932509178
 20
672.2905077424399
 30
0.0
 40
9.524999998644016
100
AcDbArc
 50
108.0053308340853
 51
235.5073187964888
  0
ARC
  5
28D3
330
21E0
100
AcDbEntity
  8
0
 62
     7
100
AcDbCircle
 10
725.1169621353563
 20
756.161594983268
 30
0.0
 40
91.20999999974319
100
AcDbArc
 50
252.096085343124
 51
256.5959146543772
  0
ARC
  5
28D4
330
21E0
100
AcDbEntity
  8
0
 62
     7
100
AcDbCircle
 10
725.1169621328122
 20
756.1615949839807
 30
0.0
 40
77.84999999983655
100
AcDbArc
 50
252.0147980012442
 51
256.6772020000223
  0
ARC
  5
28D5
330
21E0
100
AcDbEntity
  8
0
 62
     7
100
AcDbCircle
 10
725.1169613946903
 20
756.1615949840461
 30
0.0
 40
77.84999999995841
100
AcDbArc
 50
189.4107979990007
 51
194.0732019977147
  0
ARC
  5
28D6
330
21E0
100
AcDbEntity
  8
0
 62
     7
100
AcDbCircle
 10
725.1169613946763
 20
756.1615949841672
 30
0.0
 40
77.84999999977552
100
AcDbArc
 50
173.7587979987823
 51
178.4212019974678
  0
ARC
  5
28D7
330
21E0
100
AcDbEntity
  8
0
 62
     7
100
AcDbCircle
 10
725.1169621321325
 20
756.1615949840836
 30
0.0
 40
91.20999999959563
100
AcDbArc
 50
283.4000853453306
 51
287.8999146567301
  0
ARC
  5
28D8
330
21E0
100
AcDbEntity
  8
0
 62
     7
100
AcDbCircle
 10
758.9779783558093
 20
678.1972981537032
 30
0.0
 40
10.57999999872247
100
AcDbArc
 50
158.2723843806073
 51
236.5801341073375
  0
ARC
  5
28D9
330
21E0
100
AcDbEntity
  8
0
 62
     7
100
AcDbCircle
 10
758.8425342908431
 20
678.5091553409891
 30
0.0
 40
9.524999998564156
100
AcDbArc
 50
139.3093308333638
 51
266.8113187967019
  0
ARC
  5
28DA
330
21E0
100
AcDbEntity
  8
0
 62
     7
100
AcDbCircle
 10
736.6417756818988
 20
672.2897029546786
 30
0.0
 40
9.524999998711662
100
AcDbArc
 50
123.6573308334526
 51
251.1593187962656
  0
ARC
  5
28DB
330
21E0
100
AcDbEntity
  8
0
 62
     7
100
AcDbCircle
 10
713.539985343815
 20
671.9536760669353
 30
0.0
 40
10.57999999991161
100
AcDbArc
 50
319.0678658937432
 51
37.37561562198851
  0
ARC
  5
28DC
330
21E0
100
AcDbEntity
  8
0
 62
     7
100
AcDbCircle
 10
736.6880600736512
 20
671.9528680469822
 30
0.0
 40
10.57999999880252
100
AcDbArc
 50
142.6203843795965
 51
220.9281341069598
  0
ARC
  5
28DD
330
21E0
100
AcDbEntity
  8
0
 62
     7
100
AcDbCircle
 10
713.5862932508985
 20
672.2905077423085
 30
0.0
 40
9.524999997127514
100
AcDbArc
 50
288.8366812057966
 51
56.33866915248403
  0
ARC
  5
28DE
330
21E0
100
AcDbEntity
  8
0
 62
     7
100
AcDbCircle
 10
725.1169621312842
 20
756.1615949841275
 30
0.0
 40
91.20999999973159
100
AcDbArc
 50
267.7480853455495
 51
272.2479146568991
  0
ARC
  5
28DF
330
21E0
100
AcDbEntity
  8
0
 62
     7
100
AcDbCircle
 10
725.1169621318775
 20
756.1615949841275
 30
0.0
 40
77.84999999966498
100
AcDbArc
 50
267.6667980019197
 51
272.3292020006551
  0
ARC
  5
28E0
330
21E0
100
AcDbEntity
  8
0
 62
     7
100
AcDbCircle
 10
736.6880600743557
 20
671.9528680469288
 30
0.0
 40
10.57999999994793
100
AcDbArc
 50
334.7198658955353
 51
53.02761562275629
  0
ARC
  5
28E1
330
21E0
100
AcDbEntity
  8
0
 62
     7
100
AcDbCircle
 10
736.6417756818906
 20
672.2897029547393
 30
0.0
 40
9.524999997147855
100
AcDbArc
 50
304.4886812056326
 51
71.99066915246475
  0
ARC
  5
28E2
330
21E0
100
AcDbEntity
  8
0
 62
     7
100
AcDbCircle
 10
725.1169621320325
 20
756.1615949840556
 30
0.0
 40
77.84999999984806
100
AcDbArc
 50
283.3187980021681
 51
287.9812020008811
  0
ARC
  5
28E3
330
21E0
100
AcDbEntity
  8
0
 62
     7
100
AcDbCircle
 10
758.9779783559618
 20
678.1972981536155
 30
0.0
 40
10.5799999998808
100
AcDbArc
 50
350.3718658943662
 51
68.6796156233478
  0
ARC
  5
28E4
330
21E0
100
AcDbEntity
  8
0
 62
     7
100
AcDbCircle
 10
725.1169621341108
 20
756.1615949852351
 30
0.0
 40
77.84999999998206
100
AcDbArc
 50
298.9707980002949
 51
303.6332019988609
  0
ARC
  5
28E5
330
21E0
100
AcDbEntity
  8
0
 62
     7
100
AcDbCircle
 10
778.7566354271008
 20
690.2238557995824
 30
0.0
 40
10.5799999988241
100
AcDbArc
 50
173.9243843813527
 51
252.2321341067741
  0
ARC
  5
28E6
330
21E0
100
AcDbEntity
  8
0
 62
     7
100
AcDbCircle
 10
778.5420767338933
 20
690.4876067562256
 30
0.0
 40
9.524999998526755
100
AcDbArc
 50
154.9613308343005
 51
282.4633187970426
  0
ARC
  5
28E7
330
21E0
100
AcDbEntity
  8
0
 62
     7
100
AcDbCircle
 10
778.5420767339501
 20
690.4876067561547
 30
0.0
 40
9.524999997099495
100
AcDbArc
 50
335.7926812069257
 51
103.2946691519714
  0
ARC
  5
28E8
330
21E0
100
AcDbEntity
  8
0
 62
     7
100
AcDbCircle
 10
758.842534290867
 20
678.5091553409363
 30
0.0
 40
9.52499999704351
100
AcDbArc
 50
320.1406812064351
 51
87.64266915212301
  0
ARC
  5
28E9
330
21E0
100
AcDbEntity
  8
0
 62
     7
100
AcDbCircle
 10
725.1169621333044
 20
756.1615949847446
 30
0.0
 40
91.20999999969333
100
AcDbArc
 50
299.0520853442161
 51
303.5519146556848
  0
ARC
  5
28EA
330
21E0
100
AcDbEntity
  8
0
 62
     7
100
AcDbCircle
 10
725.1169621318783
 20
756.1615949836873
 30
0.0
 40
77.84999999979402
100
AcDbArc
 50
314.6227980019869
 51
319.2852020007382
  0
ARC
  5
28EB
330
21E0
100
AcDbEntity
  8
0
 62
     7
100
AcDbCircle
 10
778.7566354270957
 20
690.2238557995699
 30
0.0
 40
10.57999999992964
100
AcDbArc
 50
6.023865893747242
 51
84.33161562348958
  0
ARC
  5
28EC
330
21E0
100
AcDbEntity
  8
1
 62
     7
100
AcDbCircle
 10
725.1169621320355
 20
756.1615949841275
 30
0.0
 40
13.99999999933674
100
AcDbArc
 50
270.0000000010389
 51
73.39845040135381
  0
ARC
  5
28ED
330
21E0
100
AcDbEntity
  8
0
 62
     7
100
AcDbCircle
 10
732.0836287989002
 20
723.6199283178612
 30
0.0
 40
1.83333333335488
100
AcDbArc
 50
270.0000000008011
 51
0.0000000000716515
  0
LINE
  5
28EE
330
21E0
100
AcDbEntity
  8
0
 62
     7
100
AcDbLine
 10
724.200295465634
 20
721.7865949845063
 30
0.0
 11
718.1502954656623
 21
721.7865949845063
 31
0.0
  0
CIRCLE
  5
28EF
330
21E0
100
AcDbEntity
  8
0
 62
     7
100
AcDbCircle
 10
720.2586287990158
 20
726.1865949844053
 30
0.0
 40
1.833333333305914
  0
ARC
  5
28F0
330
21E0
100
AcDbEntity
  8
0
 62
     7
100
AcDbCircle
 10
714.4836287990536
 20
727.350069600435
 30
0.0
 40
1.833333333344796
100
AcDbArc
 50
0.0000000005471572
 51
70.73036112249062
  0
ARC
  5
28F1
330
21E0
100
AcDbEntity
  8
0
 62
     7
100
AcDbCircle
 10
718.1502954657091
 20
723.6199283178635
 30
0.0
 40
1.833333333357188
100
AcDbArc
 50
180.0
 51
269.9999999985442
  0
LINE
  5
28F2
330
21E0
100
AcDbEntity
  8
0
 62
     7
100
AcDbLine
 10
716.3169621323983
 20
723.6199283178635
 30
0.0
 11
716.3169621323983
 21
727.3500696004523
 31
0.0
  0
CIRCLE
  5
28F3
330
21E0
100
AcDbEntity
  8
0
 62
     7
100
AcDbCircle
 10
729.9752954655766
 20
726.1865949844053
 30
0.0
 40
1.83333333331535
  0
LINE
  5
28F4
330
21E0
100
AcDbEntity
  8
0
 62
     7
100
AcDbLine
 10
724.200295465634
 20
728.769694648561
 30
0.0
 11
724.200295465634
 21
721.7865949845063
 31
0.0
  0
LINE
  5
28F5
330
21E0
100
AcDbEntity
  8
0
 62
     7
100
AcDbLine
 10
726.0336287989481
 20
721.7865949845063
 30
0.0
 11
732.0836287989257
 21
721.7865949845063
 31
0.0
  0
LINE
  5
28F6
330
21E0
100
AcDbEntity
  8
0
 62
     7
100
AcDbLine
 10
726.0336287989481
 20
728.769694648561
 30
0.0
 11
726.0336287989481
 21
721.7865949845063
 31
0.0
  0
ARC
  5
28F7
330
21E0
100
AcDbEntity
  8
0
 62
     7
100
AcDbCircle
 10
735.7502954655378
 20
727.3500696004523
 30
0.0
 40
1.833333333326272
100
AcDbArc
 50
109.2696388775023
 51
180.0
  0
LINE
  5
28F8
330
21E0
100
AcDbEntity
  8
0
 62
     7
100
AcDbLine
 10
733.9169621322132
 20
723.6199283178635
 30
0.0
 11
733.9169621322132
 21
727.3500696004523
 31
0.0
  0
LINE
  5
28F9
330
21E0
100
AcDbEntity
  8
1
 62
     7
100
AcDbLine
 10
729.1169621317583
 20
773.4615949846885
 30
0.0
 11
721.1169621323125
 21
773.4615949846885
 31
0.0
  0
LINE
  5
28FA
330
21E0
100
AcDbEntity
  8
1
 62
     7
100
AcDbLine
 10
721.1169621323125
 20
773.4615949846885
 30
0.0
 11
721.1169621323125
 21
769.5780028485168
 31
0.0
  0
LINE
  5
28FB
330
21E0
100
AcDbEntity
  8
1
 62
     7
100
AcDbLine
 10
729.1169621317583
 20
769.5780028485168
 30
0.0
 11
729.1169621317583
 21
773.4615949846885
 31
0.0
  0
CIRCLE
  5
28FC
330
21E0
100
AcDbEntity
  8
1
 62
     7
100
AcDbCircle
 10
640.2641478096256
 20
841.0144090468731
 30
0.0
 40
5.499999999999978
  0
LINE
  5
28FD
330
21E0
100
AcDbEntity
  8
1
  6
CENTER
 62
     3
100
AcDbLine
 10
632.9220175937358
 20
848.3565392627628
 30
0.0
 11
648.6686561804557
 21
832.6099006760429
 31
0.0
  0
LINE
  5
28FE
330
21E0
100
AcDbEntity
  8
1
 62
     7
100
AcDbLine
 10
481.7969617675047
 20
849.8205949841269
 30
0.0
 11
481.7969617675047
 21
833.0887259474749
 31
0.0
  0
LINE
  5
28FF
330
21E0
100
AcDbEntity
  8
1
 62
     7
100
AcDbLine
 10
484.1169617675022
 20
854.9270967156921
 30
0.0
 11
484.1169617675022
 21
827.281594983876
 31
0.0
  0
LINE
  5
2900
330
21E0
100
AcDbEntity
  8
1
  6
DIVIDE
 62
     7
100
AcDbLine
 10
487.1169617672214
 20
834.1489864327737
 30
0.0
 11
487.1169617672214
 21
862.1615949841274
 31
0.0
  0
LINE
  5
2901
330
21E0
100
AcDbEntity
  8
1
  6
DIVIDE
 62
     7
100
AcDbLine
 10
487.1169617672214
 20
834.1489864327737
 30
0.0
 11
487.1169617672214
 21
862.1615949841274
 31
0.0
  0
LINE
  5
2902
330
21E0
100
AcDbEntity
  8
0
 62
     7
100
AcDbLine
 10
484.6169617635045
 20
783.6615949840965
 30
0.0
 11
485.1169617634814
 21
783.1615949840229
 31
0.0
  0
LINE
  5
2903
330
21E0
100
AcDbEntity
  8
0
 62
     7
100
AcDbLine
 10
484.1169617675022
 20
870.6615949841275
 30
0.0
 11
484.1169617675022
 21
881.6615949841274
 31
0.0
  0
LINE
  5
2904
330
21E0
100
AcDbEntity
  8
0
 62
     7
100
AcDbLine
 10
482.98559091732
 20
856.735594983631
 30
0.0
 11
484.1169617674491
 21
857.8669658339894
 31
0.0
  0
ARC
  5
2905
330
21E0
100
AcDbEntity
  8
1
 62
     7
100
AcDbCircle
 10
483.6169617675026
 20
855.554488202941
 30
0.0
 40
0.4999999999995381
100
AcDbArc
 50
0.0
 51
44.99999999977915
  0
ARC
  5
2906
330
21E0
100
AcDbEntity
  8
1
 62
     7
100
AcDbCircle
 10
483.6169617675026
 20
854.9270967156921
 30
0.0
 40
0.499999999999844
100
AcDbArc
 50
272.999999999849
 51
0.0
  0
LINE
  5
2907
330
21E0
100
AcDbEntity
  8
1
 62
     7
100
AcDbLine
 10
481.7969617675047
 20
849.8205949841269
 30
0.0
 11
481.7969617675047
 21
853.7442447149375
 31
0.0
  0
LINE
  5
2908
330
21E0
100
AcDbEntity
  8
1
 62
     7
100
AcDbLine
 10
484.1169617675022
 20
854.9270967156921
 30
0.0
 11
484.1169617675022
 21
855.554488202941
 31
0.0
  0
LINE
  5
2909
330
21E0
100
AcDbEntity
  8
0
 62
     7
100
AcDbLine
 10
484.1169617670796
 20
857.8669658336336
 30
0.0
 11
484.1169617675022
 21
870.6615949841275
 31
0.0
  0
LINE
  5
290A
330
21E0
100
AcDbEntity
  8
1
  6
DIVIDE
 62
     7
100
AcDbLine
 10
487.1169617672214
 20
862.1615949841274
 30
0.0
 11
484.1169617676378
 21
862.1615949841274
 31
0.0
  0
LINE
  5
290B
330
21E0
100
AcDbEntity
  8
0
 62
     7
100
AcDbLine
 10
484.1169617675022
 20
881.6615949841274
 30
0.0
 11
484.1169617677965
 21
888.2615949841042
 31
0.0
  0
LINE
  5
290C
330
21E0
100
AcDbEntity
  8
0
 62
     7
100
AcDbLine
 10
484.1169617677965
 20
888.2615949841042
 30
0.0
 11
483.7169617677999
 21
888.6615949844577
 31
0.0
  0
CIRCLE
  5
290D
330
21E0
100
AcDbEntity
  8
1
 62
     7
100
AcDbCircle
 10
614.2514175858279
 20
802.0836070912746
 30
0.0
 40
5.5
  0
LINE
  5
290E
330
21E0
100
AcDbEntity
  8
1
  6
CENTER
 62
     3
100
AcDbLine
 10
604.6584621624458
 20
806.0571393308801
 30
0.0
 11
625.2324369611478
 21
797.5351199373355
 31
0.0
  0
ARC
  5
290F
330
21E0
100
AcDbEntity
  8
0
 62
     7
100
AcDbCircle
 10
725.1169621323404
 20
756.1615949841345
 30
0.0
 40
91.20999999969324
100
AcDbArc
 50
95.57608534407481
 51
100.0759146554536
  0
ARC
  5
2910
330
21E0
100
AcDbEntity
  8
0
 62
     7
100
AcDbCircle
 10
725.1169621319204
 20
841.1615949840651
 30
0.0
 40
10.5799999999755
100
AcDbArc
 50
146.8958658944879
 51
225.2036156221473
  0
ARC
  5
2911
330
21E0
100
AcDbEntity
  8
0
 62
     7
100
AcDbCircle
 10
725.1169621322522
 20
756.1615949841224
 30
0.0
 40
77.85000000013872
100
AcDbArc
 50
95.49479800075829
 51
100.1572019994418
  0
ARC
  5
2912
330
21E0
100
AcDbEntity
  8
1
 62
     7
100
AcDbCircle
 10
725.1169617634811
 20
756.1615950930175
 30
0.0
 40
102.4429998911094
100
AcDbArc
 50
90.0
 51
110.8684932833752
  0
ARC
  5
2913
330
21E0
100
AcDbEntity
  8
1
 62
     7
100
AcDbCircle
 10
725.1169617634811
 20
756.1615950930175
 30
0.0
 40
100.5739998908945
100
AcDbArc
 50
90.0
 51
111.2749627560304
  0
ARC
  5
2914
330
21E0
100
AcDbEntity
  8
0
 62
     7
100
AcDbCircle
 10
702.1844850216809
 20
838.0096340173619
 30
0.0
 40
10.5799999987523
100
AcDbArc
 50
330.4483843785242
 51
48.75613410624159
  0
ARC
  5
2915
330
21E0
100
AcDbEntity
  8
0
 62
     7
100
AcDbCircle
 10
702.2762149301227
 20
837.6822418611016
 30
0.0
 40
9.52499999865636
100
AcDbArc
 50
311.4853308326209
 51
78.98731879551587
  0
ARC
  5
2916
330
21E0
100
AcDbEntity
  8
0
 62
     7
100
AcDbCircle
 10
702.2762149301293
 20
837.6822418610791
 30
0.0
 40
9.524999996997452
100
AcDbArc
 50
132.3166812051898
 51
259.8186691509667
  0
ARC
  5
2917
330
21E0
100
AcDbEntity
  8
0
 62
     7
100
AcDbCircle
 10
680.9476963962973
 20
828.7844290619684
 30
0.0
 40
10.57999999890055
100
AcDbArc
 50
178.2038658918985
 51
256.5116156194842
  0
ARC
  5
2918
330
21E0
100
AcDbEntity
  8
0
 62
     7
100
AcDbCircle
 10
725.1169613947204
 20
756.1615949841653
 30
0.0
 40
77.85000000001187
100
AcDbArc
 50
126.8027979986797
 51
131.4652019973618
  0
ARC
  5
2919
330
21E0
100
AcDbEntity
  8
0
 62
     7
100
AcDbCircle
 10
662.9923825026694
 20
814.1748408634628
 30
0.0
 40
10.57999999993016
100
AcDbArc
 50
1.756384376677243
 51
80.06413410498764
  0
ARC
  5
291A
330
21E0
100
AcDbEntity
  8
0
 62
     7
100
AcDbCircle
 10
663.2408808176962
 20
813.942787879454
 30
0.0
 40
9.524999997133473
100
AcDbArc
 50
342.7933308464871
 51
110.295318794586
  0
ARC
  5
291B
330
21E0
100
AcDbEntity
  8
0
 62
     7
100
AcDbCircle
 10
681.1243734562513
 20
828.4939377256556
 30
0.0
 40
9.524999998599907
100
AcDbArc
 50
147.9726812024044
 51
275.4746691658863
  0
ARC
  5
291C
330
21E0
100
AcDbEntity
  8
0
 62
     7
100
AcDbCircle
 10
662.9923825019201
 20
814.1748408630952
 30
0.0
 40
10.57999999888981
100
AcDbArc
 50
193.8558658928974
 51
272.1636156194856
  0
ARC
  5
291D
330
21E0
100
AcDbEntity
  8
0
 62
     7
100
AcDbCircle
 10
725.1169613947058
 20
756.1615949841734
 30
0.0
 40
91.20999999999019
100
AcDbArc
 50
142.5360853432324
 51
147.0359146543862
  0
ARC
  5
291E
330
21E0
100
AcDbEntity
  8
0
 62
     7
100
AcDbCircle
 10
663.2408808176848
 20
813.9427878794654
 30
0.0
 40
9.524999998455355
100
AcDbArc
 50
163.6246812028927
 51
291.1266691641267
  0
ARC
  5
291F
330
21E0
100
AcDbEntity
  8
0
 62
     7
100
AcDbCircle
 10
649.6444626730187
 20
795.2627706275536
 30
0.0
 40
10.58000000013054
100
AcDbArc
 50
17.40838437717852
 51
95.71613410470128
  0
ARC
  5
2920
330
21E0
100
AcDbEntity
  8
0
 62
     7
100
AcDbCircle
 10
649.9463526676914
 20
795.1063659243342
 30
0.0
 40
9.524999997104652
100
AcDbArc
 50
358.4453308473256
 51
125.9473187938196
  0
ARC
  5
2921
330
21E0
100
AcDbEntity
  8
0
 62
     7
100
AcDbCircle
 10
649.6444626726574
 20
795.2627706269099
 30
0.0
 40
10.57999999886112
100
AcDbArc
 50
209.5078658926882
 51
287.8156156197431
  0
ARC
  5
2922
330
21E0
100
AcDbEntity
  8
0
 62
     7
100
AcDbCircle
 10
649.9463526676834
 20
795.1063659243381
 30
0.0
 40
9.524999998514028
100
AcDbArc
 50
179.2766812035075
 51
306.7786691651927
  0
ARC
  5
2923
330
21E0
100
AcDbEntity
  8
0
 62
     7
100
AcDbCircle
 10
725.1169613947341
 20
756.161594984298
 30
0.0
 40
91.20999999980879
100
AcDbArc
 50
158.1880853434585
 51
162.6879146547772
  0
ARC
  5
2924
330
21E0
100
AcDbEntity
  8
0
 62
     7
100
AcDbCircle
 10
725.1169613945936
 20
756.1615949840144
 30
0.0
 40
77.85000000016208
100
AcDbArc
 50
142.4547979988971
 51
147.1172019974531
  0
ARC
  5
2925
330
21E0
100
AcDbEntity
  8
0
 62
     7
100
AcDbCircle
 10
725.1169613946218
 20
756.1615949840854
 30
0.0
 40
91.20999999986368
100
AcDbArc
 50
126.8840853427225
 51
131.3839146540537
  0
ARC
  5
2926
330
21E0
100
AcDbEntity
  8
0
 62
     7
100
AcDbCircle
 10
702.1844850212306
 20
838.0096340170949
 30
0.0
 40
10.57999999989208
100
AcDbArc
 50
162.5478658937357
 51
240.8556156217012
  0
ARC
  5
2927
330
21E0
100
AcDbEntity
  8
0
 62
     7
100
AcDbCircle
 10
725.116962132826
 20
756.1615949843607
 30
0.0
 40
77.85000000021357
100
AcDbArc
 50
111.1467980012487
 51
115.8092019999095
  0
ARC
  5
2928
330
21E0
100
AcDbEntity
  8
0
 62
     7
100
AcDbCircle
 10
680.9476963968615
 20
828.7844290621606
 30
0.0
 40
10.57999999983483
100
AcDbArc
 50
346.1043843764821
 51
64.41213410450592
  0
ARC
  5
2929
330
21E0
100
AcDbEntity
  8
0
 62
     7
100
AcDbCircle
 10
680.9527672691697
 20
828.7875124798409
 30
0.0
 40
10.57999999894297
100
AcDbArc
 50
346.1003843798356
 51
43.62497878600397
  0
ARC
  5
292A
330
21E0
100
AcDbEntity
  8
0
 62
     7
100
AcDbCircle
 10
681.1243734562493
 20
828.493937725659
 30
0.0
 40
9.524999997212431
100
AcDbArc
 50
327.1413308469696
 51
94.64331879297992
  0
ARC
  5
292B
330
21E0
100
AcDbEntity
  8
0
 62
     7
100
AcDbCircle
 10
681.1294240486977
 20
828.4970088099255
 30
0.0
 40
9.524999998469688
100
AcDbArc
 50
327.137330833596
 51
37.5540882703689
  0
ARC
  5
292C
330
21E0
100
AcDbEntity
  8
0
 62
     7
100
AcDbCircle
 10
725.1169613947198
 20
756.1615949841475
 30
0.0
 40
91.20999999983776
100
AcDbArc
 50
111.2320853425569
 51
115.7319146539378
  0
ARC
  5
292D
330
21E0
100
AcDbEntity
  8
0
 62
     7
100
AcDbCircle
 10
725.1169621329364
 20
756.1615949844085
 30
0.0
 40
91.20999999994507
100
AcDbArc
 50
111.2280853446961
 51
113.5841272473797
  0
CIRCLE
  5
292E
330
21E0
100
AcDbEntity
  8
1
 62
     7
100
AcDbCircle
 10
679.1949497652238
 20
867.0271392706707
 30
0.0
 40
5.500000000000051
  0
LINE
  5
292F
330
21E0
100
AcDbEntity
  8
1
  6
CENTER
 62
     3
100
AcDbLine
 10
675.2214175256186
 20
876.6200946940523
 30
0.0
 11
683.7434369191626
 21
856.0461198953506
 31
0.0
  0
CIRCLE
  5
2930
330
21E0
100
AcDbEntity
  8
1
 62
     3
100
AcDbCircle
 10
701.706123156418
 20
873.8558285660912
 30
0.0
 40
4.800000000000012
  0
CIRCLE
  5
2931
330
21E0
100
AcDbEntity
  8
1
 62
     7
100
AcDbCircle
 10
701.706123156418
 20
873.8558285660912
 30
0.0
 40
6.0
  0
CIRCLE
  5
2932
330
21E0
100
AcDbEntity
  8
1
 62
     7
100
AcDbCircle
 10
701.706123156418
 20
873.8558285660912
 30
0.0
 40
3.600000000000023
  0
LINE
  5
2933
330
21E0
100
AcDbEntity
  8
1
  6
CENTER
 62
     3
100
AcDbLine
 10
704.0249217058922
 20
862.1984410440372
 30
0.0
 11
699.680433894023
 21
884.0396561937053
 31
0.0
  0
ARC
  5
2934
330
21E0
100
AcDbEntity
  8
0
 62
     7
100
AcDbCircle
 10
748.055153255659
 20
838.0080328293777
 30
0.0
 40
10.57999999966906
100
AcDbArc
 50
131.2398658945023
 51
209.5476156207654
  0
ARC
  5
2935
330
21E0
100
AcDbEntity
  8
0
 62
     7
100
AcDbCircle
 10
725.1228962494997
 20
841.1615947770869
 30
0.0
 40
10.57999999893789
100
AcDbArc
 50
314.7923843811417
 51
33.10013410784076
  0
ARC
  5
2936
330
21E0
100
AcDbEntity
  8
0
 62
     7
100
AcDbCircle
 10
725.1228725130306
 20
840.821594777808
 30
0.0
 40
9.524999998521707
100
AcDbArc
 50
295.829330834804
 51
63.33131879762714
  0
ARC
  5
2937
330
21E0
100
AcDbEntity
  8
0
 62
     7
100
AcDbCircle
 10
725.1228725130306
 20
840.8215947778156
 30
0.0
 40
9.524999997333171
100
AcDbArc
 50
116.6606812054842
 51
244.1626691525113
  0
ARC
  5
2938
330
21E0
100
AcDbEntity
  8
0
 62
     7
100
AcDbCircle
 10
747.9634004905554
 20
837.6806470782499
 30
0.0
 40
9.524999998596641
100
AcDbArc
 50
280.1773308350903
 51
47.67931879819055
  0
ARC
  5
2939
330
21E0
100
AcDbEntity
  8
0
 62
     7
100
AcDbCircle
 10
747.963400490552
 20
837.6806470782371
 30
0.0
 40
9.5249999972914
100
AcDbArc
 50
101.0086812067941
 51
228.5106691532136
  0
ARC
  5
293A
330
21E0
100
AcDbEntity
  8
0
 62
     7
100
AcDbCircle
 10
725.116962132299
 20
756.1615949841261
 30
0.0
 40
77.85000000037505
100
AcDbArc
 50
79.83879800225825
 51
84.50120200095877
  0
ARC
  5
293B
330
21E0
100
AcDbEntity
  8
0
 62
     7
100
AcDbCircle
 10
725.116962132369
 20
756.1615949841166
 30
0.0
 40
77.85000000003591
100
AcDbArc
 50
79.84279800079312
 51
84.50520199948694
  0
ARC
  5
293C
330
21E0
100
AcDbEntity
  8
0
 62
     7
100
AcDbCircle
 10
725.1169621323693
 20
756.1615949840144
 30
0.0
 40
77.85000000016203
100
AcDbArc
 50
32.88279800254642
 51
37.54520200110287
  0
ARC
  5
293D
330
21E0
100
AcDbEntity
  8
0
 62
     7
100
AcDbCircle
 10
725.1169621322429
 20
756.1615949841653
 30
0.0
 40
77.85000000001187
100
AcDbArc
 50
48.53479800263815
 51
53.19720200132024
  0
ARC
  5
293E
330
21E0
100
AcDbEntity
  8
0
 62
     7
100
AcDbCircle
 10
769.2862271306656
 20
828.7844290619684
 30
0.0
 40
10.57999999890004
100
AcDbArc
 50
283.4883843805157
 51
1.796134108101428
  0
ARC
  5
293F
330
21E0
100
AcDbEntity
  8
0
 62
     7
100
AcDbCircle
 10
769.1095500707111
 20
828.4939377256556
 30
0.0
 40
9.524999998597971
100
AcDbArc
 50
264.5253308341104
 51
32.02731879759513
  0
ARC
  5
2940
330
21E0
100
AcDbEntity
  8
0
 62
     7
100
AcDbCircle
 10
769.2862271301017
 20
828.7844290621606
 30
0.0
 40
10.57999999983475
100
AcDbArc
 50
115.587865895494
 51
193.8956156235179
  0
ARC
  5
2941
330
21E0
100
AcDbEntity
  8
0
 62
     7
100
AcDbCircle
 10
725.1169621324134
 20
756.1615949840739
 30
0.0
 40
77.84999999994086
100
AcDbArc
 50
64.18679800291204
 51
68.84920200162008
  0
ARC
  5
2942
330
21E0
100
AcDbEntity
  8
0
 62
     7
100
AcDbCircle
 10
769.1095500707135
 20
828.493937725659
 30
0.0
 40
9.524999997212422
100
AcDbArc
 50
85.35668120702331
 51
212.8586691530271
  0
ARC
  5
2943
330
21E0
100
AcDbEntity
  8
0
 62
     7
100
AcDbCircle
 10
725.1169621322433
 20
756.1615949841475
 30
0.0
 40
91.20999999983776
100
AcDbArc
 50
64.26808534606211
 51
68.76791465744304
  0
ARC
  5
2944
330
21E0
100
AcDbEntity
  8
0
 62
     7
100
AcDbCircle
 10
748.055153255011
 20
838.0080328297397
 30
0.0
 40
10.57999999894613
100
AcDbArc
 50
299.1403843805907
 51
17.44813410902103
  0
ARC
  5
2945
330
21E0
100
AcDbEntity
  8
0
 62
     7
100
AcDbCircle
 10
725.1169621323413
 20
756.1615949840854
 30
0.0
 40
91.20999999986365
100
AcDbArc
 50
48.61608534594558
 51
53.11591465727747
  0
ARC
  5
2946
330
21E0
100
AcDbEntity
  8
0
 62
     7
100
AcDbCircle
 10
786.9930427092663
 20
813.942787879454
 30
0.0
 40
9.524999997133502
100
AcDbArc
 50
69.70468120541778
 51
197.2066691535126
  0
ARC
  5
2947
330
21E0
100
AcDbEntity
  8
0
 62
     7
100
AcDbCircle
 10
787.2415410242938
 20
814.1748408634628
 30
0.0
 40
10.57999999993016
100
AcDbArc
 50
99.93586589501235
 51
178.2436156233194
  0
CIRCLE
  5
2948
330
21E0
100
AcDbEntity
  8
1
 62
     7
100
AcDbCircle
 10
725.1169617634811
 20
876.1615953920809
 30
0.0
 40
5.500000000000063
  0
ARC
  5
2949
330
21E0
100
AcDbEntity
  8
0
 62
     7
100
AcDbCircle
 10
725.1169621325093
 20
756.1615949840972
 30
0.0
 40
91.20999999982279
100
AcDbArc
 50
79.92408534412975
 51
84.42391465549654
  0
CIRCLE
  5
294A
330
21E0
100
AcDbEntity
  8
1
 62
     7
100
AcDbCircle
 10
771.0389737617388
 20
867.0271392706707
 30
0.0
 40
5.500000000000051
  0
LINE
  5
294B
330
21E0
100
AcDbEntity
  8
1
  6
CENTER
 62
     3
100
AcDbLine
 10
766.4904866077997
 20
856.0461198953506
 30
0.0
 11
775.012506001344
 21
876.6200946940523
 31
0.0
  0
ARC
  5
294C
330
21E0
100
AcDbEntity
  8
0
 62
     7
100
AcDbCircle
 10
808.3400543292809
 20
773.4508091117795
 30
0.0
 40
10.58000000003558
100
AcDbArc
 50
68.63186589559655
 51
146.9396156234859
  0
ARC
  5
294D
330
21E0
100
AcDbEntity
  8
0
 62
     7
100
AcDbCircle
 10
725.1169621322806
 20
756.1615949841525
 30
0.0
 40
77.8500000000875
100
AcDbArc
 50
17.23079800194814
 51
21.89320200065319
  0
ARC
  5
294E
330
21E0
100
AcDbEntity
  8
0
 62
     7
100
AcDbCircle
 10
808.0071619602016
 20
773.381652255791
 30
0.0
 40
9.524999997119323
100
AcDbArc
 50
38.40068120681882
 51
165.9026691528968
  0
ARC
  5
294F
330
21E0
100
AcDbEntity
  8
0
 62
     7
100
AcDbCircle
 10
794.5571711694249
 20
707.1406059199926
 30
0.0
 40
10.57999999995401
100
AcDbArc
 50
21.67586589513882
 51
99.98361562285756
  0
ARC
  5
2950
330
21E0
100
AcDbEntity
  8
0
 62
     7
100
AcDbCircle
 10
725.1169621320137
 20
756.1615949835958
 30
0.0
 40
77.84999999995374
100
AcDbArc
 50
330.2747980023823
 51
334.9372020012515
  0
ARC
  5
2951
330
21E0
100
AcDbEntity
  8
0
 62
     7
100
AcDbCircle
 10
805.2077580077128
 20
727.6929382535733
 30
0.0
 40
10.57999999874833
100
AcDbArc
 50
205.2283843790152
 51
283.5361341060707
  0
ARC
  5
2952
330
21E0
100
AcDbEntity
  8
0
 62
     7
100
AcDbCircle
 10
804.8873948239211
 20
727.8068128805687
 30
0.0
 40
9.524999998401924
100
AcDbArc
 50
186.2653308346835
 51
313.76731879823
  0
LINE
  5
2953
330
21E0
100
AcDbEntity
  8
1
  6
CENTER
 62
     3
100
AcDbLine
 10
825.0014865658139
 20
714.7880702486992
 30
0.0
 11
845.5754613645154
 21
706.2660508551545
 31
0.0
  0
CIRCLE
  5
2954
330
21E0
100
AcDbEntity
  8
1
 62
     7
100
AcDbCircle
 10
809.969775717337
 20
671.3087811391618
 30
0.0
 40
5.500000000000035
  0
LINE
  5
2955
330
21E0
100
AcDbEntity
  8
1
  6
CENTER
 62
     3
100
AcDbLine
 10
801.5652673465069
 20
679.7132895099919
 30
0.0
 11
817.3119059332266
 21
663.9666509232718
 31
0.0
  0
ARC
  5
2956
330
21E0
100
AcDbEntity
  8
0
 62
     7
100
AcDbCircle
 10
725.1169621319632
 20
756.1615949834979
 30
0.0
 40
91.2099999996561
100
AcDbArc
 50
330.3560853456855
 51
334.8559146571785
  0
CIRCLE
  5
2957
330
21E0
100
AcDbEntity
  8
1
 62
     7
100
AcDbCircle
 10
835.9825059411335
 20
710.2395830947598
 30
0.0
 40
5.499999999999999
  0
ARC
  5
2958
330
21E0
100
AcDbEntity
  8
0
 62
     7
100
AcDbCircle
 10
805.2077580077135
 20
727.6929382543402
 30
0.0
 40
10.57999999971042
100
AcDbArc
 50
37.32786589408274
 51
115.6356156231584
  0
ARC
  5
2959
330
21E0
100
AcDbEntity
  8
0
 62
     7
100
AcDbCircle
 10
809.9185080834917
 20
750.3566139947844
 30
0.0
 40
10.57999999886341
100
AcDbArc
 50
220.8803843799929
 51
299.1881341075795
  0
ARC
  5
295A
330
21E0
100
AcDbEntity
  8
0
 62
     7
100
AcDbCircle
 10
809.5793018995767
 20
750.3798339187271
 30
0.0
 40
9.524999998459996
100
AcDbArc
 50
201.9173308347065
 51
329.4193187971333
  0
ARC
  5
295B
330
21E0
100
AcDbEntity
  8
0
 62
     7
100
AcDbCircle
 10
804.8873948240267
 20
727.8068128805309
 30
0.0
 40
9.524999997234216
100
AcDbArc
 50
7.096681207302032
 51
134.5986691523752
  0
ARC
  5
295C
330
21E0
100
AcDbEntity
  8
0
 62
     7
100
AcDbCircle
 10
725.1169621322723
 20
756.1615949840461
 30
0.0
 40
77.84999999995841
100
AcDbArc
 50
345.9267980022853
 51
350.589202000996
  0
ARC
  5
295D
330
21E0
100
AcDbEntity
  8
0
 62
     7
100
AcDbCircle
 10
725.1169621323285
 20
756.161594984315
 30
0.0
 40
91.20999999981647
100
AcDbArc
 50
346.0080853453658
 51
350.5079146567618
  0
ARC
  5
295E
330
21E0
100
AcDbEntity
  8
0
 62
     7
100
AcDbCircle
 10
809.9185080831187
 20
750.3566139954946
 30
0.0
 40
10.57999999986084
100
AcDbArc
 50
52.97986589539062
 51
131.2876156228397
  0
ARC
  5
295F
330
21E0
100
AcDbEntity
  8
0
 62
     7
100
AcDbCircle
 10
808.3400543289199
 20
773.4508091123346
 30
0.0
 40
10.57999999892067
100
AcDbArc
 50
236.5323843808311
 51
314.8401341081115
  0
ARC
  5
2960
330
21E0
100
AcDbEntity
  8
0
 62
     7
100
AcDbCircle
 10
808.0071619601952
 20
773.3816522557897
 30
0.0
 40
9.52499999866788
100
AcDbArc
 50
217.5693308341199
 51
345.0713187973716
  0
ARC
  5
2961
330
21E0
100
AcDbEntity
  8
0
 62
     7
100
AcDbCircle
 10
809.5793018995694
 20
750.3798339187274
 30
0.0
 40
9.524999997089187
100
AcDbArc
 50
22.74868120630157
 51
150.2506691534251
  0
ARC
  5
2962
330
21E0
100
AcDbEntity
  8
0
 62
     7
100
AcDbCircle
 10
725.1169621322867
 20
756.1615949841672
 30
0.0
 40
77.84999999977554
100
AcDbArc
 50
1.5787980025289
 51
6.241202001217616
  0
ARC
  5
2963
330
21E0
100
AcDbEntity
  8
0
 62
     7
100
AcDbCircle
 10
725.1169621322698
 20
756.1615949844151
 30
0.0
 40
91.2099999995765
100
AcDbArc
 50
1.660085345643105
 51
6.159914656959193
  0
CIRCLE
  5
2964
330
21E0
100
AcDbEntity
  8
1
 62
     7
100
AcDbCircle
 10
845.1169620625448
 20
756.1615950930172
 30
0.0
 40
5.500000000000046
  0
CIRCLE
  5
2965
330
21E0
100
AcDbEntity
  8
1
 62
     7
100
AcDbCircle
 10
809.969775717337
 20
841.0144090468731
 30
0.0
 40
5.499999999999898
  0
LINE
  5
2966
330
21E0
100
AcDbEntity
  8
1
  6
CENTER
 62
     3
100
AcDbLine
 10
801.5652673465069
 20
832.6099006760429
 30
0.0
 11
817.3119059332266
 21
848.3565392627628
 31
0.0
  0
LINE
  5
2967
330
21E0
100
AcDbEntity
  8
1
  6
CENTER
 62
     3
100
AcDbLine
 10
825.0014865658148
 20
797.5351199373355
 30
0.0
 11
845.5754613645169
 21
806.0571393308801
 31
0.0
  0
ARC
  5
2968
330
21E0
100
AcDbEntity
  8
0
 62
     7
100
AcDbCircle
 10
725.1169621322571
 20
756.1615949841734
 30
0.0
 40
91.20999999999016
100
AcDbArc
 50
32.96408534561379
 51
37.4639146567676
  0
ARC
  5
2969
330
21E0
100
AcDbEntity
  8
0
 62
     7
100
AcDbCircle
 10
725.1169621322287
 20
756.161594984298
 30
0.0
 40
91.20999999980885
100
AcDbArc
 50
17.31208534522271
 51
21.81191465654144
  0
ARC
  5
296A
330
21E0
100
AcDbEntity
  8
0
 62
     7
100
AcDbCircle
 10
800.2875708592792
 20
795.1063659243381
 30
0.0
 40
9.524999998514108
100
AcDbArc
 50
233.2213308348065
 51
0.7233187964924505
  0
ARC
  5
296B
330
21E0
100
AcDbEntity
  8
0
 62
     7
100
AcDbCircle
 10
800.5894608543055
 20
795.2627706269099
 30
0.0
 40
10.5799999988611
100
AcDbArc
 50
252.1843843802567
 51
330.4921341073117
  0
CIRCLE
  5
296C
330
21E0
100
AcDbEntity
  8
1
 62
     7
100
AcDbCircle
 10
835.9825059411347
 20
802.0836070912746
 30
0.0
 40
5.5
  0
TEXT
  5
2973
330
21E0
100
AcDbEntity
  8
1
 62
     0
100
AcDbText
 10
711.3828009179295
 20
466.137185106316
 30
0.0
 40
13.0
  1
2002/3
 41
0.9
 72
     1
 11
736.0465627023115
 21
472.6371851063159
 31
0.0
100
AcDbText
 73
     2
  0
INSERT
  5
297D
330
21E0
100
AcDbEntity
  8
AM_0
100
AcDbBlockReference
  2
HD LLC
 10
773.2302303338163
 20
334.2055496054322
 30
0.0
 41
3.06
 42
3.06
 43
3.06
  0
INSERT
  5
2983
330
21E0
100
AcDbEntity
  8
AM_0
100
AcDbBlockReference
  2
HD logo-new
 10
531.6614704197188
 20
345.7803626479446
 30
0.0
 41
2.7
 42
2.7
 43
2.7
  0
INSERT
  5
2991
330
21E0
100
AcDbEntity
  8
AM_0
100
AcDbBlockReference
  2
NTC
 10
-70.28295502119462
 20
432.7189662131894
 30
0.0
 41
1.573053214026458
 42
1.573053214026458
 43
1.573053214026458
  0
ENDSEC
  0
SECTION
  2
OBJECTS
  0
DICTIONARY
  5
21CE
330
0
100
AcDbDictionary
281
     1
  3
ACAD_GROUP
350
21CF
  3
ACAD_LAYOUT
350
21DB
  3
ACAD_MLINESTYLE
350
21D8
  3
ACAD_PLOTSETTINGS
350
21DA
  3
ACAD_PLOTSTYLENAME
350
21D0
  3
AcDbVariableDictionary
350
24D8
  0
DICTIONARY
  5
21CF
102
{ACAD_REACTORS
330
21CE
102
}
330
21CE
100
AcDbDictionary
281
     1
  0
DICTIONARY
  5
21DB
102
{ACAD_REACTORS
330
21CE
102
}
330
21CE
100
AcDbDictionary
281
     1
  3
Layout1
350
21DF
  3
Model
350
21E3
  0
DICTIONARY
  5
21D8
102
{ACAD_REACTORS
330
21CE
102
}
330
21CE
100
AcDbDictionary
281
     1
  3
Standard
350
21D9
  0
DICTIONARY
  5
21DA
102
{ACAD_REACTORS
330
21CE
102
}
330
21CE
100
AcDbDictionary
281
     1
  0
ACDBDICTIONARYWDFLT
  5
21D0
102
{ACAD_REACTORS
330
21CE
102
}
330
21CE
100
AcDbDictionary
281
     1
  3
Normal
350
21D1
100
AcDbDictionaryWithDefault
340
21D1
  0
DICTIONARY
  5
24D8
102
{ACAD_REACTORS
330
21CE
102
}
330
21CE
100
AcDbDictionary
281
     1
  3
DIMASSOC
350
24D9
  0
LAYOUT
  5
21DF
102
{ACAD_REACTORS
330
21DB
102
}
330
21DB
100
AcDbPlotSettings
  1

  2
\\SERVER9\HP LaserJet 5100 PCL 5e
  4

  6

 40
0.0
 41
0.0
 42
0.0
 43
0.0
 44
0.0
 45
0.0
 46
0.0
 47
0.0
 48
0.0
 49
0.0
140
0.0
141
0.0
142
1.0
143
1.0
 70
   688
 72
     0
 73
     0
 74
     5
  7

 75
    16
147
1.0
148
0.0
149
0.0
100
AcDbLayout
  1
Layout1
 70
     1
 71
     1
 10
0.0
 20
0.0
 11
420.0
 21
297.0
 12
0.0
 22
0.0
 32
0.0
 14
1.000000000000000E+20
 24
1.000000000000000E+20
 34
1.000000000000000E+20
 15
-1.000000000000000E+20
 25
-1.000000000000000E+20
 35
-1.000000000000000E+20
146
0.0
 13
0.0
 23
0.0
 33
0.0
 16
1.0
 26
0.0
 36
0.0
 17
0.0
 27
1.0
 37
0.0
 76
     0
330
21DC
  0
LAYOUT
  5
21E3
102
{ACAD_REACTORS
330
21DB
102
}
330
21DB
100
AcDbPlotSettings
  1

  2
\\SERVER9\HP LaserJet 5100 PCL 5e
  4

  6

 40
0.0
 41
0.0
 42
0.0
 43
0.0
 44
0.0
 45
0.0
 46
0.0
 47
0.0
 48
0.0
 49
0.0
140
0.0
141
0.0
142
1.0
143
1.0
 70
  1712
 72
     0
 73
     0
 74
     0
  7

 75
     0
147
1.0
148
0.0
149
0.0
100
AcDbLayout
  1
Model
 70
     1
 71
     0
 10
0.0
 20
0.0
 11
12.0
 21
9.0
 12
0.0
 22
0.0
 32
0.0
 14
0.0
 24
0.0
 34
0.0
 15
0.0
 25
0.0
 35
0.0
146
0.0
 13
0.0
 23
0.0
 33
0.0
 16
1.0
 26
0.0
 36
0.0
 17
0.0
 27
1.0
 37
0.0
 76
     0
330
21E0
  0
MLINESTYLE
  5
21D9
102
{ACAD_REACTORS
330
21D8
102
}
330
21D8
100
AcDbMlineStyle
  2
STANDARD
 70
     0
  3

 62
   256
 51
90.0
 52
90.0
 71
     2
 49
0.5
 62
   256
  6
BYLAYER
 49
-0.5
 62
   256
  6
BYLAYER
  0
ACDBPLACEHOLDER
  5
21D1
102
{ACAD_REACTORS
330
21D0
102
}
330
21D0
  0
DICTIONARYVAR
  5
24D9
102
{ACAD_REACTORS
330
24D8
102
}
330
24D8
100
DictionaryVariables
280
     0
  1
1
  0
ENDSEC
  0
EOF
