  0
SECTION
  2
HEADER
  9
$ACADVER
  1
AC1015
  9
$ACADMAINTVER
 70
    13
  9
$DWGCODEPAGE
  3
ANSI_1252
  9
$INSBASE
 10
0.0
 20
0.0
 30
0.0
  9
$EXTMIN
 10
-644.1680319403787
 20
-405.8396166446298
 30
0.0
  9
$EXTMAX
 10
1061.329205883081
 20
1040.355224441728
 30
0.0
  9
$LIMMIN
 10
0.0
 20
0.0
  9
$LIMMAX
 10
420.0
 20
297.0
  9
$ORTHOMODE
 70
     0
  9
$REGENMODE
 70
     1
  9
$FILLMODE
 70
     1
  9
$QTEXTMODE
 70
     0
  9
$MIRRTEXT
 70
     1
  9
$LTSCALE
 40
1.0
  9
$ATTMODE
 70
     1
  9
$TEXTSIZE
 40
2.5
  9
$TRACEWID
 40
1.0
  9
$TEXTSTYLE
  7
STANDARD
  9
$CLAYER
  8
AM_0
  9
$CELTYPE
  6
ByLayer
  9
$CECOLOR
 62
   256
  9
$CELTSCALE
 40
1.0
  9
$DISPSILH
 70
     0
  9
$DIMSCALE
 40
1.0
  9
$DIMASZ
 40
2.5
  9
$DIMEXO
 40
0.625
  9
$DIMDLI
 40
3.75
  9
$DIMRND
 40
0.0
  9
$DIMDLE
 40
0.0
  9
$DIMEXE
 40
1.25
  9
$DIMTP
 40
0.0
  9
$DIMTM
 40
0.0
  9
$DIMTXT
 40
2.5
  9
$DIMCEN
 40
2.5
  9
$DIMTSZ
 40
0.0
  9
$DIMTOL
 70
     0
  9
$DIMLIM
 70
     0
  9
$DIMTIH
 70
     0
  9
$DIMTOH
 70
     0
  9
$DIMSE1
 70
     0
  9
$DIMSE2
 70
     0
  9
$DIMTAD
 70
     1
  9
$DIMZIN
 70
     8
  9
$DIMBLK
  1

  9
$DIMASO
 70
     1
  9
$DIMSHO
 70
     1
  9
$DIMPOST
  1

  9
$DIMAPOST
  1

  9
$DIMALT
 70
     0
  9
$DIMALTD
 70
     3
  9
$DIMALTF
 40
0.03937007874016
  9
$DIMLFAC
 40
1.0
  9
$DIMTOFL
 70
     1
  9
$DIMTVP
 40
0.0
  9
$DIMTIX
 70
     0
  9
$DIMSOXD
 70
     0
  9
$DIMSAH
 70
     0
  9
$DIMBLK1
  1

  9
$DIMBLK2
  1

  9
$DIMSTYLE
  2
ISO-25
  9
$DIMCLRD
 70
     0
  9
$DIMCLRE
 70
     0
  9
$DIMCLRT
 70
     0
  9
$DIMTFAC
 40
1.0
  9
$DIMGAP
 40
0.625
  9
$DIMJUST
 70
     0
  9
$DIMSD1
 70
     0
  9
$DIMSD2
 70
     0
  9
$DIMTOLJ
 70
     1
  9
$DIMTZIN
 70
     0
  9
$DIMALTZ
 70
     0
  9
$DIMALTTZ
 70
     0
  9
$DIMUPT
 70
     0
  9
$DIMDEC
 70
     4
  9
$DIMTDEC
 70
     4
  9
$DIMALTU
 70
     2
  9
$DIMALTTD
 70
     2
  9
$DIMTXSTY
  7
STANDARD
  9
$DIMAUNIT
 70
     0
  9
$DIMADEC
 70
     0
  9
$DIMALTRND
 40
0.0
  9
$DIMAZIN
 70
     0
  9
$DIMDSEP
 70
    46
  9
$DIMATFIT
 70
     3
  9
$DIMFRAC
 70
     0
  9
$DIMLDRBLK
  1

  9
$DIMLUNIT
 70
     2
  9
$DIMLWD
 70
    -2
  9
$DIMLWE
 70
    -2
  9
$DIMTMOVE
 70
     0
  9
$LUNITS
 70
     2
  9
$LUPREC
 70
     2
  9
$SKETCHINC
 40
1.0
  9
$FILLETRAD
 40
2.5
  9
$AUNITS
 70
     0
  9
$AUPREC
 70
     0
  9
$MENU
  1
.
  9
$ELEVATION
 40
0.0
  9
$PELEVATION
 40
0.0
  9
$THICKNESS
 40
0.0
  9
$LIMCHECK
 70
     0
  9
$CHAMFERA
 40
2.5
  9
$CHAMFERB
 40
2.5
  9
$CHAMFERC
 40
0.0
  9
$CHAMFERD
 40
0.0
  9
$SKPOLY
 70
     0
  9
$TDCREATE
 40
2452802.768734259
  9
$TDUCREATE
 40
2452802.935400926
  9
$TDUPDATE
 40
2453865.541699571
  9
$TDUUPDATE
 40
2453865.708366238
  9
$TDINDWG
 40
0.1555123264
  9
$TDUSRTIMER
 40
0.1555119560
  9
$USRTIMER
 70
     1
  9
$ANGBASE
 50
0.0
  9
$ANGDIR
 70
     0
  9
$PDMODE
 70
     0
  9
$PDSIZE
 40
0.0
  9
$PLINEWID
 40
0.0
  9
$SPLFRAME
 70
     0
  9
$SPLINETYPE
 70
     6
  9
$SPLINESEGS
 70
     8
  9
$HANDSEED
  5
25EE
  9
$SURFTAB1
 70
     6
  9
$SURFTAB2
 70
     6
  9
$SURFTYPE
 70
     6
  9
$SURFU
 70
     6
  9
$SURFV
 70
     6
  9
$UCSBASE
  2

  9
$UCSNAME
  2

  9
$UCSORG
 10
0.0
 20
0.0
 30
0.0
  9
$UCSXDIR
 10
1.0
 20
0.0
 30
0.0
  9
$UCSYDIR
 10
0.0
 20
1.0
 30
0.0
  9
$UCSORTHOREF
  2

  9
$UCSORTHOVIEW
 70
     0
  9
$UCSORGTOP
 10
0.0
 20
0.0
 30
0.0
  9
$UCSORGBOTTOM
 10
0.0
 20
0.0
 30
0.0
  9
$UCSORGLEFT
 10
0.0
 20
0.0
 30
0.0
  9
$UCSORGRIGHT
 10
0.0
 20
0.0
 30
0.0
  9
$UCSORGFRONT
 10
0.0
 20
0.0
 30
0.0
  9
$UCSORGBACK
 10
0.0
 20
0.0
 30
0.0
  9
$PUCSBASE
  2

  9
$PUCSNAME
  2

  9
$PUCSORG
 10
0.0
 20
0.0
 30
0.0
  9
$PUCSXDIR
 10
1.0
 20
0.0
 30
0.0
  9
$PUCSYDIR
 10
0.0
 20
1.0
 30
0.0
  9
$PUCSORTHOREF
  2

  9
$PUCSORTHOVIEW
 70
     0
  9
$PUCSORGTOP
 10
0.0
 20
0.0
 30
0.0
  9
$PUCSORGBOTTOM
 10
0.0
 20
0.0
 30
0.0
  9
$PUCSORGLEFT
 10
0.0
 20
0.0
 30
0.0
  9
$PUCSORGRIGHT
 10
0.0
 20
0.0
 30
0.0
  9
$PUCSORGFRONT
 10
0.0
 20
0.0
 30
0.0
  9
$PUCSORGBACK
 10
0.0
 20
0.0
 30
0.0
  9
$USERI1
 70
     0
  9
$USERI2
 70
     0
  9
$USERI3
 70
     0
  9
$USERI4
 70
     0
  9
$USERI5
 70
     0
  9
$USERR1
 40
0.0
  9
$USERR2
 40
0.0
  9
$USERR3
 40
0.0
  9
$USERR4
 40
0.0
  9
$USERR5
 40
0.0
  9
$WORLDVIEW
 70
     1
  9
$SHADEDGE
 70
     3
  9
$SHADEDIF
 70
    70
  9
$TILEMODE
 70
     1
  9
$MAXACTVP
 70
    64
  9
$PINSBASE
 10
0.0
 20
0.0
 30
0.0
  9
$PLIMCHECK
 70
     0
  9
$PEXTMIN
 10
1.000000000000000E+20
 20
1.000000000000000E+20
 30
1.000000000000000E+20
  9
$PEXTMAX
 10
-1.000000000000000E+20
 20
-1.000000000000000E+20
 30
-1.000000000000000E+20
  9
$PLIMMIN
 10
0.0
 20
0.0
  9
$PLIMMAX
 10
420.0
 20
297.0
  9
$UNITMODE
 70
     0
  9
$VISRETAIN
 70
     1
  9
$PLINEGEN
 70
     0
  9
$PSLTSCALE
 70
     1
  9
$TREEDEPTH
 70
  3020
  9
$CMLSTYLE
  2
Standard
  9
$CMLJUST
 70
     0
  9
$CMLSCALE
 40
1.0
  9
$PROXYGRAPHICS
 70
     1
  9
$MEASUREMENT
 70
     0
  9
$CELWEIGHT
370
    -1
  9
$ENDCAPS
280
     0
  9
$JOINSTYLE
280
     0
  9
$LWDISPLAY
290
     0
  9
$INSUNITS
 70
     0
  9
$HYPERLINKBASE
  1

  9
$STYLESHEET
  1

  9
$XEDIT
290
     1
  9
$CEPSNTYPE
380
     0
  9
$PSTYLEMODE
290
     1
  9
$FINGERPRINTGUID
  2
{BD1BD602-F49B-4DEE-9F6F-8E1D6BAF56BF}
  9
$VERSIONGUID
  2
{5F863172-77B6-4C0E-AA29-1227527A5335}
  9
$EXTNAMES
290
     1
  9
$PSVPSCALE
 40
0.0
  9
$OLESTARTUP
290
     0
  0
ENDSEC
  0
SECTION
  2
CLASSES
  0
CLASS
  1
ACDBDICTIONARYWDFLT
  2
AcDbDictionaryWithDefault
  3
AutoCAD 2000
 90
        0
280
     0
281
     0
  0
CLASS
  1
ACDBPLACEHOLDER
  2
AcDbPlaceHolder
  3
AutoCAD 2000
 90
        0
280
     0
281
     0
  0
CLASS
  1
LAYOUT
  2
AcDbLayout
  3
AutoCAD 2000
 90
        0
280
     0
281
     0
  0
CLASS
  1
DICTIONARYVAR
  2
AcDbDictionaryVar
  3
AutoCAD 2000
 90
        0
280
     0
281
     0
  0
ENDSEC
  0
SECTION
  2
TABLES
  0
TABLE
  2
VPORT
  5
1D85
330
0
100
AcDbSymbolTable
 70
     3
  0
VPORT
  5
25ED
330
1D85
100
AcDbSymbolTableRecord
100
AcDbViewportTableRecord
  2
*Active
 70
     0
 10
0.0
 20
0.0
 11
1.0
 21
1.0
 12
506.8180852475546
 22
699.3294444275834
 13
0.0
 23
0.0
 14
2.5
 24
2.5
 15
10.0
 25
10.0
 16
0.0
 26
0.0
 36
1.0
 17
0.0
 27
0.0
 37
0.0
 40
1037.418106288412
 41
1.182835820895522
 42
50.0
 43
0.0
 44
0.0
 50
0.0
 51
0.0
 71
     0
 72
   100
 73
     1
 74
     3
 75
     0
 76
     0
 77
     0
 78
     0
281
     0
 65
     1
110
0.0
120
0.0
130
0.0
111
1.0
121
0.0
131
0.0
112
0.0
122
1.0
132
0.0
 79
     0
146
0.0
  0
ENDTAB
  0
TABLE
  2
LTYPE
  5
1D82
330
0
100
AcDbSymbolTable
 70
     5
  0
LTYPE
  5
1D90
330
1D82
100
AcDbSymbolTableRecord
100
AcDbLinetypeTableRecord
  2
ByBlock
 70
     0
  3

 72
    65
 73
     0
 40
0.0
  0
LTYPE
  5
1D91
330
1D82
100
AcDbSymbolTableRecord
100
AcDbLinetypeTableRecord
  2
ByLayer
 70
     0
  3

 72
    65
 73
     0
 40
0.0
  0
LTYPE
  5
1D92
330
1D82
100
AcDbSymbolTableRecord
100
AcDbLinetypeTableRecord
  2
CONTINUOUS
 70
     0
  3
Solid line
 72
    65
 73
     0
 40
0.0
  0
LTYPE
  5
1DA1
330
1D82
100
AcDbSymbolTableRecord
100
AcDbLinetypeTableRecord
  2
CENTER
 70
     0
  3
Center ____ _ ____ _ ____ _ ____ _ ____ _ ____
 72
    65
 73
     4
 40
50.8
 49
31.75
 74
     0
 49
-6.349999999999997
 74
     0
 49
6.349999999999997
 74
     0
 49
-6.349999999999997
 74
     0
  0
LTYPE
  5
1DA2
330
1D82
100
AcDbSymbolTableRecord
100
AcDbLinetypeTableRecord
  2
DASHDOT
 70
     0
  3
__ . __ . __ .
 72
    65
 73
     4
 40
26.49350447299699
 49
13.2467522364985
 74
     0
 49
-6.623376118249247
 74
     0
 49
0.0
 74
     0
 49
-6.623376118249247
 74
     0
  0
LTYPE
  5
1DA3
330
1D82
100
AcDbSymbolTableRecord
100
AcDbLinetypeTableRecord
  2
DIVIDE
 70
     0
  3
__ . . __ . . 
 72
    65
 73
     6
 40
33.11688059124623
 49
13.2467522364985
 74
     0
 49
-6.623376118249247
 74
     0
 49
0.0
 74
     0
 49
-6.623376118249247
 74
     0
 49
0.0
 74
     0
 49
-6.623376118249247
 74
     0
  0
LTYPE
  5
1DA4
330
1D82
100
AcDbSymbolTableRecord
100
AcDbLinetypeTableRecord
  2
PHANTOM
 70
     0
  3
_____ _ _ _____ _ _ 
 72
    65
 73
     6
 40
66.2337611824925
 49
33.11688059124623
 74
     0
 49
-6.623376118249247
 74
     0
 49
6.623376118249247
 74
     0
 49
-6.623376118249247
 74
     0
 49
6.623376118249247
 74
     0
 49
-6.623376118249247
 74
     0
  0
ENDTAB
  0
TABLE
  2
LAYER
  5
1D7F
330
0
100
AcDbSymbolTable
 70
     4
  0
LAYER
  5
1D8D
330
1D7F
100
AcDbSymbolTableRecord
100
AcDbLayerTableRecord
  2
0
 70
     0
 62
     7
  6
CONTINUOUS
370
    -3
390
1D8C
  0
LAYER
  5
1D9F
330
1D7F
100
AcDbSymbolTableRecord
100
AcDbLayerTableRecord
  2
AM_0
 70
     0
 62
     7
  6
CONTINUOUS
370
    -3
390
1D8C
  0
LAYER
  5
1DA5
330
1D7F
100
AcDbSymbolTableRecord
100
AcDbLayerTableRecord
  2
1
 70
     0
 62
     7
  6
CONTINUOUS
370
    -3
390
1D8C
  0
LAYER
  5
20B4
330
1D7F
100
AcDbSymbolTableRecord
100
AcDbLayerTableRecord
  2
LAYER_1
 70
     0
 62
     5
  6
CONTINUOUS
370
    -3
390
1D8C
  0
ENDTAB
  0
TABLE
  2
STYLE
  5
1D80
330
0
100
AcDbSymbolTable
 70
     1
  0
STYLE
  5
1D8E
330
1D80
100
AcDbSymbolTableRecord
100
AcDbTextStyleTableRecord
  2
STANDARD
 70
     0
 40
0.0
 41
1.0
 50
0.0
 71
     0
 42
2.5
  3
ISOCP.SHX
  4

  0
ENDTAB
  0
TABLE
  2
VIEW
  5
1D83
330
0
100
AcDbSymbolTable
 70
     0
  0
ENDTAB
  0
TABLE
  2
UCS
  5
1D84
330
0
100
AcDbSymbolTable
 70
     0
  0
ENDTAB
  0
TABLE
  2
APPID
  5
1D86
330
0
100
AcDbSymbolTable
 70
    13
  0
APPID
  5
1D8F
330
1D86
100
AcDbSymbolTableRecord
100
AcDbRegAppTableRecord
  2
ACAD
 70
     0
  0
APPID
  5
1DA6
330
1D86
100
AcDbSymbolTableRecord
100
AcDbRegAppTableRecord
  2
GENIUS_GENDIM_13
 70
     0
  0
APPID
  5
1DA7
330
1D86
100
AcDbSymbolTableRecord
100
AcDbRegAppTableRecord
  2
GENIUS_GENDTOL_13
 70
     0
  0
APPID
  5
1DA8
330
1D86
100
AcDbSymbolTableRecord
100
AcDbRegAppTableRecord
  2
GENIUS_GE3DTOL_13
 70
     0
  0
APPID
  5
1DA9
330
1D86
100
AcDbSymbolTableRecord
100
AcDbRegAppTableRecord
  2
MCAD_NO_VIS
 70
     0
  0
APPID
  5
1DAA
330
1D86
100
AcDbSymbolTableRecord
100
AcDbRegAppTableRecord
  2
ACAD_TEMP_GRAPHIC
 70
     0
  0
APPID
  5
1DAB
330
1D86
100
AcDbSymbolTableRecord
100
AcDbRegAppTableRecord
  2
AD_DRAW
 70
     0
  0
APPID
  5
1DAC
330
1D86
100
AcDbSymbolTableRecord
100
AcDbRegAppTableRecord
  2
ACATTRIBSERVICES
 70
     0
  0
APPID
  5
1DAD
330
1D86
100
AcDbSymbolTableRecord
100
AcDbRegAppTableRecord
  2
ASURF_PCURVE_APPNAME
 70
     0
  0
APPID
  5
1DAE
330
1D86
100
AcDbSymbolTableRecord
100
AcDbRegAppTableRecord
  2
DESIGNERASSEMBLIES
 70
     0
  0
APPID
  5
1DAF
330
1D86
100
AcDbSymbolTableRecord
100
AcDbRegAppTableRecord
  2
ACADM_DIM_EDIT
 70
     0
  0
APPID
  5
1DB0
330
1D86
100
AcDbSymbolTableRecord
100
AcDbRegAppTableRecord
  2
G3V_ENTHND
 70
     0
  0
APPID
  5
1DB1
330
1D86
100
AcDbSymbolTableRecord
100
AcDbRegAppTableRecord
  2
GENIUS_GENDIMSH_14
 70
     0
  0
ENDTAB
  0
TABLE
  2
DIMSTYLE
  5
1D87
330
0
100
AcDbSymbolTable
 70
     2
100
AcDbDimStyleTable
 71
     0
  0
DIMSTYLE
105
1DB2
330
1D87
100
AcDbSymbolTableRecord
100
AcDbDimStyleTableRecord
  2
ISO-25
 70
     0
 41
2.5
 42
0.625
 43
3.75
 44
1.25
 73
     0
 74
     0
 77
     1
 78
     8
140
2.5
141
2.5
143
0.03937007874016
147
0.625
171
     3
172
     1
271
     2
272
     2
274
     3
279
     2
284
     8
285
     8
286
     8
340
1D8E
  0
DIMSTYLE
105
20B5
330
1D87
100
AcDbSymbolTableRecord
100
AcDbDimStyleTableRecord
  2
Standard
 70
     0
340
1D8E
  0
ENDTAB
  0
TABLE
  2
BLOCK_RECORD
  5
1D7E
330
0
100
AcDbSymbolTable
 70
    26
  0
BLOCK_RECORD
  5
1D9B
330
1D7E
100
AcDbSymbolTableRecord
100
AcDbBlockTableRecord
  2
*Model_Space
340
1D9E
  0
BLOCK_RECORD
  5
1D97
330
1D7E
100
AcDbSymbolTableRecord
100
AcDbBlockTableRecord
  2
*Paper_Space
340
1D9A
  0
BLOCK_RECORD
  5
1DB4
330
1D7E
100
AcDbSymbolTableRecord
100
AcDbBlockTableRecord
  2
$MODEL_SPACE
340
0
  0
BLOCK_RECORD
  5
1DB7
330
1D7E
100
AcDbSymbolTableRecord
100
AcDbBlockTableRecord
  2
$PAPER_SPACE
340
0
  0
BLOCK_RECORD
  5
2048
330
1D7E
100
AcDbSymbolTableRecord
100
AcDbBlockTableRecord
  2
AI9-BLK14
340
0
310
2800000020000000200000000100080000000000000400000000000000000000000000000000000000000000000080000080000000808000800000008000800080800000C0C0C000C0DCC000F0CAA6000020400000206000002080000020A0000020C0000020E00000400000004020000040400000406000004080000040A0
310
000040C0000040E00000600000006020000060400000606000006080000060A0000060C0000060E00000800000008020000080400000806000008080000080A0000080C0000080E00000A0000000A0200000A0400000A0600000A0800000A0A00000A0C00000A0E00000C0000000C0200000C0400000C0600000C0800000C0
310
A00000C0C00000C0E00000E0000000E0200000E0400000E0600000E0800000E0A00000E0C00000E0E00040000000400020004000400040006000400080004000A0004000C0004000E00040200000402020004020400040206000402080004020A0004020C0004020E000404000004040200040404000404060004040800040
310
40A0004040C0004040E00040600000406020004060400040606000406080004060A0004060C0004060E00040800000408020004080400040806000408080004080A0004080C0004080E00040A0000040A0200040A0400040A0600040A0800040A0A00040A0C00040A0E00040C0000040C0200040C0400040C0600040C08000
310
40C0A00040C0C00040C0E00040E0000040E0200040E0400040E0600040E0800040E0A00040E0C00040E0E00080000000800020008000400080006000800080008000A0008000C0008000E00080200000802020008020400080206000802080008020A0008020C0008020E00080400000804020008040400080406000804080
310
008040A0008040C0008040E00080600000806020008060400080606000806080008060A0008060C0008060E00080800000808020008080400080806000808080008080A0008080C0008080E00080A0000080A0200080A0400080A0600080A0800080A0A00080A0C00080A0E00080C0000080C0200080C0400080C0600080C0
310
800080C0A00080C0C00080C0E00080E0000080E0200080E0400080E0600080E0800080E0A00080E0C00080E0E000C0000000C0002000C0004000C0006000C0008000C000A000C000C000C000E000C0200000C0202000C0204000C0206000C0208000C020A000C020C000C020E000C0400000C0402000C0404000C0406000C0
310
408000C040A000C040C000C040E000C0600000C0602000C0604000C0606000C0608000C060A000C060C000C060E000C0800000C0802000C0804000C0806000C0808000C080A000C080C000C080E000C0A00000C0A02000C0A04000C0A06000C0A08000C0A0A000C0A0C000C0A0E000C0C00000C0C02000C0C04000C0C06000
310
C0C08000C0C0A000F0FBFF00A4A0A000808080000000FF0000FF000000FFFF00FF000000FF00FF00FFFF0000FFFFFF00FF00FFFFFFFF00FFFFFFFFFFFFFFFFFFFFFFFFFFFFFFFFFFFFFFFFFFFFFFFFFFFF00FFFFFFFF00FFFFFFFFFFFFFFFFFFFFFFFFFFFFFFFFFFFFFFFFFFFFFFFFFFFF00FFFFFFFF00FFFFFFFFFFFFFFFF
310
FFFFFFFFFFFFFFFFFFFFFFFFFFFFFFFFFFFF00FFFFFFFF00FFFFFFFFFFFFFFFFFFFFFFFFFFFFFFFFFFFFFFFFFFFFFFFFFFFF00FFFFFFFF00FFFFFFFFFFFFFFFFFFFFFFFFFFFFFFFFFFFFFFFFFFFFFFFFFFFF00FFFFFFFF00FFFFFFFFFFFFFFFFFFFFFFFFFFFFFFFFFFFFFFFFFFFFFFFFFFFF00FFFFFFFF00FFFFFFFFFFFFFF
310
FFFFFFFFFFFFFFFFFFFFFFFFFFFFFFFFFFFFFF00FFFFFFFF00FFFFFFFFFFFFFFFFFFFFFFFFFFFFFFFFFFFFFFFFFFFFFFFFFFFF00FFFFFFFF00FFFFFFFFFFFFFFFFFFFFFFFFFFFFFFFFFFFFFFFFFFFFFFFFFFFF00FFFFFFFF00FFFFFFFFFFFFFFFFFFFFFFFFFFFFFFFFFFFFFFFFFFFFFFFFFFFF00FFFFFFFF00FFFFFFFFFFFF
310
FFFFFFFFFFFFFFFFFFFFFFFFFFFFFFFFFFFFFFFF00FFFFFFFF00FFFFFFFFFFFFFFFFFFFFFFFFFFFFFFFFFFFFFFFFFFFFFFFFFFFF00FFFFFFFF00FFFFFFFFFFFFFFFFFFFFFFFFFFFFFFFFFFFFFFFFFFFFFFFFFFFF00FFFFFFFF0000000000000000000000000000000000000000000000000000FF00FFFFFFFFFFFFFFFFFFFF
310
FFFFFFFFFFFFFFFFFFFFFFFFFFFFFFFFFFFFFFFFFF00FFFFFFFFFFFFFFFFFFFFFFFFFFFFFFFFFFFFFFFFFFFFFFFFFFFFFFFFFFFFFF00FFFFFFFFFFFFFFFFFFFFFFFFFFFFFFFFFFFFFFFFFFFFFFFFFFFFFFFFFFFFFF00FFFFFFFFFFFFFFFFFFFFFFFFFFFFFFFFFFFFFFFFFFFFFFFFFFFFFFFFFF00FF00000000000000000000
310
0000000000000000000000000000000000000000FFFFFFFFFFFFFFFFFFFFFFFFFFFFFFFFFFFFFFFFFFFFFFFFFFFFFFFFFFFFFFFFFFFFFFFFFFFFFFFFFFFFFFFFFFFFFFFFFFFFFFFFFFFFFFFFFFFFFFFFFFFFFFFFFFFFFFFFFFFFFFFFFFFFFFFFFFFFFFFFFFFFFFFFFFFFFFFFFFFFFFFFFFFFFFFFFFFFFFFFFFFFFFFFFFFFFF
310
FFFFFFFFFFFFFFFFFFFFFFFFFFFFFFFFFFFFFFFFFFFFFFFFFFFFFFFFFFFFFFFFFFFFFFFFFFFFFFFFFFFFFFFFFFFFFFFFFFFFFFFFFFFFFFFFFFFFFFFFFFFFFFFFFFFFFFFFFFFFFFFFFFFFFFFFFFFFFFFFFFFFFFFFFFFFFFFFFFFFFFFFFFFFFFFFFFFFFFFFFFFFFFFFFFFFFFFFFFFFFFFFFFFFFFFFFFFFFFFFFFFFFFFFFFFFFF
310
FFFFFFFFFFFFFFFFFFFFFFFFFFFFFFFFFFFFFFFFFFFFFFFFFFFFFFFFFFFFFFFFFFFFFFFFFFFFFFFFFFFFFFFFFFFFFFFFFFFFFFFFFFFFFFFFFFFFFFFFFFFFFFFFFFFFFFFFFFFFFFFFFFFFFFFFFFFFFFFFFFFFFFFFFFFFFFFFFFFFFFFFFFFFFFFFFFFFFFFFFFFFFFFFFFFFFFFFFFFFFFFFFFFFFFFFFFFFFFFFFFFFFFFFFFFFFF
310
FFFFFFFFFFFFFFFFFFFFFFFFFFFFFFFFFFFFFFFFFFFFFFFFFFFFFFFFFFFFFFFFFFFFFFFFFFFFFFFFFFFFFFFFFFFFFFFFFFFFFFFFFFFFFFFF
102
{BLKREFS
331
2089
102
}
  0
BLOCK_RECORD
  5
204D
330
1D7E
100
AcDbSymbolTableRecord
100
AcDbBlockTableRecord
  2
AI9-BLK13
340
0
310
2800000020000000200000000100080000000000000400000000000000000000000000000000000000000000000080000080000000808000800000008000800080800000C0C0C000C0DCC000F0CAA6000020400000206000002080000020A0000020C0000020E00000400000004020000040400000406000004080000040A0
310
000040C0000040E00000600000006020000060400000606000006080000060A0000060C0000060E00000800000008020000080400000806000008080000080A0000080C0000080E00000A0000000A0200000A0400000A0600000A0800000A0A00000A0C00000A0E00000C0000000C0200000C0400000C0600000C0800000C0
310
A00000C0C00000C0E00000E0000000E0200000E0400000E0600000E0800000E0A00000E0C00000E0E00040000000400020004000400040006000400080004000A0004000C0004000E00040200000402020004020400040206000402080004020A0004020C0004020E000404000004040200040404000404060004040800040
310
40A0004040C0004040E00040600000406020004060400040606000406080004060A0004060C0004060E00040800000408020004080400040806000408080004080A0004080C0004080E00040A0000040A0200040A0400040A0600040A0800040A0A00040A0C00040A0E00040C0000040C0200040C0400040C0600040C08000
310
40C0A00040C0C00040C0E00040E0000040E0200040E0400040E0600040E0800040E0A00040E0C00040E0E00080000000800020008000400080006000800080008000A0008000C0008000E00080200000802020008020400080206000802080008020A0008020C0008020E00080400000804020008040400080406000804080
310
008040A0008040C0008040E00080600000806020008060400080606000806080008060A0008060C0008060E00080800000808020008080400080806000808080008080A0008080C0008080E00080A0000080A0200080A0400080A0600080A0800080A0A00080A0C00080A0E00080C0000080C0200080C0400080C0600080C0
310
800080C0A00080C0C00080C0E00080E0000080E0200080E0400080E0600080E0800080E0A00080E0C00080E0E000C0000000C0002000C0004000C0006000C0008000C000A000C000C000C000E000C0200000C0202000C0204000C0206000C0208000C020A000C020C000C020E000C0400000C0402000C0404000C0406000C0
310
408000C040A000C040C000C040E000C0600000C0602000C0604000C0606000C0608000C060A000C060C000C060E000C0800000C0802000C0804000C0806000C0808000C080A000C080C000C080E000C0A00000C0A02000C0A04000C0A06000C0A08000C0A0A000C0A0C000C0A0E000C0C00000C0C02000C0C04000C0C06000
310
C0C08000C0C0A000F0FBFF00A4A0A000808080000000FF0000FF000000FFFF00FF000000FF00FF00FFFF0000FFFFFF00FFFFFFFFFFFFFFFFFFFFFFFFFFFFFFFFFFFFFFFFFFFFFFFFFFFFFFFFFFFFFFFFFFFFFFFFFFFFFFFFFFFFFF0000FFFFFFFFFFFF0000FFFFFFFFFFFFFFFFFFFFFFFFFFFFFFFFFFFFFFFFFFFF0000FFFF
310
FFFFFFFF0000FFFFFFFFFFFFFFFFFFFFFFFFFFFFFFFFFFFFFFFFFFFF0000FFFFFFFFFFFF0000FFFFFFFFFFFFFFFFFFFFFFFFFFFFFFFFFFFFFFFFFFFF0000FFFFFFFFFFFF0000FFFFFFFFFFFFFFFFFFFFFFFFFFFFFFFFFFFFFFFFFFFF0000FFFFFFFFFFFF0000FFFFFFFFFFFFFFFFFFFFFFFFFFFFFFFFFFFFFFFFFFFF0000FF
310
FFFFFFFFFF0000FFFFFFFFFFFFFFFFFFFFFFFFFFFFFFFFFFFFFFFFFFFF0000FFFFFFFFFFFF0000FFFFFFFFFFFFFFFFFFFFFFFFFFFFFFFFFFFFFFFFFFFF0000FFFFFFFFFFFF0000FFFFFFFFFFFFFFFFFFFFFFFFFFFFFFFFFFFFFFFFFFFF0000FFFFFFFFFFFF0000FFFFFFFFFFFFFFFFFFFFFFFFFFFFFFFFFFFFFFFFFFFF0000
310
FFFFFFFFFFFF0000FFFFFFFFFFFFFFFFFFFFFFFFFFFFFFFFFFFFFFFFFFFF0000FFFFFFFFFFFF0000FFFFFFFFFFFFFFFFFFFFFFFFFFFFFFFFFFFFFFFFFFFF0000FFFFFFFFFFFF0000FFFFFFFFFFFFFFFFFFFFFFFFFFFFFFFFFFFFFFFFFFFF0000FFFFFFFFFFFF0000FFFFFFFFFFFFFFFFFFFFFFFFFFFFFFFFFFFFFFFFFFFF00
310
00FFFFFFFFFFFF0000FFFFFFFFFFFFFFFFFFFFFFFFFFFFFFFFFFFFFFFFFFFF00000000000000000000FFFFFFFFFFFFFFFFFFFFFFFFFFFFFFFFFFFFFFFFFFFF00FFFFFFFFFFFFFFFF00FFFFFFFFFFFFFFFFFFFFFFFFFFFFFFFFFFFFFFFFFFFF00FFFFFFFFFFFFFFFF00FFFFFFFFFFFFFFFFFFFFFFFFFFFFFFFFFFFFFFFFFFFF
310
00000000000000000000FFFFFFFFFFFFFFFFFFFFFFFFFFFFFFFFFFFFFFFFFFFF0000FFFFFFFFFFFF0000FFFFFFFFFFFFFFFFFFFFFFFFFFFFFFFFFFFFFFFFFFFF0000FFFFFFFFFFFF0000FFFFFFFFFFFFFFFFFFFFFFFFFFFFFFFFFFFFFFFFFFFF0000FFFFFFFFFFFF0000FFFFFFFFFFFFFFFFFFFFFFFFFFFFFFFFFFFFFFFFFF
310
FF0000FFFFFFFFFFFF0000FFFFFFFFFFFFFFFFFFFFFFFFFFFFFFFFFFFFFFFFFFFF0000FFFFFFFFFFFF0000FFFFFFFFFFFFFFFFFFFFFFFFFFFFFFFFFFFFFFFFFFFF0000FFFFFFFFFFFF0000FFFFFFFFFFFFFFFFFFFFFFFFFFFFFFFFFFFFFFFFFFFF0000FFFFFFFFFFFF0000FFFFFFFFFFFFFFFFFFFFFFFFFFFFFFFFFFFFFFFF
310
FFFF0000FFFFFFFFFFFF0000FFFFFFFFFFFFFFFFFFFFFFFFFFFFFFFFFFFFFFFFFFFF0000FFFFFFFFFFFF0000FFFFFFFFFFFFFFFFFFFFFFFFFFFFFFFFFFFFFFFFFFFF0000FFFFFFFFFFFF0000FFFFFFFFFFFFFFFFFFFFFFFFFFFFFFFFFFFFFFFFFFFF0000FFFFFFFFFFFF0000FFFFFFFFFFFFFFFFFFFFFFFFFFFFFFFFFFFFFF
310
FFFFFF0000FFFFFFFFFFFF0000FFFFFFFFFFFFFFFFFFFFFFFFFFFFFFFFFFFFFFFFFFFFFFFFFFFFFFFFFFFFFFFFFFFFFFFFFFFFFFFFFFFFFF
102
{BLKREFS
331
208A
102
}
  0
BLOCK_RECORD
  5
2052
330
1D7E
100
AcDbSymbolTableRecord
100
AcDbBlockTableRecord
  2
AI9-BLK11
340
0
310
2800000020000000200000000100080000000000000400000000000000000000000000000000000000000000000080000080000000808000800000008000800080800000C0C0C000C0DCC000F0CAA6000020400000206000002080000020A0000020C0000020E00000400000004020000040400000406000004080000040A0
310
000040C0000040E00000600000006020000060400000606000006080000060A0000060C0000060E00000800000008020000080400000806000008080000080A0000080C0000080E00000A0000000A0200000A0400000A0600000A0800000A0A00000A0C00000A0E00000C0000000C0200000C0400000C0600000C0800000C0
310
A00000C0C00000C0E00000E0000000E0200000E0400000E0600000E0800000E0A00000E0C00000E0E00040000000400020004000400040006000400080004000A0004000C0004000E00040200000402020004020400040206000402080004020A0004020C0004020E000404000004040200040404000404060004040800040
310
40A0004040C0004040E00040600000406020004060400040606000406080004060A0004060C0004060E00040800000408020004080400040806000408080004080A0004080C0004080E00040A0000040A0200040A0400040A0600040A0800040A0A00040A0C00040A0E00040C0000040C0200040C0400040C0600040C08000
310
40C0A00040C0C00040C0E00040E0000040E0200040E0400040E0600040E0800040E0A00040E0C00040E0E00080000000800020008000400080006000800080008000A0008000C0008000E00080200000802020008020400080206000802080008020A0008020C0008020E00080400000804020008040400080406000804080
310
008040A0008040C0008040E00080600000806020008060400080606000806080008060A0008060C0008060E00080800000808020008080400080806000808080008080A0008080C0008080E00080A0000080A0200080A0400080A0600080A0800080A0A00080A0C00080A0E00080C0000080C0200080C0400080C0600080C0
310
800080C0A00080C0C00080C0E00080E0000080E0200080E0400080E0600080E0800080E0A00080E0C00080E0E000C0000000C0002000C0004000C0006000C0008000C000A000C000C000C000E000C0200000C0202000C0204000C0206000C0208000C020A000C020C000C020E000C0400000C0402000C0404000C0406000C0
310
408000C040A000C040C000C040E000C0600000C0602000C0604000C0606000C0608000C060A000C060C000C060E000C0800000C0802000C0804000C0806000C0808000C080A000C080C000C080E000C0A00000C0A02000C0A04000C0A06000C0A08000C0A0A000C0A0C000C0A0E000C0C00000C0C02000C0C04000C0C06000
310
C0C08000C0C0A000F0FBFF00A4A0A000808080000000FF0000FF000000FFFF00FF000000FF00FF00FFFF0000FFFFFF00FFFFFFFFFFFFFFFFFFFFFFFFFFFFFFFFFFFFFFFFFFFFFFFFFFFFFFFFFFFFFFFFFFFFFFFFFFFFFFFFFFFFFFFFFFFF00000000FFFFFFFFFFFFFFFFFFFFFF000000FFFFFFFFFFFFFFFFFFFFFFFFFFFF00
310
FFFF00FFFFFFFFFFFFFFFFFFFFFF00FFFFFFFFFFFFFFFFFFFFFFFFFFFFFFFF00FFFF00FFFFFFFFFFFFFFFFFFFFFF00FFFFFFFFFFFFFFFFFFFFFFFFFFFFFFFF00FFFF00FFFFFFFFFFFFFFFFFFFFFF00FFFFFFFFFFFFFFFFFFFFFFFFFFFFFFFF00FFFF00FFFFFFFFFFFFFFFFFFFFFF00FFFFFFFFFFFFFFFFFFFFFFFFFFFFFFFF
310
00FFFF00FFFFFFFFFFFFFFFFFFFFFF00FFFFFFFFFFFFFFFFFFFFFFFFFFFFFFFF00FFFF00FFFFFFFFFFFFFFFFFFFFFF00FFFFFFFFFFFFFFFFFFFFFFFFFFFFFFFF00FFFF00FFFFFFFFFFFFFFFFFFFFFF00FFFFFFFFFFFFFFFFFFFFFFFFFFFFFFFF00FFFF00FFFFFFFFFFFFFFFFFFFFFF00FFFFFFFFFFFFFFFFFFFFFFFFFFFFFF
310
FF00FFFF00FFFFFFFFFFFFFFFFFFFFFF00FFFFFFFFFFFFFFFFFFFFFFFFFFFFFFFF00FFFF00FFFFFFFFFFFFFFFFFFFFFF00FFFFFFFFFFFFFFFFFFFFFFFFFFFFFFFF00FFFF00FFFFFFFFFFFFFFFFFFFFFF00FFFFFFFFFFFFFFFFFFFFFFFFFFFFFFFF00FFFF00FFFFFFFFFFFFFFFFFFFFFF00FFFFFFFFFFFFFFFFFFFFFFFFFFFF
310
FFFF00FFFF00FFFFFFFFFFFFFFFFFFFFFF00FFFFFFFFFFFFFFFFFFFFFFFFFFFFFFFF00FFFF00FFFFFFFFFFFFFFFFFFFFFF00FFFFFFFFFFFFFFFFFFFFFFFFFFFFFFFF00FFFF00FFFFFFFFFFFFFFFFFFFFFF00FFFFFFFFFFFFFFFFFFFFFFFFFFFFFFFF00FFFF00FFFFFFFFFFFFFFFFFFFF00FFFFFFFFFFFFFFFFFFFFFFFFFFFF
310
FFFFFF00FFFF00FFFFFFFFFFFFFFFFFFFF00FFFFFFFFFFFFFFFFFFFFFFFFFFFFFFFFFF00FFFF00FFFFFFFFFFFFFFFFFFFF00FFFFFFFFFFFFFFFFFFFFFFFFFFFFFFFFFF00FFFF00FFFFFFFFFFFFFFFFFFFF00FFFFFFFFFFFFFFFFFFFFFFFFFFFFFFFFFF00FFFF00FFFFFFFFFFFFFFFFFFFF00FFFFFFFFFFFFFFFFFFFFFFFFFF
310
FFFFFFFF00FFFF00FFFFFFFFFFFFFFFFFF0000FFFF00FFFFFFFFFFFFFFFFFFFFFFFFFFFF00FFFF00FFFFFFFFFFFFFFFF0000FFFFFF00FFFFFFFFFFFFFFFFFFFFFFFFFFFF00FFFF00000000000000000000FFFFFFFF00FFFFFFFFFFFFFFFFFFFFFFFFFFFF00FFFFFFFFFFFFFFFFFFFFFFFFFFFFFF00FFFFFFFFFFFFFFFFFFFF
310
FFFFFFFFFF00FFFFFFFFFFFFFFFFFFFFFFFFFFFF00FFFFFFFFFFFFFFFFFFFFFFFFFFFFFFFF00FFFFFFFFFFFFFFFFFFFFFFFFFFFF00FFFFFFFFFFFFFFFFFFFFFFFFFFFFFFFF00FFFFFFFFFFFFFFFFFFFFFFFFFFFFFF00FFFFFFFFFFFFFFFFFFFFFFFFFFFFFF00FFFFFFFFFFFFFFFFFFFFFFFFFFFFFF00FFFFFFFFFFFFFFFFFF
310
FFFFFFFFFFFF00FFFF00000000000000000000FFFFFFFF00FFFFFFFFFFFFFFFFFFFFFFFFFFFF00FFFF00FFFFFFFFFFFFFFFFFF0000FFFF00
102
{BLKREFS
331
208B
102
}
  0
BLOCK_RECORD
  5
2057
330
1D7E
100
AcDbSymbolTableRecord
100
AcDbBlockTableRecord
  2
AI9-BLK10
340
0
310
2800000020000000200000000100080000000000000400000000000000000000000000000000000000000000000080000080000000808000800000008000800080800000C0C0C000C0DCC000F0CAA6000020400000206000002080000020A0000020C0000020E00000400000004020000040400000406000004080000040A0
310
000040C0000040E00000600000006020000060400000606000006080000060A0000060C0000060E00000800000008020000080400000806000008080000080A0000080C0000080E00000A0000000A0200000A0400000A0600000A0800000A0A00000A0C00000A0E00000C0000000C0200000C0400000C0600000C0800000C0
310
A00000C0C00000C0E00000E0000000E0200000E0400000E0600000E0800000E0A00000E0C00000E0E00040000000400020004000400040006000400080004000A0004000C0004000E00040200000402020004020400040206000402080004020A0004020C0004020E000404000004040200040404000404060004040800040
310
40A0004040C0004040E00040600000406020004060400040606000406080004060A0004060C0004060E00040800000408020004080400040806000408080004080A0004080C0004080E00040A0000040A0200040A0400040A0600040A0800040A0A00040A0C00040A0E00040C0000040C0200040C0400040C0600040C08000
310
40C0A00040C0C00040C0E00040E0000040E0200040E0400040E0600040E0800040E0A00040E0C00040E0E00080000000800020008000400080006000800080008000A0008000C0008000E00080200000802020008020400080206000802080008020A0008020C0008020E00080400000804020008040400080406000804080
310
008040A0008040C0008040E00080600000806020008060400080606000806080008060A0008060C0008060E00080800000808020008080400080806000808080008080A0008080C0008080E00080A0000080A0200080A0400080A0600080A0800080A0A00080A0C00080A0E00080C0000080C0200080C0400080C0600080C0
310
800080C0A00080C0C00080C0E00080E0000080E0200080E0400080E0600080E0800080E0A00080E0C00080E0E000C0000000C0002000C0004000C0006000C0008000C000A000C000C000C000E000C0200000C0202000C0204000C0206000C0208000C020A000C020C000C020E000C0400000C0402000C0404000C0406000C0
310
408000C040A000C040C000C040E000C0600000C0602000C0604000C0606000C0608000C060A000C060C000C060E000C0800000C0802000C0804000C0806000C0808000C080A000C080C000C080E000C0A00000C0A02000C0A04000C0A06000C0A08000C0A0A000C0A0C000C0A0E000C0C00000C0C02000C0C04000C0C06000
310
C0C08000C0C0A000F0FBFF00A4A0A000808080000000FF0000FF000000FFFF00FF000000FF00FF00FFFF0000FFFFFF00FFFFFFFFFFFFFFFFFFFFFFFFFFFFFFFF00FFFFFFFFFFFFFFFFFFFFFFFF00FFFFFFFFFFFFFFFFFFFFFFFFFFFFFFFFFFFF00FFFFFFFFFFFFFFFFFFFFFF00FFFFFFFFFFFFFFFFFFFFFFFFFFFFFFFFFFFF
310
FF00FFFFFFFFFFFFFFFFFFFFFF00FFFFFFFFFFFFFFFFFFFFFFFFFFFFFFFFFFFFFF00FFFFFFFFFFFFFFFFFFFFFF00FFFFFFFFFFFFFFFFFFFFFFFFFFFFFFFFFFFFFF00FFFFFFFFFFFFFFFFFFFFFF00FFFFFFFFFFFFFFFFFFFFFFFFFFFFFFFFFFFFFF00FFFFFFFFFFFFFFFFFFFFFF00FFFFFFFFFFFFFFFFFFFFFFFFFFFFFFFFFF
310
FFFF00FFFFFFFFFFFFFFFFFFFFFF00FFFFFFFFFFFFFFFFFFFFFFFFFFFFFFFFFFFFFF00FFFFFFFFFFFFFFFFFFFF00FFFFFFFFFFFFFFFFFFFFFFFFFFFFFFFFFFFFFFFF00FFFFFFFFFFFFFFFFFFFF00FFFFFFFFFFFFFFFFFFFFFFFFFFFFFFFFFFFFFFFF00FFFFFFFFFFFFFFFFFFFF00FFFFFFFFFFFFFFFFFFFFFFFFFFFFFFFFFF
310
FFFFFF00FFFFFFFFFFFFFFFFFFFF00FFFFFFFFFFFFFFFFFFFFFFFFFFFFFFFFFFFFFFFF00FFFFFFFFFFFFFFFFFFFF00FFFFFFFFFFFFFFFFFFFFFFFFFFFFFFFFFFFFFFFF00FFFFFFFFFFFFFFFFFFFF00FFFFFFFFFFFFFFFFFFFFFFFFFFFFFFFFFFFFFFFF00FFFFFFFFFFFFFFFFFF00FFFFFFFFFFFFFFFFFFFFFFFFFFFFFFFFFF
310
FFFFFFFF00FFFFFFFFFFFFFFFFFF00FFFFFFFFFFFFFFFFFFFFFFFFFFFFFFFFFFFFFFFFFF00FFFFFFFFFFFFFFFFFF00FFFFFFFFFFFFFFFFFFFFFFFFFFFFFFFFFFFFFFFFFF0000000000000000000000FFFFFFFFFFFFFFFFFFFFFFFFFFFFFFFFFFFFFFFFFFFFFFFFFFFFFFFFFFFFFFFFFFFFFFFFFFFFFFFFFFFFFFFFFFFFFFFF
310
FFFFFFFFFFFFFFFFFFFFFFFFFFFFFFFFFFFFFFFFFFFFFFFFFFFFFFFFFFFFFFFFFFFFFFFFFFFFFFFFFFFFFFFFFFFFFFFFFFFFFFFFFFFFFFFFFFFFFFFFFFFFFFFFFFFFFFFFFFFFFFFFFFFFFFFFFFFFFFFFFFFFFFFFFFFFFFFFFFFFFFFFFFFFFFFFFFFFFFFFFFFFFFFFFFFFFFFFFFFFFFFFFFFFFFFFFFFFFFFFFFFFFFFFFFFFFF
310
FFFFFFFFFFFFFFFFFFFFFFFFFFFFFFFFFFFFFFFFFFFFFFFFFFFFFFFFFFFFFFFFFFFFFFFFFFFFFFFFFFFFFFFFFFFFFFFFFFFFFFFFFFFFFFFFFFFFFFFFFFFFFFFFFFFFFFFFFFFFFFFFFFFFFFFFFFFFFFFFFFFFFFFFFFFFFFFFFFFFFFFFFFFFFFFFFFFFFFFFFFFFFFFFFFFFFFFFFFFFFFFFFFFFFFFFFFFFFFFFFFFFFFFFFFFFFF
310
FFFFFFFFFFFFFFFFFFFFFFFFFFFFFFFFFFFFFFFFFFFFFFFFFFFFFFFFFFFFFFFFFFFFFFFFFFFFFFFFFFFFFFFFFFFFFFFFFFFFFFFFFFFFFFFFFFFFFFFFFFFFFFFFFFFFFFFFFFFFFFFFFFFFFFFFFFFFFFFFFFFFFFFFFFFFFFFFFFFFFFFFFFFFFFFFFFFFFFFFFFFFFFFFFFFFFFFFFFFFFFFFFFFFFFFFFFFFFFFFFFFFFFFFFFFFFF
310
FFFFFFFFFFFFFFFFFFFFFFFFFFFFFFFFFFFFFFFFFFFFFFFFFFFFFFFFFFFFFFFFFFFFFFFFFFFFFFFFFFFFFFFFFFFFFFFFFFFFFFFFFFFFFFFF
102
{BLKREFS
331
208C
102
}
  0
BLOCK_RECORD
  5
205B
330
1D7E
100
AcDbSymbolTableRecord
100
AcDbBlockTableRecord
  2
AI9-BLK9
340
0
310
2800000020000000200000000100080000000000000400000000000000000000000000000000000000000000000080000080000000808000800000008000800080800000C0C0C000C0DCC000F0CAA6000020400000206000002080000020A0000020C0000020E00000400000004020000040400000406000004080000040A0
310
000040C0000040E00000600000006020000060400000606000006080000060A0000060C0000060E00000800000008020000080400000806000008080000080A0000080C0000080E00000A0000000A0200000A0400000A0600000A0800000A0A00000A0C00000A0E00000C0000000C0200000C0400000C0600000C0800000C0
310
A00000C0C00000C0E00000E0000000E0200000E0400000E0600000E0800000E0A00000E0C00000E0E00040000000400020004000400040006000400080004000A0004000C0004000E00040200000402020004020400040206000402080004020A0004020C0004020E000404000004040200040404000404060004040800040
310
40A0004040C0004040E00040600000406020004060400040606000406080004060A0004060C0004060E00040800000408020004080400040806000408080004080A0004080C0004080E00040A0000040A0200040A0400040A0600040A0800040A0A00040A0C00040A0E00040C0000040C0200040C0400040C0600040C08000
310
40C0A00040C0C00040C0E00040E0000040E0200040E0400040E0600040E0800040E0A00040E0C00040E0E00080000000800020008000400080006000800080008000A0008000C0008000E00080200000802020008020400080206000802080008020A0008020C0008020E00080400000804020008040400080406000804080
310
008040A0008040C0008040E00080600000806020008060400080606000806080008060A0008060C0008060E00080800000808020008080400080806000808080008080A0008080C0008080E00080A0000080A0200080A0400080A0600080A0800080A0A00080A0C00080A0E00080C0000080C0200080C0400080C0600080C0
310
800080C0A00080C0C00080C0E00080E0000080E0200080E0400080E0600080E0800080E0A00080E0C00080E0E000C0000000C0002000C0004000C0006000C0008000C000A000C000C000C000E000C0200000C0202000C0204000C0206000C0208000C020A000C020C000C020E000C0400000C0402000C0404000C0406000C0
310
408000C040A000C040C000C040E000C0600000C0602000C0604000C0606000C0608000C060A000C060C000C060E000C0800000C0802000C0804000C0806000C0808000C080A000C080C000C080E000C0A00000C0A02000C0A04000C0A06000C0A08000C0A0A000C0A0C000C0A0E000C0C00000C0C02000C0C04000C0C06000
310
C0C08000C0C0A000F0FBFF00A4A0A000808080000000FF0000FF000000FFFF00FF000000FF00FF00FFFF0000FFFFFF00FFFFFFFFFFFFFFFFFFFFFFFFFFFFFFFFFFFFFFFFFFFFFFFFFFFFFFFFFFFFFFFFFFFFFFFFFFFFFFFFFFFFFFFFFFFFFF0000FFFFFFFFFFFFFFFFFFFFFFFFFFFFFFFFFFFFFFFFFFFFFFFFFFFFFFFF0000
310
FF0000FFFFFFFFFFFFFFFFFFFFFFFFFFFFFFFFFFFFFFFFFFFFFFFFFFFFFF00FFFFFF0000FFFFFFFFFFFFFFFFFFFFFFFFFFFFFFFFFFFFFFFFFFFFFFFFFFFF00FFFFFFFF0000FFFFFFFFFFFFFFFFFFFFFFFFFFFFFFFFFFFFFFFFFFFFFFFF00FF00000000FF00FFFFFFFFFFFFFFFFFFFFFFFFFFFFFFFFFFFFFFFFFFFFFFFF0000
310
00FFFF00FF00FFFFFFFFFFFFFFFFFFFFFFFFFFFFFFFFFFFFFFFFFFFFFFFF0000FFFFFFFF0000FFFFFFFFFFFFFFFFFFFFFFFFFFFFFFFFFFFFFFFFFFFFFFFF0000FFFFFFFF0000FFFFFFFFFFFFFFFFFFFFFFFFFFFFFFFFFFFFFFFFFFFFFF00FF00FFFFFFFF00FF00FFFFFFFFFFFFFFFFFFFFFFFFFFFFFFFFFFFFFFFFFFFF0000
310
FFFFFFFFFF00FF00FFFFFFFFFFFFFFFFFFFFFFFFFFFFFFFFFFFFFFFFFFFF0000FFFFFFFFFFFF0000FFFFFFFFFFFFFFFFFFFFFFFFFFFFFFFFFFFFFFFFFFFF0000FFFFFFFFFFFF0000FFFFFFFFFFFFFFFFFFFFFFFFFFFFFFFFFFFFFFFFFFFF0000FFFFFFFFFFFF0000FFFFFFFFFFFFFFFFFFFFFFFFFFFFFFFFFFFFFFFFFFFF00
310
00FFFFFFFFFFFF0000FFFFFFFFFFFFFFFFFFFFFFFFFFFFFFFFFFFFFFFFFFFF0000FFFFFFFFFFFF0000FFFFFFFFFFFFFFFFFFFFFFFFFFFFFFFFFFFFFFFFFFFF0000FFFFFFFFFFFF0000FFFFFFFFFFFFFFFFFFFFFFFFFFFFFFFFFFFFFFFFFFFF0000FFFFFFFFFFFF0000FFFFFFFFFFFFFFFFFFFFFFFFFFFFFFFFFFFFFFFFFFFF
310
0000FFFFFFFFFFFF0000FFFFFFFFFFFFFFFFFFFFFFFFFFFFFFFFFFFFFFFFFFFF0000FFFFFFFFFFFF0000FFFFFFFFFFFFFFFFFFFFFFFFFFFFFFFFFFFFFFFFFFFF0000FFFFFFFFFFFF0000FFFFFFFFFFFFFFFFFFFFFFFFFFFFFFFFFFFFFFFFFFFF00FF00FFFFFFFF00FF00FFFFFFFFFFFFFFFFFFFFFFFFFFFFFFFFFFFFFFFFFF
310
FF00FF00FFFFFFFF00FF00FFFFFFFFFFFFFFFFFFFFFFFFFFFFFFFFFFFFFFFFFFFF00FF00FFFFFFFF00FF00FFFFFFFFFFFFFFFFFFFFFFFFFFFFFFFFFFFFFFFFFFFFFF0000FFFFFFFF0000FFFFFFFFFFFFFFFFFFFFFFFFFFFFFFFFFFFFFFFFFFFFFFFF00FF00FFFF00FF00FFFFFFFFFFFFFFFFFFFFFFFFFFFFFFFFFFFFFFFFFF
310
FFFFFF00FF00000000FF00FFFFFFFFFFFFFFFFFFFFFFFFFFFFFFFFFFFFFFFFFFFFFFFFFF00FFFFFFFF0000FFFFFFFFFFFFFFFFFFFFFFFFFFFFFFFFFFFFFFFFFFFFFFFFFF00FFFFFFFF00FFFFFFFFFFFFFFFFFFFFFFFFFFFFFFFFFFFFFFFFFFFFFFFFFFFFFF00000000FFFFFFFFFFFFFFFFFFFFFFFFFFFFFFFFFFFFFFFFFFFF
310
FFFFFFFFFFFFFF0000FFFFFFFFFFFFFFFFFFFFFFFFFFFFFFFFFFFFFFFFFFFFFFFFFFFFFFFFFFFFFFFFFFFFFFFFFFFFFFFFFFFFFFFFFFFFFF
102
{BLKREFS
331
208D
102
}
  0
BLOCK_RECORD
  5
2060
330
1D7E
100
AcDbSymbolTableRecord
100
AcDbBlockTableRecord
  2
AI9-BLK8
340
0
310
2800000020000000200000000100080000000000000400000000000000000000000000000000000000000000000080000080000000808000800000008000800080800000C0C0C000C0DCC000F0CAA6000020400000206000002080000020A0000020C0000020E00000400000004020000040400000406000004080000040A0
310
000040C0000040E00000600000006020000060400000606000006080000060A0000060C0000060E00000800000008020000080400000806000008080000080A0000080C0000080E00000A0000000A0200000A0400000A0600000A0800000A0A00000A0C00000A0E00000C0000000C0200000C0400000C0600000C0800000C0
310
A00000C0C00000C0E00000E0000000E0200000E0400000E0600000E0800000E0A00000E0C00000E0E00040000000400020004000400040006000400080004000A0004000C0004000E00040200000402020004020400040206000402080004020A0004020C0004020E000404000004040200040404000404060004040800040
310
40A0004040C0004040E00040600000406020004060400040606000406080004060A0004060C0004060E00040800000408020004080400040806000408080004080A0004080C0004080E00040A0000040A0200040A0400040A0600040A0800040A0A00040A0C00040A0E00040C0000040C0200040C0400040C0600040C08000
310
40C0A00040C0C00040C0E00040E0000040E0200040E0400040E0600040E0800040E0A00040E0C00040E0E00080000000800020008000400080006000800080008000A0008000C0008000E00080200000802020008020400080206000802080008020A0008020C0008020E00080400000804020008040400080406000804080
310
008040A0008040C0008040E00080600000806020008060400080606000806080008060A0008060C0008060E00080800000808020008080400080806000808080008080A0008080C0008080E00080A0000080A0200080A0400080A0600080A0800080A0A00080A0C00080A0E00080C0000080C0200080C0400080C0600080C0
310
800080C0A00080C0C00080C0E00080E0000080E0200080E0400080E0600080E0800080E0A00080E0C00080E0E000C0000000C0002000C0004000C0006000C0008000C000A000C000C000C000E000C0200000C0202000C0204000C0206000C0208000C020A000C020C000C020E000C0400000C0402000C0404000C0406000C0
310
408000C040A000C040C000C040E000C0600000C0602000C0604000C0606000C0608000C060A000C060C000C060E000C0800000C0802000C0804000C0806000C0808000C080A000C080C000C080E000C0A00000C0A02000C0A04000C0A06000C0A08000C0A0A000C0A0C000C0A0E000C0C00000C0C02000C0C04000C0C06000
310
C0C08000C0C0A000F0FBFF00A4A0A000808080000000FF0000FF000000FFFF00FF000000FF00FF00FFFF0000FFFFFF00FFFFFFFFFFFFFFFFFFFFFFFFFFFFFFFFFFFFFFFFFFFFFFFFFFFFFFFFFFFFFFFFFFFFFFFFFFFFFFFFFFFFFF0000FFFFFFFFFFFF0000FFFFFFFFFFFFFFFFFFFFFFFFFFFFFFFFFFFFFFFFFFFF0000FFFF
310
FFFFFFFF0000FFFFFFFFFFFFFFFFFFFFFFFFFFFFFFFFFFFFFFFFFFFF0000FFFFFFFFFF00FF00FFFFFFFFFFFFFFFFFFFFFFFFFFFFFFFFFFFFFFFFFFFF0000FFFFFFFFFF00FF00FFFFFFFFFFFFFFFFFFFFFFFFFFFFFFFFFFFFFFFFFFFF0000FFFFFFFFFF00FF00FFFFFFFFFFFFFFFFFFFFFFFFFFFFFFFFFFFFFFFFFFFF0000FF
310
FFFFFF00FFFF00FFFFFFFFFFFFFFFFFFFFFFFFFFFFFFFFFFFFFFFFFFFF0000FFFFFFFF00FF0000FFFFFFFFFFFFFFFFFFFFFFFFFFFFFFFFFFFFFFFFFFFF0000FFFFFFFF00FF0000FFFFFFFFFFFFFFFFFFFFFFFFFFFFFFFFFFFFFFFFFFFF0000FFFFFFFF00000000FFFFFFFFFFFFFFFFFFFFFFFFFFFFFFFFFFFFFFFFFFFF0000
310
FFFFFF00FF000000FFFFFFFFFFFFFFFFFFFFFFFFFFFFFFFFFFFFFFFFFFFF0000FFFFFF00FF000000FFFFFFFFFFFFFFFFFFFFFFFFFFFFFFFFFFFFFFFFFFFF0000FFFFFF00FF000000FFFFFFFFFFFFFFFFFFFFFFFFFFFFFFFFFFFFFFFFFFFF0000FFFF00FF00FF0000FFFFFFFFFFFFFFFFFFFFFFFFFFFFFFFFFFFFFFFFFFFF00
310
00FFFF00FF00FF0000FFFFFFFFFFFFFFFFFFFFFFFFFFFFFFFFFFFFFFFFFFFF0000FFFF00FF00FF0000FFFFFFFFFFFFFFFFFFFFFFFFFFFFFFFFFFFFFFFFFFFF0000FF00FFFF00FF0000FFFFFFFFFFFFFFFFFFFFFFFFFFFFFFFFFFFFFFFFFFFF0000FF00FF00FFFF0000FFFFFFFFFFFFFFFFFFFFFFFFFFFFFFFFFFFFFFFFFFFF
310
0000FF00FF00FFFF0000FFFFFFFFFFFFFFFFFFFFFFFFFFFFFFFFFFFFFFFFFFFF0000FF00FF00FFFF0000FFFFFFFFFFFFFFFFFFFFFFFFFFFFFFFFFFFFFFFFFFFF000000FFFF00FFFF0000FFFFFFFFFFFFFFFFFFFFFFFFFFFFFFFFFFFFFFFFFFFF000000FF00FFFFFF0000FFFFFFFFFFFFFFFFFFFFFFFFFFFFFFFFFFFFFFFFFF
310
FF000000FF00FFFFFF0000FFFFFFFFFFFFFFFFFFFFFFFFFFFFFFFFFFFFFFFFFFFF0000FFFF00FFFFFF0000FFFFFFFFFFFFFFFFFFFFFFFFFFFFFFFFFFFFFFFFFFFF0000FFFF00FFFFFF0000FFFFFFFFFFFFFFFFFFFFFFFFFFFFFFFFFFFFFFFFFFFF00FFFF00FFFFFFFF0000FFFFFFFFFFFFFFFFFFFFFFFFFFFFFFFFFFFFFFFF
310
FFFF00FFFF00FFFFFFFF0000FFFFFFFFFFFFFFFFFFFFFFFFFFFFFFFFFFFFFFFFFFFF00FFFF00FFFFFFFF0000FFFFFFFFFFFFFFFFFFFFFFFFFFFFFFFFFFFFFFFFFFFF00FFFF00FFFFFFFF0000FFFFFFFFFFFFFFFFFFFFFFFFFFFFFFFFFFFFFFFFFFFF00FF00FFFFFFFFFF0000FFFFFFFFFFFFFFFFFFFFFFFFFFFFFFFFFFFFFF
310
FFFFFF000000FFFFFFFFFF0000FFFFFFFFFFFFFFFFFFFFFFFFFFFFFFFFFFFFFFFFFFFFFFFFFFFFFFFFFFFFFFFFFFFFFFFFFFFFFFFFFFFFFF
102
{BLKREFS
331
208E
102
}
  0
BLOCK_RECORD
  5
2065
330
1D7E
100
AcDbSymbolTableRecord
100
AcDbBlockTableRecord
  2
AI9-BLK7
340
0
310
2800000020000000200000000100080000000000000400000000000000000000000000000000000000000000000080000080000000808000800000008000800080800000C0C0C000C0DCC000F0CAA6000020400000206000002080000020A0000020C0000020E00000400000004020000040400000406000004080000040A0
310
000040C0000040E00000600000006020000060400000606000006080000060A0000060C0000060E00000800000008020000080400000806000008080000080A0000080C0000080E00000A0000000A0200000A0400000A0600000A0800000A0A00000A0C00000A0E00000C0000000C0200000C0400000C0600000C0800000C0
310
A00000C0C00000C0E00000E0000000E0200000E0400000E0600000E0800000E0A00000E0C00000E0E00040000000400020004000400040006000400080004000A0004000C0004000E00040200000402020004020400040206000402080004020A0004020C0004020E000404000004040200040404000404060004040800040
310
40A0004040C0004040E00040600000406020004060400040606000406080004060A0004060C0004060E00040800000408020004080400040806000408080004080A0004080C0004080E00040A0000040A0200040A0400040A0600040A0800040A0A00040A0C00040A0E00040C0000040C0200040C0400040C0600040C08000
310
40C0A00040C0C00040C0E00040E0000040E0200040E0400040E0600040E0800040E0A00040E0C00040E0E00080000000800020008000400080006000800080008000A0008000C0008000E00080200000802020008020400080206000802080008020A0008020C0008020E00080400000804020008040400080406000804080
310
008040A0008040C0008040E00080600000806020008060400080606000806080008060A0008060C0008060E00080800000808020008080400080806000808080008080A0008080C0008080E00080A0000080A0200080A0400080A0600080A0800080A0A00080A0C00080A0E00080C0000080C0200080C0400080C0600080C0
310
800080C0A00080C0C00080C0E00080E0000080E0200080E0400080E0600080E0800080E0A00080E0C00080E0E000C0000000C0002000C0004000C0006000C0008000C000A000C000C000C000E000C0200000C0202000C0204000C0206000C0208000C020A000C020C000C020E000C0400000C0402000C0404000C0406000C0
310
408000C040A000C040C000C040E000C0600000C0602000C0604000C0606000C0608000C060A000C060C000C060E000C0800000C0802000C0804000C0806000C0808000C080A000C080C000C080E000C0A00000C0A02000C0A04000C0A06000C0A08000C0A0A000C0A0C000C0A0E000C0C00000C0C02000C0C04000C0C06000
310
C0C08000C0C0A000F0FBFF00A4A0A000808080000000FF0000FF000000FFFF00FF000000FF00FF00FFFF0000FFFFFF00FFFFFFFFFFFFFFFFFFFFFFFFFFFFFFFFFFFFFFFFFFFFFFFFFFFFFFFFFFFFFFFFFFFFFFFFFFFFFFFFFFFFFFFFFFFFFF0000FFFFFFFFFFFFFFFFFFFFFFFFFFFFFFFFFFFFFFFFFFFFFFFFFFFFFFFFFFFF
310
0000FFFFFFFFFFFFFFFFFFFFFFFFFFFFFFFFFFFFFFFFFFFFFFFFFFFFFFFFFFFF0000FFFFFFFFFFFFFFFFFFFFFFFFFFFFFFFFFFFFFFFFFFFFFFFFFFFFFFFFFFFF0000FFFFFFFFFFFFFFFFFFFFFFFFFFFFFFFFFFFFFFFFFFFFFFFFFFFFFFFFFFFF0000FFFFFFFFFFFFFFFFFFFFFFFFFFFFFFFFFFFFFFFFFFFFFFFFFFFFFFFFFF
310
FF0000FFFFFFFFFFFFFFFFFFFFFFFFFFFFFFFFFFFFFFFFFFFFFFFFFFFFFFFFFFFF0000FFFFFFFFFFFFFFFFFFFFFFFFFFFFFFFFFFFFFFFFFFFFFFFFFFFFFFFFFFFF0000FFFFFFFFFFFFFFFFFFFFFFFFFFFFFFFFFFFFFFFFFFFFFFFFFFFFFFFFFFFF0000FFFFFFFFFFFFFFFFFFFFFFFFFFFFFFFFFFFFFFFFFFFFFFFFFFFFFFFF
310
FFFF0000FFFFFFFFFFFFFFFFFFFFFFFFFFFFFFFFFFFFFFFFFFFFFFFFFFFFFFFFFFFF0000FFFFFFFFFFFFFFFFFFFFFFFFFFFFFFFFFFFFFFFFFFFFFFFFFFFFFFFFFFFF0000FFFFFFFFFFFFFFFFFFFFFFFFFFFFFFFFFFFFFFFFFFFFFFFFFFFFFFFFFFFF0000FFFFFFFFFFFFFFFFFFFFFFFFFFFFFFFFFFFFFFFFFFFFFFFFFFFFFF
310
FFFFFF0000FFFFFFFFFFFFFFFFFFFFFFFFFFFFFFFFFFFFFFFFFFFFFFFFFFFFFFFFFFFF0000FFFFFFFFFFFFFFFFFFFFFFFFFFFFFFFFFFFFFFFFFFFFFFFFFFFFFFFFFFFF0000FFFFFFFFFFFFFFFFFFFFFFFFFFFFFFFFFFFFFFFFFFFFFFFFFFFFFFFFFFFF0000FFFFFFFFFFFFFFFFFFFFFFFFFFFFFFFFFFFFFFFFFFFFFFFFFFFF
310
FFFFFFFF0000FFFFFFFFFFFFFFFFFFFFFFFFFFFFFFFFFFFFFFFFFFFFFFFFFFFFFFFFFFFF0000FFFFFFFFFFFFFFFFFFFFFFFFFFFFFFFFFFFFFFFFFFFFFFFFFFFFFFFFFFFF0000FFFFFFFFFFFFFFFFFFFFFFFFFFFFFFFFFFFFFFFFFFFFFFFFFFFFFFFFFFFF0000FFFFFFFFFFFFFFFFFFFFFFFFFFFFFFFFFFFFFFFFFFFFFFFFFF
310
FFFFFFFFFF0000FFFFFFFFFFFFFFFFFFFFFFFFFFFFFFFFFFFFFFFFFFFFFFFFFFFFFFFFFFFF0000FFFFFFFFFFFFFFFFFFFFFFFFFFFFFFFFFFFFFFFFFFFFFFFFFFFFFFFFFFFF0000FFFFFFFFFFFFFFFFFFFFFFFFFFFFFFFFFFFFFFFFFFFFFFFFFFFFFFFFFFFF0000FFFFFFFFFFFFFFFFFFFFFFFFFFFFFFFFFFFFFFFFFFFFFFFF
310
FFFFFFFFFFFF0000FFFFFFFFFFFFFFFFFFFFFFFFFFFFFFFFFFFFFFFFFFFFFFFFFFFFFFFFFFFF0000FFFFFFFFFFFFFFFFFFFFFFFFFFFFFFFFFFFFFFFFFFFFFFFFFFFFFFFFFFFF0000FFFFFFFFFFFFFFFFFFFFFFFFFFFFFFFFFFFFFFFFFFFFFFFFFFFFFFFFFFFF0000FFFFFFFFFFFFFFFFFFFFFFFFFFFFFFFFFFFFFFFFFFFFFF
310
FFFFFFFFFFFFFF0000FFFFFFFFFFFFFFFFFFFFFFFFFFFFFFFFFFFFFFFFFFFFFFFFFFFFFFFFFFFFFFFFFFFFFFFFFFFFFFFFFFFFFFFFFFFFFF
102
{BLKREFS
331
208F
102
}
  0
BLOCK_RECORD
  5
206A
330
1D7E
100
AcDbSymbolTableRecord
100
AcDbBlockTableRecord
  2
AI9-BLK6
340
0
310
2800000020000000200000000100080000000000000400000000000000000000000000000000000000000000000080000080000000808000800000008000800080800000C0C0C000C0DCC000F0CAA6000020400000206000002080000020A0000020C0000020E00000400000004020000040400000406000004080000040A0
310
000040C0000040E00000600000006020000060400000606000006080000060A0000060C0000060E00000800000008020000080400000806000008080000080A0000080C0000080E00000A0000000A0200000A0400000A0600000A0800000A0A00000A0C00000A0E00000C0000000C0200000C0400000C0600000C0800000C0
310
A00000C0C00000C0E00000E0000000E0200000E0400000E0600000E0800000E0A00000E0C00000E0E00040000000400020004000400040006000400080004000A0004000C0004000E00040200000402020004020400040206000402080004020A0004020C0004020E000404000004040200040404000404060004040800040
310
40A0004040C0004040E00040600000406020004060400040606000406080004060A0004060C0004060E00040800000408020004080400040806000408080004080A0004080C0004080E00040A0000040A0200040A0400040A0600040A0800040A0A00040A0C00040A0E00040C0000040C0200040C0400040C0600040C08000
310
40C0A00040C0C00040C0E00040E0000040E0200040E0400040E0600040E0800040E0A00040E0C00040E0E00080000000800020008000400080006000800080008000A0008000C0008000E00080200000802020008020400080206000802080008020A0008020C0008020E00080400000804020008040400080406000804080
310
008040A0008040C0008040E00080600000806020008060400080606000806080008060A0008060C0008060E00080800000808020008080400080806000808080008080A0008080C0008080E00080A0000080A0200080A0400080A0600080A0800080A0A00080A0C00080A0E00080C0000080C0200080C0400080C0600080C0
310
800080C0A00080C0C00080C0E00080E0000080E0200080E0400080E0600080E0800080E0A00080E0C00080E0E000C0000000C0002000C0004000C0006000C0008000C000A000C000C000C000E000C0200000C0202000C0204000C0206000C0208000C020A000C020C000C020E000C0400000C0402000C0404000C0406000C0
310
408000C040A000C040C000C040E000C0600000C0602000C0604000C0606000C0608000C060A000C060C000C060E000C0800000C0802000C0804000C0806000C0808000C080A000C080C000C080E000C0A00000C0A02000C0A04000C0A06000C0A08000C0A0A000C0A0C000C0A0E000C0C00000C0C02000C0C04000C0C06000
310
C0C08000C0C0A000F0FBFF00A4A0A000808080000000FF0000FF000000FFFF00FF000000FF00FF00FFFF0000FFFFFF00FFFFFFFFFFFFFFFFFFFFFFFF00FFFFFFFFFFFFFF00FFFFFFFFFFFFFFFFFFFFFFFFFFFFFFFFFFFFFFFFFFFFFF00FFFFFFFFFFFFFF00FFFFFFFFFFFFFFFFFFFFFFFFFFFFFFFFFFFFFFFFFFFFFF00FFFF
310
FFFFFFFFFF00FFFFFFFFFFFFFFFFFFFFFFFFFFFFFFFFFFFFFFFFFFFF00FFFFFFFFFFFFFFFF00FFFFFFFFFFFFFFFFFFFFFFFFFFFFFFFFFFFFFFFFFFFF00FFFFFFFFFFFFFF00FFFFFFFFFFFFFFFFFFFFFFFFFFFFFFFFFFFFFFFFFFFFFF00FFFFFFFFFFFFFF00FFFFFFFFFFFFFFFFFFFFFFFFFFFFFFFFFFFFFFFFFFFF00FFFFFF
310
FFFFFFFFFF00FFFFFFFFFFFFFFFFFFFFFFFFFFFFFFFFFFFFFFFFFFFF00FFFFFFFFFFFFFF00FFFFFFFFFFFFFFFFFFFFFFFFFFFFFFFFFFFFFFFFFFFF00FFFFFFFFFFFFFFFF00FFFFFFFFFFFFFFFFFFFFFFFFFFFFFFFFFFFFFFFFFF00FFFFFFFFFFFFFFFFFF00FFFFFFFFFFFFFFFFFFFFFFFFFFFFFFFFFFFFFFFF00FFFFFFFFFF
310
FFFFFFFFFF00FFFFFFFFFFFFFFFFFFFFFFFFFFFFFFFFFFFFFF00FFFFFFFFFFFFFFFFFFFF00FFFFFFFFFFFFFFFFFFFFFFFFFFFFFFFFFFFF0000FFFFFFFFFFFFFFFFFFFFFF00FFFFFFFFFFFFFFFFFFFFFFFFFFFF00000000FFFFFFFFFFFFFFFFFFFFFFFFFF00FFFFFFFFFFFFFFFFFFFFFFFFFFFFFFFFFFFFFFFFFFFFFFFFFFFF
310
FFFFFFFF00FFFFFFFFFFFFFFFFFFFFFFFFFFFFFFFFFFFFFFFFFFFFFFFFFFFFFFFFFFFFFF00FFFFFFFFFFFFFFFFFFFFFFFFFFFFFFFFFFFFFFFFFFFFFFFFFFFFFFFFFFFFFF00FFFFFFFFFFFFFFFFFFFFFFFFFFFFFFFFFFFFFFFFFFFFFFFFFFFFFFFFFFFF00FFFFFFFFFFFFFFFFFFFFFFFFFFFFFFFFFFFFFFFFFFFFFFFFFFFFFF
310
FFFFFFFF00FFFFFFFFFFFFFFFFFFFFFFFFFFFFFFFFFFFFFFFFFFFFFFFFFFFFFFFFFFFF00FFFFFFFFFFFFFFFFFFFFFFFFFFFFFFFFFFFFFFFFFFFFFFFFFFFFFFFFFFFF00FFFFFFFFFFFFFFFFFFFFFFFFFFFFFFFFFFFFFFFFFFFFFFFFFFFFFFFFFFFF00FFFFFFFFFFFFFFFFFFFFFFFFFFFFFFFFFFFFFFFFFFFFFFFFFFFFFFFFFF
310
FF00FFFFFFFFFFFFFFFFFFFFFFFFFFFFFFFFFFFFFFFFFFFFFFFFFFFFFFFFFFFFFF00FFFFFFFFFFFFFFFFFFFFFFFFFFFFFFFFFFFFFFFFFFFFFFFFFFFFFFFFFFFF00FFFFFFFFFFFFFFFFFFFFFFFFFFFFFFFFFFFFFFFFFFFFFFFFFFFFFFFFFF0000FFFFFFFFFFFFFFFFFFFFFFFFFFFFFFFFFFFFFFFFFFFFFFFFFFFFFFFF0000FF
310
FFFFFFFFFFFFFFFFFFFFFFFFFFFFFFFFFFFFFFFFFFFFFFFFFF00000000FFFFFFFFFFFFFFFFFFFFFFFFFFFFFFFFFFFFFFFFFFFFFFFFFFFF0000FFFFFFFFFFFFFFFFFFFFFFFFFFFFFFFFFFFFFFFFFFFFFFFFFFFFFFFFFFFFFFFFFFFFFFFFFFFFFFFFFFFFFFFFFFFFFFFFFFFFFFFFFFFFFFFFFFFFFFFFFFFFFFFFFFFFFFFFFFFF
310
FFFFFFFFFFFFFFFFFFFFFFFFFFFFFFFFFFFFFFFFFFFFFFFFFFFFFFFFFFFFFFFFFFFFFFFFFFFFFFFFFFFFFFFFFFFFFFFFFFFFFFFFFFFFFFFF
102
{BLKREFS
331
2090
102
}
  0
BLOCK_RECORD
  5
206E
330
1D7E
100
AcDbSymbolTableRecord
100
AcDbBlockTableRecord
  2
AI9-BLK5
340
0
310
2800000020000000200000000100080000000000000400000000000000000000000000000000000000000000000080000080000000808000800000008000800080800000C0C0C000C0DCC000F0CAA6000020400000206000002080000020A0000020C0000020E00000400000004020000040400000406000004080000040A0
310
000040C0000040E00000600000006020000060400000606000006080000060A0000060C0000060E00000800000008020000080400000806000008080000080A0000080C0000080E00000A0000000A0200000A0400000A0600000A0800000A0A00000A0C00000A0E00000C0000000C0200000C0400000C0600000C0800000C0
310
A00000C0C00000C0E00000E0000000E0200000E0400000E0600000E0800000E0A00000E0C00000E0E00040000000400020004000400040006000400080004000A0004000C0004000E00040200000402020004020400040206000402080004020A0004020C0004020E000404000004040200040404000404060004040800040
310
40A0004040C0004040E00040600000406020004060400040606000406080004060A0004060C0004060E00040800000408020004080400040806000408080004080A0004080C0004080E00040A0000040A0200040A0400040A0600040A0800040A0A00040A0C00040A0E00040C0000040C0200040C0400040C0600040C08000
310
40C0A00040C0C00040C0E00040E0000040E0200040E0400040E0600040E0800040E0A00040E0C00040E0E00080000000800020008000400080006000800080008000A0008000C0008000E00080200000802020008020400080206000802080008020A0008020C0008020E00080400000804020008040400080406000804080
310
008040A0008040C0008040E00080600000806020008060400080606000806080008060A0008060C0008060E00080800000808020008080400080806000808080008080A0008080C0008080E00080A0000080A0200080A0400080A0600080A0800080A0A00080A0C00080A0E00080C0000080C0200080C0400080C0600080C0
310
800080C0A00080C0C00080C0E00080E0000080E0200080E0400080E0600080E0800080E0A00080E0C00080E0E000C0000000C0002000C0004000C0006000C0008000C000A000C000C000C000E000C0200000C0202000C0204000C0206000C0208000C020A000C020C000C020E000C0400000C0402000C0404000C0406000C0
310
408000C040A000C040C000C040E000C0600000C0602000C0604000C0606000C0608000C060A000C060C000C060E000C0800000C0802000C0804000C0806000C0808000C080A000C080C000C080E000C0A00000C0A02000C0A04000C0A06000C0A08000C0A0A000C0A0C000C0A0E000C0C00000C0C02000C0C04000C0C06000
310
C0C08000C0C0A000F0FBFF00A4A0A000808080000000FF0000FF000000FFFF00FF000000FF00FF00FFFF0000FFFFFF00FFFFFFFFFFFFFFFFFFFFFFFFFFFFFFFFFFFFFFFFFFFFFFFFFFFFFFFFFFFFFFFFFFFFFFFFFFFFFFFF000000000000000000000000000000000000000000000000FFFFFFFFFFFFFFFF00FFFFFFFFFFFF
310
FFFFFFFFFFFFFFFFFFFFFFFFFFFFFFFFFFFFFFFFFFFFFFFFFF00FFFFFFFFFFFFFFFFFFFFFFFFFFFFFFFFFFFFFFFFFFFFFFFFFFFFFFFFFFFFFF00FFFFFFFFFFFFFFFFFFFFFFFFFFFFFFFFFFFFFFFFFFFFFFFFFFFFFFFFFFFFFF00FFFFFFFFFFFFFFFFFFFFFFFFFFFFFFFFFFFFFFFFFFFFFFFFFFFFFFFFFFFFFF00FFFFFFFFFF
310
FFFFFFFFFFFFFFFFFFFFFFFFFFFFFFFFFFFFFFFFFFFFFFFFFFFF00FFFFFFFFFFFFFFFFFFFFFFFFFFFFFFFFFFFFFFFFFFFFFFFFFFFFFFFFFFFFFF00FFFFFFFFFFFFFFFFFFFFFFFFFFFFFFFFFFFFFFFFFFFFFFFFFFFFFFFFFFFFFF00FFFFFFFFFFFFFFFFFFFFFFFFFFFFFFFFFFFFFFFFFFFFFFFFFFFFFFFFFFFFFF00FFFFFFFF
310
FFFFFFFFFFFFFFFFFFFFFFFFFFFFFFFFFFFFFFFFFFFFFFFFFFFFFF00FFFFFFFFFFFFFFFFFFFFFFFFFFFFFFFFFFFFFFFFFFFFFFFFFFFFFFFFFFFFFF00FFFFFFFFFFFFFFFFFFFFFFFFFFFFFFFFFFFFFFFFFFFFFFFFFFFFFFFFFFFFFF00FFFFFFFFFFFFFFFFFFFFFFFFFFFFFFFFFFFFFFFFFFFFFFFFFFFFFFFFFFFFFF00FFFFFF
310
FFFFFFFFFFFFFFFFFFFFFFFFFFFFFFFFFFFFFFFFFFFFFFFFFFFFFFFF00FFFFFFFFFFFFFFFFFFFFFFFFFFFFFFFFFFFFFFFFFFFFFFFFFFFFFFFFFFFFFF00FFFFFFFFFFFFFFFFFFFFFFFFFFFFFFFFFFFFFFFFFFFFFFFFFFFFFFFFFFFFFF00FFFFFFFFFFFFFFFFFFFFFFFFFFFFFFFFFFFFFFFFFFFFFFFFFFFFFFFFFFFFFF00FFFF
310
FFFFFFFFFFFFFFFFFFFFFFFFFFFFFFFFFFFFFFFFFFFFFFFFFFFFFFFFFF00FFFFFFFFFFFFFFFFFFFFFFFFFFFFFFFFFFFFFFFFFFFFFFFFFFFFFFFFFFFFFF00FFFFFFFFFFFFFFFFFFFFFFFFFFFFFFFFFFFFFFFFFFFFFFFFFFFFFFFFFFFFFF00FFFFFFFFFFFFFFFFFFFFFFFFFFFFFFFFFFFFFFFFFFFFFFFFFFFFFFFFFFFFFF00FF
310
FFFFFFFFFFFFFFFFFFFFFFFFFFFFFFFFFFFFFFFFFFFFFFFFFFFFFFFFFFFF00FFFFFFFFFFFFFFFFFFFFFFFFFFFFFFFFFFFFFFFFFFFFFFFFFFFFFFFFFFFFFF00FFFFFFFFFFFFFFFFFFFFFFFFFFFFFFFFFFFFFFFFFFFFFFFFFFFFFFFFFFFFFF00FFFFFFFFFFFFFFFFFFFFFFFFFFFFFFFFFFFFFFFFFFFFFFFFFFFFFFFFFFFFFF00
310
FFFFFFFFFFFFFFFFFFFFFFFFFFFFFFFFFFFFFFFFFFFFFFFFFFFFFFFFFFFFFF00FFFFFFFFFFFFFFFFFFFFFFFFFFFFFFFFFFFFFFFFFFFFFFFFFFFFFFFFFFFFFF00FFFFFFFFFFFFFFFFFFFFFFFFFFFFFFFFFFFFFFFFFFFFFFFFFFFFFFFFFFFFFF00FFFFFFFFFFFFFFFFFFFFFFFFFFFFFFFFFFFFFFFFFFFFFFFFFFFFFFFFFFFFFF
310
00FFFFFFFFFFFFFFFFFFFFFFFFFFFF000000000000000000FFFFFFFFFFFFFFFF00FFFFFFFFFFFFFFFFFFFFFFFFFFFF00FFFFFFFFFFFFFFFF
102
{BLKREFS
331
2091
102
}
  0
BLOCK_RECORD
  5
2073
330
1D7E
100
AcDbSymbolTableRecord
100
AcDbBlockTableRecord
  2
AI9-BLK4
340
0
310
2800000020000000200000000100080000000000000400000000000000000000000000000000000000000000000080000080000000808000800000008000800080800000C0C0C000C0DCC000F0CAA6000020400000206000002080000020A0000020C0000020E00000400000004020000040400000406000004080000040A0
310
000040C0000040E00000600000006020000060400000606000006080000060A0000060C0000060E00000800000008020000080400000806000008080000080A0000080C0000080E00000A0000000A0200000A0400000A0600000A0800000A0A00000A0C00000A0E00000C0000000C0200000C0400000C0600000C0800000C0
310
A00000C0C00000C0E00000E0000000E0200000E0400000E0600000E0800000E0A00000E0C00000E0E00040000000400020004000400040006000400080004000A0004000C0004000E00040200000402020004020400040206000402080004020A0004020C0004020E000404000004040200040404000404060004040800040
310
40A0004040C0004040E00040600000406020004060400040606000406080004060A0004060C0004060E00040800000408020004080400040806000408080004080A0004080C0004080E00040A0000040A0200040A0400040A0600040A0800040A0A00040A0C00040A0E00040C0000040C0200040C0400040C0600040C08000
310
40C0A00040C0C00040C0E00040E0000040E0200040E0400040E0600040E0800040E0A00040E0C00040E0E00080000000800020008000400080006000800080008000A0008000C0008000E00080200000802020008020400080206000802080008020A0008020C0008020E00080400000804020008040400080406000804080
310
008040A0008040C0008040E00080600000806020008060400080606000806080008060A0008060C0008060E00080800000808020008080400080806000808080008080A0008080C0008080E00080A0000080A0200080A0400080A0600080A0800080A0A00080A0C00080A0E00080C0000080C0200080C0400080C0600080C0
310
800080C0A00080C0C00080C0E00080E0000080E0200080E0400080E0600080E0800080E0A00080E0C00080E0E000C0000000C0002000C0004000C0006000C0008000C000A000C000C000C000E000C0200000C0202000C0204000C0206000C0208000C020A000C020C000C020E000C0400000C0402000C0404000C0406000C0
310
408000C040A000C040C000C040E000C0600000C0602000C0604000C0606000C0608000C060A000C060C000C060E000C0800000C0802000C0804000C0806000C0808000C080A000C080C000C080E000C0A00000C0A02000C0A04000C0A06000C0A08000C0A0A000C0A0C000C0A0E000C0C00000C0C02000C0C04000C0C06000
310
C0C08000C0C0A000F0FBFF00A4A0A000808080000000FF0000FF000000FFFF00FF000000FF00FF00FFFF0000FFFFFF00FFFFFFFFFFFFFFFFFFFFFFFFFFFFFFFFFFFFFFFFFFFFFFFFFFFFFFFFFFFFFFFFFFFFFFFFFFFFFFFFFFFFFFFFFFFF00000000FFFFFFFFFFFFFFFFFFFFFF000000FFFFFFFFFFFFFFFFFFFFFFFFFFFF00
310
FFFF00FFFFFFFFFFFFFFFFFFFFFF00FFFFFFFFFFFFFFFFFFFFFFFFFFFFFFFF00FFFF00FFFFFFFFFFFFFFFFFFFFFF00FFFFFFFFFFFFFFFFFFFFFFFFFFFFFFFF00FFFF00FFFFFFFFFFFFFFFFFFFFFF00FFFFFFFFFFFFFFFFFFFFFFFFFFFFFFFF00FFFF00FFFFFFFFFFFFFFFFFFFFFF00FFFFFFFFFFFFFFFFFFFFFFFFFFFFFFFF
310
00FFFF00FFFFFFFFFFFFFFFFFFFFFF00FFFFFFFFFFFFFFFFFFFFFFFFFFFFFFFF00FFFF00FFFFFFFFFFFFFFFFFFFFFF00FFFFFFFFFFFFFFFFFFFFFFFFFFFFFFFF00FFFF00FFFFFFFFFFFFFFFFFFFFFF00FFFFFFFFFFFFFFFFFFFFFFFFFFFFFFFF00FFFF00FFFFFFFFFFFFFFFFFFFFFF00FFFFFFFFFFFFFFFFFFFFFFFFFFFFFF
310
FF00FFFF00FFFFFFFFFFFFFFFFFFFFFF00FFFFFFFFFFFFFFFFFFFFFFFFFFFFFFFF00FFFF00FFFFFFFFFFFFFFFFFFFFFF00FFFFFFFFFFFFFFFFFFFFFFFFFFFFFFFF00FFFF00FFFFFFFFFFFFFFFFFFFFFF00FFFFFFFFFFFFFFFFFFFFFFFFFFFFFFFF00FFFF00FFFFFFFFFFFFFFFFFFFFFF00FFFFFFFFFFFFFFFFFFFFFFFFFFFF
310
FFFF00FFFF00FFFFFFFFFFFFFFFFFFFFFF00FFFFFFFFFFFFFFFFFFFFFFFFFFFFFFFF00FFFF00FFFFFFFFFFFFFFFFFFFFFF00FFFFFFFFFFFFFFFFFFFFFFFFFFFFFFFF00FFFF00FFFFFFFFFFFFFFFFFFFFFF00FFFFFFFFFFFFFFFFFFFFFFFFFFFFFFFF00FFFF00FFFFFFFFFFFFFFFFFFFF00FFFFFFFFFFFFFFFFFFFFFFFFFFFF
310
FFFFFF00FFFF00FFFFFFFFFFFFFFFFFFFF00FFFFFFFFFFFFFFFFFFFFFFFFFFFFFFFFFF00FFFF00FFFFFFFFFFFFFFFFFFFF00FFFFFFFFFFFFFFFFFFFFFFFFFFFFFFFFFF00FFFF00FFFFFFFFFFFFFFFFFFFF00FFFFFFFFFFFFFFFFFFFFFFFFFFFFFFFFFF00FFFF00FFFFFFFFFFFFFFFFFFFF00FFFFFFFFFFFFFFFFFFFFFFFFFF
310
FFFFFFFF00FFFF00FFFFFFFFFFFFFFFFFF0000FFFF00FFFFFFFFFFFFFFFFFFFFFFFFFFFF00FFFF00FFFFFFFFFFFFFFFF0000FFFFFF00FFFFFFFFFFFFFFFFFFFFFFFFFFFF00FFFF00000000000000000000FFFFFFFF00FFFFFFFFFFFFFFFFFFFFFFFFFFFF00FFFFFFFFFFFFFFFFFFFFFFFFFFFFFF00FFFFFFFFFFFFFFFFFFFF
310
FFFFFFFFFF00FFFFFFFFFFFFFFFFFFFFFFFFFFFF00FFFFFFFFFFFFFFFFFFFFFFFFFFFFFFFF00FFFFFFFFFFFFFFFFFFFFFFFFFFFF00FFFFFFFFFFFFFFFFFFFFFFFFFFFFFFFF00FFFFFFFFFFFFFFFFFFFFFFFFFFFFFF00FFFFFFFFFFFFFFFFFFFFFFFFFFFFFF00FFFFFFFFFFFFFFFFFFFFFFFFFFFFFF00FFFFFFFFFFFFFFFFFF
310
FFFFFFFFFFFF00FFFF00000000000000000000FFFFFFFF00FFFFFFFFFFFFFFFFFFFFFFFFFFFF00FFFF00FFFFFFFFFFFFFFFFFF0000FFFF00
102
{BLKREFS
331
2092
102
}
  0
BLOCK_RECORD
  5
2078
330
1D7E
100
AcDbSymbolTableRecord
100
AcDbBlockTableRecord
  2
AI9-BLK3
340
0
310
2800000020000000200000000100080000000000000400000000000000000000000000000000000000000000000080000080000000808000800000008000800080800000C0C0C000C0DCC000F0CAA6000020400000206000002080000020A0000020C0000020E00000400000004020000040400000406000004080000040A0
310
000040C0000040E00000600000006020000060400000606000006080000060A0000060C0000060E00000800000008020000080400000806000008080000080A0000080C0000080E00000A0000000A0200000A0400000A0600000A0800000A0A00000A0C00000A0E00000C0000000C0200000C0400000C0600000C0800000C0
310
A00000C0C00000C0E00000E0000000E0200000E0400000E0600000E0800000E0A00000E0C00000E0E00040000000400020004000400040006000400080004000A0004000C0004000E00040200000402020004020400040206000402080004020A0004020C0004020E000404000004040200040404000404060004040800040
310
40A0004040C0004040E00040600000406020004060400040606000406080004060A0004060C0004060E00040800000408020004080400040806000408080004080A0004080C0004080E00040A0000040A0200040A0400040A0600040A0800040A0A00040A0C00040A0E00040C0000040C0200040C0400040C0600040C08000
310
40C0A00040C0C00040C0E00040E0000040E0200040E0400040E0600040E0800040E0A00040E0C00040E0E00080000000800020008000400080006000800080008000A0008000C0008000E00080200000802020008020400080206000802080008020A0008020C0008020E00080400000804020008040400080406000804080
310
008040A0008040C0008040E00080600000806020008060400080606000806080008060A0008060C0008060E00080800000808020008080400080806000808080008080A0008080C0008080E00080A0000080A0200080A0400080A0600080A0800080A0A00080A0C00080A0E00080C0000080C0200080C0400080C0600080C0
310
800080C0A00080C0C00080C0E00080E0000080E0200080E0400080E0600080E0800080E0A00080E0C00080E0E000C0000000C0002000C0004000C0006000C0008000C000A000C000C000C000E000C0200000C0202000C0204000C0206000C0208000C020A000C020C000C020E000C0400000C0402000C0404000C0406000C0
310
408000C040A000C040C000C040E000C0600000C0602000C0604000C0606000C0608000C060A000C060C000C060E000C0800000C0802000C0804000C0806000C0808000C080A000C080C000C080E000C0A00000C0A02000C0A04000C0A06000C0A08000C0A0A000C0A0C000C0A0E000C0C00000C0C02000C0C04000C0C06000
310
C0C08000C0C0A000F0FBFF00A4A0A000808080000000FF0000FF000000FFFF00FF000000FF00FF00FFFF0000FFFFFF00FFFFFFFFFFFFFFFFFFFFFFFFFFFFFFFFFFFFFFFFFFFFFFFFFFFFFFFFFFFFFFFFFFFFFFFFFFFFFFFFFFFFFFFFFFFFFF0000FFFFFFFFFFFFFFFFFFFFFFFFFFFFFFFFFFFFFFFFFFFFFFFFFFFFFFFFFFFF
310
0000FFFFFFFFFFFFFFFFFFFFFFFFFFFFFFFFFFFFFFFFFFFFFFFFFFFFFFFFFFFF0000FFFFFFFFFFFFFFFFFFFFFFFFFFFFFFFFFFFFFFFFFFFFFFFFFFFFFFFFFFFF0000FFFFFFFFFFFFFFFFFFFFFFFFFFFFFFFFFFFFFFFFFFFFFFFFFFFFFFFFFFFF0000FFFFFFFFFFFFFFFFFFFFFFFFFFFFFFFFFFFFFFFFFFFFFFFFFFFFFFFFFF
310
FF0000FFFFFFFFFFFFFFFFFFFFFFFFFFFFFFFFFFFFFFFFFFFFFFFFFFFFFFFFFFFF0000FFFFFFFFFFFFFFFFFFFFFFFFFFFFFFFFFFFFFFFFFFFFFFFFFFFFFFFFFFFF0000FFFFFFFFFFFFFFFFFFFFFFFFFFFFFFFFFFFFFFFFFFFFFFFFFFFFFFFFFFFF0000FFFFFFFFFFFFFFFFFFFFFFFFFFFFFFFFFFFFFFFFFFFFFFFFFFFFFFFF
310
FFFF0000FFFFFFFFFFFFFFFFFFFFFFFFFFFFFFFFFFFFFFFFFFFFFFFFFFFFFFFFFFFF0000FFFFFFFFFFFFFFFFFFFFFFFFFFFFFFFFFFFFFFFFFFFFFFFFFFFFFFFFFFFF0000FFFFFFFFFFFFFFFFFFFFFFFFFFFFFFFFFFFFFFFFFFFFFFFFFFFFFFFFFFFF0000FFFFFFFFFFFFFFFFFFFFFFFFFFFFFFFFFFFFFFFFFFFFFFFFFFFFFF
310
FFFFFF0000FFFFFFFFFFFFFFFFFFFFFFFFFFFFFFFFFFFFFFFFFFFFFFFFFFFFFFFFFFFF0000FFFFFFFFFFFFFFFFFFFFFFFFFFFFFFFFFFFFFFFFFFFFFFFFFFFFFFFFFFFF0000FFFFFFFFFFFFFFFFFFFFFFFFFFFFFFFFFFFFFFFFFFFFFFFFFFFFFFFFFFFF0000FFFFFFFFFFFFFFFFFFFFFFFFFFFFFFFFFFFFFFFFFFFFFFFFFFFF
310
FFFFFFFF0000FFFFFFFFFFFFFFFFFFFFFFFFFFFFFFFFFFFFFFFFFFFFFFFFFFFFFFFFFFFF0000FFFFFFFFFFFFFFFFFFFFFFFFFFFFFFFFFFFFFFFFFFFFFFFFFFFFFFFFFFFF0000FFFFFFFFFFFFFFFFFFFFFFFFFFFFFFFFFFFFFFFFFFFFFFFFFFFFFFFFFFFF0000FFFFFFFFFFFFFFFFFFFFFFFFFFFFFFFFFFFFFFFFFFFFFFFFFF
310
FFFFFFFFFF0000FFFFFFFFFFFFFFFFFFFFFFFFFFFFFFFFFFFFFFFFFFFFFFFFFFFFFFFFFFFF0000FFFFFFFFFFFFFFFFFFFFFFFFFFFFFFFFFFFFFFFFFFFFFFFFFFFFFFFFFFFF0000FFFFFFFFFFFFFFFFFFFFFFFFFFFFFFFFFFFFFFFFFFFFFFFFFFFFFFFFFFFF0000FFFFFFFFFFFFFFFFFFFFFFFFFFFFFFFFFFFFFFFFFFFFFFFF
310
FFFFFFFFFFFF0000FFFFFFFFFFFFFFFFFFFFFFFFFFFFFFFFFFFFFFFFFFFFFFFFFFFFFFFFFFFF0000FFFFFFFFFFFFFFFFFFFFFFFFFFFFFFFFFFFFFFFFFFFFFFFFFFFFFFFFFFFF0000FFFFFFFFFFFFFFFFFFFFFFFFFFFFFFFFFFFFFFFFFFFFFFFFFFFFFFFFFFFF0000FFFFFFFFFFFFFFFFFFFFFFFFFFFFFFFFFFFFFFFFFFFFFF
310
FFFFFFFFFFFFFF0000FFFFFFFFFFFFFFFFFFFFFFFFFFFFFFFFFFFFFFFFFFFFFFFFFFFFFFFFFFFFFFFFFFFFFFFFFFFFFFFFFFFFFFFFFFFFFF
102
{BLKREFS
331
2093
102
}
  0
BLOCK_RECORD
  5
207D
330
1D7E
100
AcDbSymbolTableRecord
100
AcDbBlockTableRecord
  2
AI9-BLK2
340
0
310
2800000020000000200000000100080000000000000400000000000000000000000000000000000000000000000080000080000000808000800000008000800080800000C0C0C000C0DCC000F0CAA6000020400000206000002080000020A0000020C0000020E00000400000004020000040400000406000004080000040A0
310
000040C0000040E00000600000006020000060400000606000006080000060A0000060C0000060E00000800000008020000080400000806000008080000080A0000080C0000080E00000A0000000A0200000A0400000A0600000A0800000A0A00000A0C00000A0E00000C0000000C0200000C0400000C0600000C0800000C0
310
A00000C0C00000C0E00000E0000000E0200000E0400000E0600000E0800000E0A00000E0C00000E0E00040000000400020004000400040006000400080004000A0004000C0004000E00040200000402020004020400040206000402080004020A0004020C0004020E000404000004040200040404000404060004040800040
310
40A0004040C0004040E00040600000406020004060400040606000406080004060A0004060C0004060E00040800000408020004080400040806000408080004080A0004080C0004080E00040A0000040A0200040A0400040A0600040A0800040A0A00040A0C00040A0E00040C0000040C0200040C0400040C0600040C08000
310
40C0A00040C0C00040C0E00040E0000040E0200040E0400040E0600040E0800040E0A00040E0C00040E0E00080000000800020008000400080006000800080008000A0008000C0008000E00080200000802020008020400080206000802080008020A0008020C0008020E00080400000804020008040400080406000804080
310
008040A0008040C0008040E00080600000806020008060400080606000806080008060A0008060C0008060E00080800000808020008080400080806000808080008080A0008080C0008080E00080A0000080A0200080A0400080A0600080A0800080A0A00080A0C00080A0E00080C0000080C0200080C0400080C0600080C0
310
800080C0A00080C0C00080C0E00080E0000080E0200080E0400080E0600080E0800080E0A00080E0C00080E0E000C0000000C0002000C0004000C0006000C0008000C000A000C000C000C000E000C0200000C0202000C0204000C0206000C0208000C020A000C020C000C020E000C0400000C0402000C0404000C0406000C0
310
408000C040A000C040C000C040E000C0600000C0602000C0604000C0606000C0608000C060A000C060C000C060E000C0800000C0802000C0804000C0806000C0808000C080A000C080C000C080E000C0A00000C0A02000C0A04000C0A06000C0A08000C0A0A000C0A0C000C0A0E000C0C00000C0C02000C0C04000C0C06000
310
C0C08000C0C0A000F0FBFF00A4A0A000808080000000FF0000FF000000FFFF00FF000000FF00FF00FFFF0000FFFFFF00FFFFFFFFFFFFFFFFFFFFFFFFFFFFFFFFFFFFFFFFFFFFFFFFFFFFFFFFFFFFFFFFFFFFFFFFFFFFFFFFFFFFFFFFFFFFFF0000FFFFFFFFFFFFFFFFFFFFFFFFFFFFFFFFFFFFFFFFFFFFFFFFFFFFFFFFFFFF
310
0000FFFFFFFFFFFFFFFFFFFFFFFFFFFFFFFFFFFFFFFFFFFFFFFFFFFFFFFFFFFF0000FFFFFFFFFFFFFFFFFFFFFFFFFFFFFFFFFFFFFFFFFFFFFFFFFFFFFFFFFF00FFFF00FFFFFFFFFFFFFFFFFFFFFFFFFFFFFFFFFFFFFFFFFFFFFFFFFFFFFFFF00FFFF00FFFFFFFFFFFFFFFFFFFFFFFFFFFFFFFFFFFFFFFFFFFFFFFFFFFFFFFF
310
00FF0000FFFFFFFFFFFFFFFFFFFFFFFFFFFFFFFFFFFFFFFFFFFFFFFFFFFFFFFF00FF0000FFFFFFFFFFFFFFFFFFFFFFFFFFFFFFFFFFFFFFFFFFFFFFFFFFFFFFFF00FF0000FFFFFFFFFFFFFFFFFFFFFFFFFFFFFFFFFFFFFFFFFFFFFFFFFFFFFFFF00000000FFFFFFFFFFFFFFFFFFFFFFFFFFFFFFFFFFFFFFFFFFFFFFFFFFFFFF
310
00FF00FF0000FFFFFFFFFFFFFFFFFFFFFFFFFFFFFFFFFFFFFFFFFFFFFFFFFFFF00FF00FF0000FFFFFFFFFFFFFFFFFFFFFFFFFFFFFFFFFFFFFFFFFFFFFFFFFFFF00FF00FF0000FFFFFFFFFFFFFFFFFFFFFFFFFFFFFFFFFFFFFFFFFFFFFFFFFFFF00FF00FF0000FFFFFFFFFFFFFFFFFFFFFFFFFFFFFFFFFFFFFFFFFFFFFFFFFF
310
FF00FF00FF0000FFFFFFFFFFFFFFFFFFFFFFFFFFFFFFFFFFFFFFFFFFFFFFFFFFFF0000FFFF0000FFFFFFFFFFFFFFFFFFFFFFFFFFFFFFFFFFFFFFFFFFFFFFFFFF00FF00FFFF00FF00FFFFFFFFFFFFFFFFFFFFFFFFFFFFFFFFFFFFFFFFFFFFFFFF00FF00FFFF00FF00FFFFFFFFFFFFFFFFFFFFFFFFFFFFFFFFFFFFFFFFFFFFFF
310
FF00FF00FFFFFF0000FFFFFFFFFFFFFFFFFFFFFFFFFFFFFFFFFFFFFFFFFFFFFFFF00FF00FFFFFF0000FFFFFFFFFFFFFFFFFFFFFFFFFFFFFFFFFFFFFFFFFFFFFFFF00FF00FFFFFF0000FFFFFFFFFFFFFFFFFFFFFFFFFFFFFFFFFFFFFFFFFFFFFFFF0000FFFFFFFF0000FFFFFFFFFFFFFFFFFFFFFFFFFFFFFFFFFFFFFFFFFFFF
310
FF00FF00FFFFFFFF00FF00FFFFFFFFFFFFFFFFFFFFFFFFFFFFFFFFFFFFFFFFFFFF00FF00FFFFFFFF00FF00FFFFFFFFFFFFFFFFFFFFFFFFFFFFFFFFFFFFFFFFFFFF00FF00FFFFFFFF00FF00FFFFFFFFFFFFFFFFFFFFFFFFFFFFFFFFFFFFFFFFFFFF00FF00FFFFFFFF00FF00FFFFFFFFFFFFFFFFFFFFFFFFFFFFFFFFFFFFFFFF
310
FFFF00FF00FFFFFFFFFF0000FFFFFFFFFFFFFFFFFFFFFFFFFFFFFFFFFFFFFFFFFFFF0000FFFFFFFFFFFF0000FFFFFFFFFFFFFFFFFFFFFFFFFFFFFFFFFFFFFFFFFF00FF00FFFFFFFFFFFF00FF00FFFFFFFFFFFFFFFFFFFFFFFFFFFFFFFFFFFFFFFF00FF00FFFFFFFFFFFF00FF00FFFFFFFFFFFFFFFFFFFFFFFFFFFFFFFFFFFF
310
FFFF000000FFFFFFFFFFFF000000FFFFFFFFFFFFFFFFFFFFFFFFFFFFFFFFFFFFFFFFFFFFFFFFFFFFFFFFFFFFFFFFFFFFFFFFFFFFFFFFFFFF
102
{BLKREFS
331
2094
102
}
  0
BLOCK_RECORD
  5
2082
330
1D7E
100
AcDbSymbolTableRecord
100
AcDbBlockTableRecord
  2
AI9-BLK1
340
0
310
2800000020000000200000000100080000000000000400000000000000000000000000000000000000000000000080000080000000808000800000008000800080800000C0C0C000C0DCC000F0CAA6000020400000206000002080000020A0000020C0000020E00000400000004020000040400000406000004080000040A0
310
000040C0000040E00000600000006020000060400000606000006080000060A0000060C0000060E00000800000008020000080400000806000008080000080A0000080C0000080E00000A0000000A0200000A0400000A0600000A0800000A0A00000A0C00000A0E00000C0000000C0200000C0400000C0600000C0800000C0
310
A00000C0C00000C0E00000E0000000E0200000E0400000E0600000E0800000E0A00000E0C00000E0E00040000000400020004000400040006000400080004000A0004000C0004000E00040200000402020004020400040206000402080004020A0004020C0004020E000404000004040200040404000404060004040800040
310
40A0004040C0004040E00040600000406020004060400040606000406080004060A0004060C0004060E00040800000408020004080400040806000408080004080A0004080C0004080E00040A0000040A0200040A0400040A0600040A0800040A0A00040A0C00040A0E00040C0000040C0200040C0400040C0600040C08000
310
40C0A00040C0C00040C0E00040E0000040E0200040E0400040E0600040E0800040E0A00040E0C00040E0E00080000000800020008000400080006000800080008000A0008000C0008000E00080200000802020008020400080206000802080008020A0008020C0008020E00080400000804020008040400080406000804080
310
008040A0008040C0008040E00080600000806020008060400080606000806080008060A0008060C0008060E00080800000808020008080400080806000808080008080A0008080C0008080E00080A0000080A0200080A0400080A0600080A0800080A0A00080A0C00080A0E00080C0000080C0200080C0400080C0600080C0
310
800080C0A00080C0C00080C0E00080E0000080E0200080E0400080E0600080E0800080E0A00080E0C00080E0E000C0000000C0002000C0004000C0006000C0008000C000A000C000C000C000E000C0200000C0202000C0204000C0206000C0208000C020A000C020C000C020E000C0400000C0402000C0404000C0406000C0
310
408000C040A000C040C000C040E000C0600000C0602000C0604000C0606000C0608000C060A000C060C000C060E000C0800000C0802000C0804000C0806000C0808000C080A000C080C000C080E000C0A00000C0A02000C0A04000C0A06000C0A08000C0A0A000C0A0C000C0A0E000C0C00000C0C02000C0C04000C0C06000
310
C0C08000C0C0A000F0FBFF00A4A0A000808080000000FF0000FF000000FFFF00FF000000FF00FF00FFFF0000FFFFFF00FFFFFFFFFFFFFFFFFFFFFFFFFFFFFFFFFFFFFFFFFFFFFFFFFFFFFFFFFFFFFFFFFFFFFFFFFFFFFFFFFFFFFF00000000000000000000FFFFFFFFFFFFFFFFFFFFFFFFFFFFFFFFFFFFFFFFFFFF00FFFFFF
310
FFFFFFFFFF00FFFFFFFFFFFFFFFFFFFFFFFFFFFFFFFFFFFFFFFFFFFF00FFFFFFFFFFFFFFFF00FFFFFFFFFFFFFFFFFFFFFFFFFFFFFFFFFFFFFFFFFFFF00FFFFFFFFFFFFFFFF00FFFFFFFFFFFFFFFFFFFFFFFFFFFFFFFFFFFFFFFFFFFF00FF0000000000000000FFFFFFFFFFFFFFFFFFFFFFFFFFFFFFFFFFFFFFFFFFFF00FF00
310
FFFFFFFFFFFFFFFFFFFFFFFFFFFFFFFFFFFFFFFFFFFFFFFFFFFFFFFFFF00FF00FFFFFFFFFFFFFFFFFFFFFFFFFFFFFFFFFFFFFFFFFFFFFFFFFFFFFFFFFF00FF00FFFFFFFFFFFFFFFFFFFFFFFFFFFFFFFFFFFFFFFFFFFFFFFFFFFFFFFFFF00FF00FFFFFFFFFFFFFFFFFFFFFFFFFFFFFFFFFFFFFFFFFFFFFFFFFFFFFFFFFF00FF
310
00FFFFFFFFFFFFFFFFFFFFFFFFFFFFFFFFFFFFFFFFFFFFFFFFFFFFFFFFFF00FF00FFFFFFFFFFFFFFFFFFFFFFFFFFFFFFFFFFFFFFFFFFFFFFFFFFFFFFFFFF00FF00FFFFFFFFFFFFFFFFFFFFFFFFFFFFFFFFFFFFFFFFFFFFFFFFFFFFFFFFFF00FF00FFFFFFFFFFFFFFFFFFFFFFFFFFFFFFFFFFFFFFFFFFFFFFFFFFFFFFFFFF00
310
FF00000000000000FFFFFFFFFFFFFFFFFFFFFFFFFFFFFFFFFFFFFFFFFFFFFF00FFFFFFFFFFFFFF00FFFFFFFFFFFFFFFFFFFFFFFFFFFFFFFFFFFFFFFFFFFFFF00FFFFFFFFFFFFFF00FFFFFFFFFFFFFFFFFFFFFFFFFFFFFFFFFFFFFFFFFFFFFF00FFFFFFFFFFFFFF00FFFFFFFFFFFFFFFFFFFFFFFFFFFFFFFFFFFFFFFFFFFFFF
310
00FF00000000000000FFFFFFFFFFFFFFFFFFFFFFFFFFFFFFFFFFFFFFFFFFFFFF00FF00FFFFFFFFFFFFFFFFFFFFFFFFFFFFFFFFFFFFFFFFFFFFFFFFFFFFFFFFFF00FF00FFFFFFFFFFFFFFFFFFFFFFFFFFFFFFFFFFFFFFFFFFFFFFFFFFFFFFFFFF00FF00FFFFFFFFFFFFFFFFFFFFFFFFFFFFFFFFFFFFFFFFFFFFFFFFFFFFFFFF
310
FF00FF00FFFFFFFFFFFFFFFFFFFFFFFFFFFFFFFFFFFFFFFFFFFFFFFFFFFFFFFFFF00FF00FFFFFFFFFFFFFFFFFFFFFFFFFFFFFFFFFFFFFFFFFFFFFFFFFFFFFFFFFF00FF00FFFFFFFFFFFFFFFFFFFFFFFFFFFFFFFFFFFFFFFFFFFFFFFFFFFFFFFFFF00FF00FFFFFFFFFFFFFFFFFFFFFFFFFFFFFFFFFFFFFFFFFFFFFFFFFFFFFF
310
FFFF00FF0000000000000000FFFFFFFFFFFFFFFFFFFFFFFFFFFFFFFFFFFFFFFFFFFF00FFFFFFFFFFFFFFFF00FFFFFFFFFFFFFFFFFFFFFFFFFFFFFFFFFFFFFFFFFFFF00FFFFFFFFFFFFFFFF00FFFFFFFFFFFFFFFFFFFFFFFFFFFFFFFFFFFFFFFFFFFF00FFFFFFFFFFFFFFFF00FFFFFFFFFFFFFFFFFFFFFFFFFFFFFFFFFFFFFF
310
FFFFFF00000000000000000000FFFFFFFFFFFFFFFFFFFFFFFFFFFFFFFFFFFFFFFFFFFFFFFFFFFFFFFFFFFFFFFFFFFFFFFFFFFFFFFFFFFFFF
102
{BLKREFS
331
2095
102
}
  0
BLOCK_RECORD
  5
2087
330
1D7E
100
AcDbSymbolTableRecord
100
AcDbBlockTableRecord
  2
HD_LLC_logo_OT5
340
0
310
2800000020000000200000000100080000000000000400000000000000000000000000000000000000000000000080000080000000808000800000008000800080800000C0C0C000C0DCC000F0CAA6000020400000206000002080000020A0000020C0000020E00000400000004020000040400000406000004080000040A0
310
000040C0000040E00000600000006020000060400000606000006080000060A0000060C0000060E00000800000008020000080400000806000008080000080A0000080C0000080E00000A0000000A0200000A0400000A0600000A0800000A0A00000A0C00000A0E00000C0000000C0200000C0400000C0600000C0800000C0
310
A00000C0C00000C0E00000E0000000E0200000E0400000E0600000E0800000E0A00000E0C00000E0E00040000000400020004000400040006000400080004000A0004000C0004000E00040200000402020004020400040206000402080004020A0004020C0004020E000404000004040200040404000404060004040800040
310
40A0004040C0004040E00040600000406020004060400040606000406080004060A0004060C0004060E00040800000408020004080400040806000408080004080A0004080C0004080E00040A0000040A0200040A0400040A0600040A0800040A0A00040A0C00040A0E00040C0000040C0200040C0400040C0600040C08000
310
40C0A00040C0C00040C0E00040E0000040E0200040E0400040E0600040E0800040E0A00040E0C00040E0E00080000000800020008000400080006000800080008000A0008000C0008000E00080200000802020008020400080206000802080008020A0008020C0008020E00080400000804020008040400080406000804080
310
008040A0008040C0008040E00080600000806020008060400080606000806080008060A0008060C0008060E00080800000808020008080400080806000808080008080A0008080C0008080E00080A0000080A0200080A0400080A0600080A0800080A0A00080A0C00080A0E00080C0000080C0200080C0400080C0600080C0
310
800080C0A00080C0C00080C0E00080E0000080E0200080E0400080E0600080E0800080E0A00080E0C00080E0E000C0000000C0002000C0004000C0006000C0008000C000A000C000C000C000E000C0200000C0202000C0204000C0206000C0208000C020A000C020C000C020E000C0400000C0402000C0404000C0406000C0
310
408000C040A000C040C000C040E000C0600000C0602000C0604000C0606000C0608000C060A000C060C000C060E000C0800000C0802000C0804000C0806000C0808000C080A000C080C000C080E000C0A00000C0A02000C0A04000C0A06000C0A08000C0A0A000C0A0C000C0A0E000C0C00000C0C02000C0C04000C0C06000
310
C0C08000C0C0A000F0FBFF00A4A0A000808080000000FF0000FF000000FFFF00FF000000FF00FF00FFFF0000FFFFFF00FFFFFFFFFFFFFFFFFFFFFFFFFFFFFFFFFFFFFFFFFFFFFFFFFFFFFFFFFFFFFFFFFFFFFFFFFFFFFFFFFFFFFFFFFFFFFFFFFFFFFFFFFFFFFFFFFFFFFFFFFFFFFFFFFFFFFFFFFFFFFFFFFFFFFFFFFFFFFF
310
FFFFFFFFFFFFFFFFFFFFFFFFFFFFFFFFFFFFFFFFFFFFFFFFFFFFFFFFFFFFFFFFFFFFFFFFFFFFFFFFFFFFFFFFFFFFFFFFFFFFFFFFFFFFFFFFFFFFFFFFFFFFFFFFFFFFFFFFFFFFFFFFFFFFFFFFFFFFFFFFFFFFFFFFFFFFFFFFFFFFFFFFFFFFFFFFFFFFFFFFFFFFFFFFFFFFFFFFFFFFFFFFFFFFFFFFFFFFFFFFFFFFFFFFFFFFFF
310
FFFFFFFFFFFFFFFFFFFFFFFFFFFFFFFFFFFFFFFFFFFFFFFFFFFFFFFFFFFFFFFFFFFFFFFFFFFFFFFFFFFFFFFFFFFFFFFFFFFFFFFFFFFFFFFFFFFFFFFFFFFFFFFFFFFFFFFFFFFFFFFFFFFFFFFFFFFFFFFFFFFFFFFFFFFFFFFFFFFFFFFFFFFFFFFFFFFFFFFFFFFFFFFFFFFFFFFFFFFFFFFFFFFFFFFFFFFFFFFFFFFFFFFFFFFFFF
310
FFFFFFFFFFFFFFFFFFFFFFFFFFFFFFFFFFFFFFFFFFFFFFFFFFFFFFFFFFFFFFFFFFFFFFFFFFFFFFFFFFFFFFFFFFFFFFFFFFFFFFFF0000000000000000000000000000000000000000000000000000000000FFFFFF0000000000000000000000000000000000FFFFFFFFFFFFFFFFFFFF0000FFFFFF0000000000000000000000
310
00000000000000FFFFFFFFFFFFFFFFFFFF0000FFFF000000000000000000000000000000000000FFFFFF00000000FFFFFF0000FFFF00FFFFFFFFFFFF00FFFFFF00FFFFFFFFFF00FFFFFF0000000000FFFF0000FFFF00FFFFFFFFFFFF00FFFFFF00FFFFFFFFFF00FFFFFF00FFFF0000FFFF0000FFFF00FFFFFFFFFFFF00FFFF
310
00FFFFFFFFFFFF00FFFFFF00FFFF0000FFFF0000FFFF0000000000FFFF00000000FFFFFF00000000FFFFFF00000000FFFFFF0000FFFFFFFFFFFF00FFFFFFFFFFFFFFFFFF00FFFFFFFFFFFFFFFFFFFFFFFFFF0000FFFFFFFFFFFF00FFFFFFFFFFFFFFFFFF00FFFFFFFFFFFFFFFFFFFFFFFFFF0000FFFFFFFFFFFF00FFFFFFFF
310
FFFFFFFFFF00FFFFFFFFFFFFFFFFFFFFFFFF0000FFFFFF0000000000FFFF00000000FFFFFF0000000000000000000000000000FFFFFFFF00FFFFFFFFFFFF00FFFF00FFFFFFFFFFFF00FFFFFFFFFFFFFFFFFFFFFFFFFFFF00FFFFFFFFFFFF00FFFFFF00FFFFFFFFFF00FFFFFFFFFFFFFFFFFFFFFFFFFFFF0000000000000000
310
FFFFFF00000000000000FFFFFFFFFFFFFFFFFFFFFFFFFFFFFFFFFFFFFFFFFFFFFFFFFFFFFFFFFFFFFFFFFFFFFFFFFFFFFFFFFFFFFFFFFFFFFFFFFFFFFFFFFFFFFFFFFFFFFFFFFFFFFFFFFFFFFFFFFFFFFFFFFFFFFFFFFFFFFFFFFFFFFFFFFFFFFFFFFFFFFFFFFFFFFFFFFFFFFFFFFFFFFFFFFFFFFFFFFFFFFFFFFFFFFFFFFF
310
FFFFFFFFFFFFFFFFFFFFFFFFFFFFFFFFFFFFFFFFFFFFFFFFFFFFFFFFFFFFFFFFFFFFFFFFFFFFFFFFFFFFFFFFFFFFFFFFFFFFFFFFFFFFFFFF
102
{BLKREFS
331
20AD
102
}
  0
BLOCK_RECORD
  5
20AC
330
1D7E
100
AcDbSymbolTableRecord
100
AcDbBlockTableRecord
  2
HD logo-new
340
0
310
2800000020000000200000000100080000000000000400000000000000000000000000000000000000000000000080000080000000808000800000008000800080800000C0C0C000C0DCC000F0CAA6000020400000206000002080000020A0000020C0000020E00000400000004020000040400000406000004080000040A0
310
000040C0000040E00000600000006020000060400000606000006080000060A0000060C0000060E00000800000008020000080400000806000008080000080A0000080C0000080E00000A0000000A0200000A0400000A0600000A0800000A0A00000A0C00000A0E00000C0000000C0200000C0400000C0600000C0800000C0
310
A00000C0C00000C0E00000E0000000E0200000E0400000E0600000E0800000E0A00000E0C00000E0E00040000000400020004000400040006000400080004000A0004000C0004000E00040200000402020004020400040206000402080004020A0004020C0004020E000404000004040200040404000404060004040800040
310
40A0004040C0004040E00040600000406020004060400040606000406080004060A0004060C0004060E00040800000408020004080400040806000408080004080A0004080C0004080E00040A0000040A0200040A0400040A0600040A0800040A0A00040A0C00040A0E00040C0000040C0200040C0400040C0600040C08000
310
40C0A00040C0C00040C0E00040E0000040E0200040E0400040E0600040E0800040E0A00040E0C00040E0E00080000000800020008000400080006000800080008000A0008000C0008000E00080200000802020008020400080206000802080008020A0008020C0008020E00080400000804020008040400080406000804080
310
008040A0008040C0008040E00080600000806020008060400080606000806080008060A0008060C0008060E00080800000808020008080400080806000808080008080A0008080C0008080E00080A0000080A0200080A0400080A0600080A0800080A0A00080A0C00080A0E00080C0000080C0200080C0400080C0600080C0
310
800080C0A00080C0C00080C0E00080E0000080E0200080E0400080E0600080E0800080E0A00080E0C00080E0E000C0000000C0002000C0004000C0006000C0008000C000A000C000C000C000E000C0200000C0202000C0204000C0206000C0208000C020A000C020C000C020E000C0400000C0402000C0404000C0406000C0
310
408000C040A000C040C000C040E000C0600000C0602000C0604000C0606000C0608000C060A000C060C000C060E000C0800000C0802000C0804000C0806000C0808000C080A000C080C000C080E000C0A00000C0A02000C0A04000C0A06000C0A08000C0A0A000C0A0C000C0A0E000C0C00000C0C02000C0C04000C0C06000
310
C0C08000C0C0A000F0FBFF00A4A0A000808080000000FF0000FF000000FFFF00FF000000FF00FF00FFFF0000FFFFFF00FFFFFFFFFFFFFFFFFFFFFFFFFFFFFFFFFFFFFFFFFFFFFFFFFFFFFFFFFFFFFFFFFFFFFFFFFFFFFFFFFFFFFFFFFFFFFFFFFFFFFFFFFFFFFFFFFFFFFFFFFFFFFFFFFFFFFFFFFFFFFFFFFFFFFFFFFFFFFF
310
FFFFFFFFFFFFFFFFFFFFFFFFFFFFFFFFFFFFFFFFFFFFFFFFFFFFFFFFFFFFFFFFFFFFFFFFFFFFFFFFFFFFFFFFFFFFFFFFFFFFFFFFFFFFFFFFFFFFFFFFFFFFFFFFFFFFFFFFFFFFFFFFFFFFFFFFFFFFFFFFFFFFFFFFFFFFFFFFFFFFFFFFFFFFFFFFFFFFFFFFFFFFFFFFFFFFFFFFFFFFFFFFFFFFFFFFFFFFFFFFFFFFFFFFFFFFFF
310
FFFFFFFFFFFFFFFFFFFFFFFFFFFFFFFFFFFFFFFFFFFFFFFFFFFFFFFFFFFFFFFFFFFFFFFFFFFFFFFFFFFFFFFFFFFFFFFFFFFFFFFFFFFFFFFFFFFFFFFFFFFFFFFFFFFFFFFFFFFFFFFFFFFFFFFFFFFFFFFFFFFFFFFFFFFFFFFFFFFFFFFFFFFFFFFFFFFFFFFFFFFFFFFFFFFFFFFFFFFFFFFFFFFFFFFFFFFFFFFFFFFFFFFFFFFFFF
310
FFFFFFFFFFFFFFFFFFFFFFFFFFFFFFFFFFFFFFFFFFFFFFFFFFFFFFFFFFFFFFFFFFFFFFFFFFFFFFFFFFFFFFFFFFFFFFFFFFFFFFFF0000000000000000000000000000000000000000000000000000000000FFFFFF0000000000000000000000000000000000FFFFFFFFFFFFFFFFFFFF0000FFFFFF0000000000000000000000
310
00000000000000FFFFFFFFFFFFFFFFFFFF0000FFFF000000000000000000000000000000000000FFFFFF00000000FFFFFF0000FFFF00FFFFFFFFFFFF00FFFFFF00FFFFFFFFFF00FFFFFF0000000000FFFF0000FFFF00FFFFFFFFFFFF00FFFFFF00FFFFFFFFFF00FFFFFF00FFFF0000FFFF0000FFFF00FFFFFFFFFFFF00FFFF
310
00FFFFFFFFFFFF00FFFFFF00FFFF0000FFFF0000FFFF0000000000FFFF00000000FFFFFF00000000FFFFFF00000000FFFFFF0000FFFFFFFFFFFF00FFFFFFFFFFFFFFFFFF00FFFFFFFFFFFFFFFFFFFFFFFFFF0000FFFFFFFFFFFF00FFFFFFFFFFFFFFFFFF00FFFFFFFFFFFFFFFFFFFFFFFFFF0000FFFFFFFFFFFF00FFFFFFFF
310
FFFFFFFFFF00FFFFFFFFFFFFFFFFFFFFFFFF0000FFFFFF0000000000FFFF00000000FFFFFF0000000000000000000000000000FFFFFFFF00FFFFFFFFFFFF00FFFF00FFFFFFFFFFFF00FFFFFFFFFFFFFFFFFFFFFFFFFFFF00FFFFFFFFFFFF00FFFFFF00FFFFFFFFFF00FFFFFFFFFFFFFFFFFFFFFFFFFFFF0000000000000000
310
FFFFFF00000000000000FFFFFFFFFFFFFFFFFFFFFFFFFFFFFFFFFFFFFFFFFFFFFFFFFFFFFFFFFFFFFFFFFFFFFFFFFFFFFFFFFFFFFFFFFFFFFFFFFFFFFFFFFFFFFFFFFFFFFFFFFFFFFFFFFFFFFFFFFFFFFFFFFFFFFFFFFFFFFFFFFFFFFFFFFFFFFFFFFFFFFFFFFFFFFFFFFFFFFFFFFFFFFFFFFFFFFFFFFFFFFFFFFFFFFFFFFF
310
FFFFFFFFFFFFFFFFFFFFFFFFFFFFFFFFFFFFFFFFFFFFFFFFFFFFFFFFFFFFFFFFFFFFFFFFFFFFFFFFFFFFFFFFFFFFFFFFFFFFFFFFFFFFFFFF
102
{BLKREFS
331
20B1
331
25DB
331
25DF
102
}
  0
BLOCK_RECORD
  5
20B0
330
1D7E
100
AcDbSymbolTableRecord
100
AcDbBlockTableRecord
  2
HD Logo
340
0
310
2800000020000000200000000100080000000000000400000000000000000000000000000000000000000000000080000080000000808000800000008000800080800000C0C0C000C0DCC000F0CAA6000020400000206000002080000020A0000020C0000020E00000400000004020000040400000406000004080000040A0
310
000040C0000040E00000600000006020000060400000606000006080000060A0000060C0000060E00000800000008020000080400000806000008080000080A0000080C0000080E00000A0000000A0200000A0400000A0600000A0800000A0A00000A0C00000A0E00000C0000000C0200000C0400000C0600000C0800000C0
310
A00000C0C00000C0E00000E0000000E0200000E0400000E0600000E0800000E0A00000E0C00000E0E00040000000400020004000400040006000400080004000A0004000C0004000E00040200000402020004020400040206000402080004020A0004020C0004020E000404000004040200040404000404060004040800040
310
40A0004040C0004040E00040600000406020004060400040606000406080004060A0004060C0004060E00040800000408020004080400040806000408080004080A0004080C0004080E00040A0000040A0200040A0400040A0600040A0800040A0A00040A0C00040A0E00040C0000040C0200040C0400040C0600040C08000
310
40C0A00040C0C00040C0E00040E0000040E0200040E0400040E0600040E0800040E0A00040E0C00040E0E00080000000800020008000400080006000800080008000A0008000C0008000E00080200000802020008020400080206000802080008020A0008020C0008020E00080400000804020008040400080406000804080
310
008040A0008040C0008040E00080600000806020008060400080606000806080008060A0008060C0008060E00080800000808020008080400080806000808080008080A0008080C0008080E00080A0000080A0200080A0400080A0600080A0800080A0A00080A0C00080A0E00080C0000080C0200080C0400080C0600080C0
310
800080C0A00080C0C00080C0E00080E0000080E0200080E0400080E0600080E0800080E0A00080E0C00080E0E000C0000000C0002000C0004000C0006000C0008000C000A000C000C000C000E000C0200000C0202000C0204000C0206000C0208000C020A000C020C000C020E000C0400000C0402000C0404000C0406000C0
310
408000C040A000C040C000C040E000C0600000C0602000C0604000C0606000C0608000C060A000C060C000C060E000C0800000C0802000C0804000C0806000C0808000C080A000C080C000C080E000C0A00000C0A02000C0A04000C0A06000C0A08000C0A0A000C0A0C000C0A0E000C0C00000C0C02000C0C04000C0C06000
310
C0C08000C0C0A000F0FBFF00A4A0A000808080000000FF0000FF000000FFFF00FF000000FF00FF00FFFF0000FFFFFF00FFFFFFFFFFFFFFFFFFFFFFFFFFFFFFFFFFFFFFFFFFFFFFFFFFFFFFFFFFFFFFFFFFFFFFFFFFFFFFFFFFFFFFFFFFFFFFFFFFFFFFFFFFFFFFFFFFFFFFFFFFFFFFFFFFFFFFFFFFFFFFFFFFFFFFFFFFFFFF
310
FFFFFFFFFFFFFFFFFFFFFFFFFFFFFFFFFFFFFFFFFFFFFFFFFFFFFFFFFFFFFFFFFFFFFFFFFFFFFFFFFFFFFFFFFFFFFFFFFFFFFFFFFFFFFFFFFFFFFFFFFFFFFFFFFFFFFFFFFFFFFFFFFFFFFFFFFFFFFFFFFFFFFFFFFFFFFFFFFFFFFFFFFFFFFFFFFFFFFFFFFFFFFFFFFFFFFFFFFFFFFFFFFFFFFFFFFFFFFFFFFFFFFFFFFFFFFF
310
FFFFFFFFFFFFFFFFFFFFFFFFFFFFFFFFFFFFFFFFFFFFFFFFFFFFFFFFFFFFFFFFFFFFFFFFFFFFFFFFFFFFFFFFFFFFFFFFFFFFFFFFFFFFFFFFFFFFFFFFFFFFFFFFFFFFFFFFFFFFFFFFFFFFFFFFFFFFFFFFFFFFFFFFFFFFFFFFFFFFFFFFFFFFFFFFFFFFFFFFFFFFFFFFFFFFFFFFFFFFFFFFFFFFFFFFFFFFFFFFFFFFFFFFFFFFFF
310
FFFFFFFFFFFFFFFFFFFFFFFFFFFFFFFFFFFFFFFFFFFFFFFFFFFFFFFFFFFFFFFFFFFFFFFFFFFFFFFFFFFFFFFFFFFFFFFFFFFFFFFF0000000000000000000000000000000000000000000000000000000000FFFFFF0000000000000000000000000000000000FFFFFFFFFFFFFFFFFFFF0000FFFFFF0000000000000000000000
310
00000000000000FFFFFFFFFFFFFFFFFFFF0000FFFF000000000000000000000000000000000000FFFFFF00000000FFFFFF0000FFFF00FFFFFFFFFFFF00FFFFFF00FFFFFFFFFF00FFFFFF0000000000FFFF0000FFFF00FFFFFFFFFFFF00FFFFFF00FFFFFFFFFF00FFFFFF00FFFF0000FFFF0000FFFF00FFFFFFFFFFFF00FFFF
310
00FFFFFFFFFFFF00FFFFFF00FFFF0000FFFF0000FFFF0000000000FFFF00000000FFFFFF00000000FFFFFF00000000FFFFFF0000FFFFFFFFFFFF00FFFFFFFFFFFFFFFFFF00FFFFFFFFFFFFFFFFFFFFFFFFFF0000FFFFFFFFFFFF00FFFFFFFFFFFFFFFFFF00FFFFFFFFFFFFFFFFFFFFFFFFFF0000FFFFFFFFFFFF00FFFFFFFF
310
FFFFFFFFFF00FFFFFFFFFFFFFFFFFFFFFFFF0000FFFFFF0000000000FFFF00000000FFFFFF0000000000000000000000000000FFFFFFFF00FFFFFFFFFFFF00FFFF00FFFFFFFFFFFF00FFFFFFFFFFFFFFFFFFFFFFFFFFFF00FFFFFFFFFFFF00FFFFFF00FFFFFFFFFF00FFFFFFFFFFFFFFFFFFFFFFFFFFFF0000000000000000
310
FFFFFF00000000000000FFFFFFFFFFFFFFFFFFFFFFFFFFFFFFFFFFFFFFFFFFFFFFFFFFFFFFFFFFFFFFFFFFFFFFFFFFFFFFFFFFFFFFFFFFFFFFFFFFFFFFFFFFFFFFFFFFFFFFFFFFFFFFFFFFFFFFFFFFFFFFFFFFFFFFFFFFFFFFFFFFFFFFFFFFFFFFFFFFFFFFFFFFFFFFFFFFFFFFFFFFFFFFFFFFFFFFFFFFFFFFFFFFFFFFFFFF
310
FFFFFFFFFFFFFFFFFFFFFFFFFFFFFFFFFFFFFFFFFFFFFFFFFFFFFFFFFFFFFFFFFFFFFFFFFFFFFFFFFFFFFFFFFFFFFFFFFFFFFFFFFFFFFFFF
102
{BLKREFS
331
20B7
331
20BB
331
25D5
331
25D9
102
}
  0
BLOCK_RECORD
  5
20BC
330
1D7E
100
AcDbSymbolTableRecord
100
AcDbBlockTableRecord
  2
Harmonic Drive LLC
340
0
310
2800000020000000200000000100080000000000000400000000000000000000000000000000000000000000000080000080000000808000800000008000800080800000C0C0C000C0DCC000F0CAA6000020400000206000002080000020A0000020C0000020E00000400000004020000040400000406000004080000040A0
310
000040C0000040E00000600000006020000060400000606000006080000060A0000060C0000060E00000800000008020000080400000806000008080000080A0000080C0000080E00000A0000000A0200000A0400000A0600000A0800000A0A00000A0C00000A0E00000C0000000C0200000C0400000C0600000C0800000C0
310
A00000C0C00000C0E00000E0000000E0200000E0400000E0600000E0800000E0A00000E0C00000E0E00040000000400020004000400040006000400080004000A0004000C0004000E00040200000402020004020400040206000402080004020A0004020C0004020E000404000004040200040404000404060004040800040
310
40A0004040C0004040E00040600000406020004060400040606000406080004060A0004060C0004060E00040800000408020004080400040806000408080004080A0004080C0004080E00040A0000040A0200040A0400040A0600040A0800040A0A00040A0C00040A0E00040C0000040C0200040C0400040C0600040C08000
310
40C0A00040C0C00040C0E00040E0000040E0200040E0400040E0600040E0800040E0A00040E0C00040E0E00080000000800020008000400080006000800080008000A0008000C0008000E00080200000802020008020400080206000802080008020A0008020C0008020E00080400000804020008040400080406000804080
310
008040A0008040C0008040E00080600000806020008060400080606000806080008060A0008060C0008060E00080800000808020008080400080806000808080008080A0008080C0008080E00080A0000080A0200080A0400080A0600080A0800080A0A00080A0C00080A0E00080C0000080C0200080C0400080C0600080C0
310
800080C0A00080C0C00080C0E00080E0000080E0200080E0400080E0600080E0800080E0A00080E0C00080E0E000C0000000C0002000C0004000C0006000C0008000C000A000C000C000C000E000C0200000C0202000C0204000C0206000C0208000C020A000C020C000C020E000C0400000C0402000C0404000C0406000C0
310
408000C040A000C040C000C040E000C0600000C0602000C0604000C0606000C0608000C060A000C060C000C060E000C0800000C0802000C0804000C0806000C0808000C080A000C080C000C080E000C0A00000C0A02000C0A04000C0A06000C0A08000C0A0A000C0A0C000C0A0E000C0C00000C0C02000C0C04000C0C06000
310
C0C08000C0C0A000F0FBFF00A4A0A000808080000000FF0000FF000000FFFF00FF000000FF00FF00FFFF0000FFFFFF00FFFFFFFFFFFFFFFFFFFFFFFFFFFFFFFFFFFFFFFFFFFFFFFFFFFFFFFFFFFFFFFFFFFFFFFFFFFFFFFFFFFFFFFFFFFFFFFFFFFFFFFFFFFFFFFFFFFFFFFFFFFFFFFFFFFFFFFFFFFFFFFFFFFFFFFFFFFFFF
310
FFFFFFFFFFFFFFFFFFFFFFFFFFFFFFFFFFFFFFFFFFFFFFFFFFFFFFFFFFFFFFFFFFFFFFFFFFFFFFFFFFFFFFFFFFFFFFFFFFFFFFFFFFFFFFFFFFFFFFFFFFFFFFFFFFFFFFFFFFFFFFFFFFFFFFFFFFFFFFFFFFFFFFFFFFFFFFFFFFFFFFFFFFFFFFFFFFFFFFFFFFFFFFFFFFFFFFFFFFFFFFFFFFFFFFFFFFFFFFFFFFFFFFFFFFFFFF
310
FFFFFFFFFFFFFFFFFFFFFFFFFFFFFFFFFFFFFFFFFFFFFFFFFFFFFFFFFFFFFFFFFFFFFFFFFFFFFFFFFFFFFFFFFFFFFFFFFFFFFFFFFFFFFFFFFFFFFFFFFFFFFFFFFFFFFFFFFFFFFFFFFFFFFFFFFFFFFFFFFFFFFFFFFFFFFFFFFFFFFFFFFFFFFFFFFFFFFFFFFFFFFFFFFFFFFFFFFFFFFFFFFFFFFFFFFFFFFFFFFFFFFFFFFFFFFF
310
FFFFFFFFFFFFFFFFFFFFFFFFFFFFFFFFFFFFFFFFFFFFFFFFFFFFFFFFFFFFFFFFFFFFFFFFFFFFFFFFFFFFFFFFFFFFFFFFFFFFFFFFFFFFFFFFFFFFFFFFFFFFFFFFFFFFFFFFFFFFFFFFFFFFFFFFFFFFFFFFFFFFFFFFFFFFFFFFFFFFFFFF0000000000000000000000000000FFFFFFFFFFFFFFFFFFFFFFFFFFFFFFFFFFFF000000
310
0000000000000000000000FFFFFFFFFFFFFFFFFFFFFFFFFFFFFFFFFFFFFFFFFF000000000000000000FFFFFFFFFFFFFFFFFFFFFFFFFFFFFFFFFFFFFFFFFFFFFF000000000000000000FFFFFFFFFFFFFFFFFFFFFFFFFFFFFFFFFFFFFFFFFF000000000000000000000000FFFFFFFFFFFFFFFFFFFFFFFFFFFFFFFFFFFFFFFF00
310
FFFFFF00FF0000FF000000FFFFFFFFFFFFFFFFFFFFFFFFFFFFFFFFFFFFFFFFFFFFFFFFFFFFFFFFFFFFFFFFFFFFFFFFFFFFFFFFFFFFFFFFFFFFFFFFFFFFFFFFFFFFFFFFFFFFFFFFFFFFFFFFFFFFFFFFFFFFFFFFFFFFFFFFFFFFFFFFFFFFFFFFFFFFFFFFFFFFFFFFFFFFFFFFFFFFFFFFFFFFFFFFFFFFFFFFFFFFFFFFFFFFFFFF
310
FFFFFFFFFFFFFFFFFFFFFFFFFFFFFFFFFFFFFFFFFFFFFFFFFFFFFFFFFFFFFFFFFFFFFFFFFFFFFFFFFFFFFFFFFFFFFFFFFFFFFFFFFFFFFFFFFFFFFFFFFFFFFFFFFFFFFFFFFFFFFFFFFFFFFFFFFFFFFFFFFFFFFFFFFFFFFFFFFFFFFFFFFFFFFFFFFFFFFFFFFFFFFFFFFFFFFFFFFFFFFFFFFFFFFFFFFFFFFFFFFFFFFFFFFFFFFF
310
FFFFFFFFFFFFFFFFFFFFFFFFFFFFFFFFFFFFFFFFFFFFFFFFFFFFFFFFFFFFFFFFFFFFFFFFFFFFFFFFFFFFFFFFFFFFFFFFFFFFFFFFFFFFFFFFFFFFFFFFFFFFFFFFFFFFFFFFFFFFFFFFFFFFFFFFFFFFFFFFFFFFFFFFFFFFFFFFFFFFFFFFFFFFFFFFFFFFFFFFFFFFFFFFFFFFFFFFFFFFFFFFFFFFFFFFFFFFFFFFFFFFFFFFFFFFFF
310
FFFFFFFFFFFFFFFFFFFFFFFFFFFFFFFFFFFFFFFFFFFFFFFFFFFFFFFFFFFFFFFFFFFFFFFFFFFFFFFFFFFFFFFFFFFFFFFFFFFFFFFFFFFFFFFF
102
{BLKREFS
331
20C1
331
20C6
102
}
  0
BLOCK_RECORD
  5
25CA
330
1D7E
100
AcDbSymbolTableRecord
100
AcDbBlockTableRecord
  2
HD LLC
340
0
310
2800000020000000200000000100080000000000000400000000000000000000000000000000000000000000000080000080000000808000800000008000800080800000C0C0C000C0DCC000F0CAA6000020400000206000002080000020A0000020C0000020E00000400000004020000040400000406000004080000040A0
310
000040C0000040E00000600000006020000060400000606000006080000060A0000060C0000060E00000800000008020000080400000806000008080000080A0000080C0000080E00000A0000000A0200000A0400000A0600000A0800000A0A00000A0C00000A0E00000C0000000C0200000C0400000C0600000C0800000C0
310
A00000C0C00000C0E00000E0000000E0200000E0400000E0600000E0800000E0A00000E0C00000E0E00040000000400020004000400040006000400080004000A0004000C0004000E00040200000402020004020400040206000402080004020A0004020C0004020E000404000004040200040404000404060004040800040
310
40A0004040C0004040E00040600000406020004060400040606000406080004060A0004060C0004060E00040800000408020004080400040806000408080004080A0004080C0004080E00040A0000040A0200040A0400040A0600040A0800040A0A00040A0C00040A0E00040C0000040C0200040C0400040C0600040C08000
310
40C0A00040C0C00040C0E00040E0000040E0200040E0400040E0600040E0800040E0A00040E0C00040E0E00080000000800020008000400080006000800080008000A0008000C0008000E00080200000802020008020400080206000802080008020A0008020C0008020E00080400000804020008040400080406000804080
310
008040A0008040C0008040E00080600000806020008060400080606000806080008060A0008060C0008060E00080800000808020008080400080806000808080008080A0008080C0008080E00080A0000080A0200080A0400080A0600080A0800080A0A00080A0C00080A0E00080C0000080C0200080C0400080C0600080C0
310
800080C0A00080C0C00080C0E00080E0000080E0200080E0400080E0600080E0800080E0A00080E0C00080E0E000C0000000C0002000C0004000C0006000C0008000C000A000C000C000C000E000C0200000C0202000C0204000C0206000C0208000C020A000C020C000C020E000C0400000C0402000C0404000C0406000C0
310
408000C040A000C040C000C040E000C0600000C0602000C0604000C0606000C0608000C060A000C060C000C060E000C0800000C0802000C0804000C0806000C0808000C080A000C080C000C080E000C0A00000C0A02000C0A04000C0A06000C0A08000C0A0A000C0A0C000C0A0E000C0C00000C0C02000C0C04000C0C06000
310
C0C08000C0C0A000F0FBFF00A4A0A000808080000000FF0000FF000000FFFF00FF000000FF00FF00FFFF0000FFFFFF00FFFFFFFFFFFFFFFFFFFFFFFFFFFFFFFFFFFFFFFFFFFFFFFFFFFFFFFFFFFFFFFFFFFFFFFFFFFFFFFFFFFFFFFFFFFFFFFFFFFFFFFFFFFFFFFFFFFFFFFFFFFFFFFFFFFFFFFFFFFFFFFFFFFFFFFFFFFFFF
310
FFFFFFFFFFFFFFFFFFFFFFFFFFFFFFFFFFFFFFFFFFFFFFFFFFFFFFFFFFFFFFFFFFFFFFFFFFFFFFFFFFFFFFFFFFFFFFFFFFFFFFFFFFFFFFFFFFFFFFFFFFFFFFFFFFFFFFFFFFFFFFFFFFFFFFFFFFFFFFFFFFFFFFFFFFFFFFFFFFFFFFFFFFFFFFFFFFFFFFFFFFFFFFFFFFFFFFFFFFFFFFFFFFFFFFFFFFFFFFFFFFFFFFFFFFFFFF
310
FFFFFFFFFFFFFFFFFFFFFFFFFFFFFFFFFFFFFFFFFFFFFFFFFFFFFFFFFFFFFFFFFFFFFFFFFFFFFFFFFFFFFFFFFFFFFFFFFFFFFFFFFFFFFFFFFFFFFFFFFFFFFFFFFFFFFFFFFFFFFFFFFFFFFFFFFFFFFFFFFFFFFFFFFFFFFFFFFFFFFFFFFFFFFFFFFFFFFFFFFFFFFFFFFFFFFFFFFFFFFFFFFFFFFFFFFFFFFFFFFFFFFFFFFFFFFF
310
FFFFFFFFFFFFFFFFFFFFFFFFFFFFFFFFFFFFFFFFFFFFFFFFFFFFFFFFFFFFFFFFFFFFFFFFFFFFFFFFFFFFFFFFFFFFFFFFFFFFFFFFFFFFFFFFFFFFFFFFFFFFFFFFFFFFFFFFFFFFFFFFFFFFFFFFFFFFFFFFFFFFFFFFFFFFFFFFFFFFFFFFFFFFFFFFFFFFFFFFFFFFFFFFFFFFFFFFFFFFFFFFFFFFFFFFFFFFFFFFFFFFFFFFFFFF00
310
000000000000000000FFFFFFFFFFFFFFFFFFFFFFFFFFFFFFFFFFFFFFFFFFFF00000000000000000000FFFFFFFFFFFFFFFFFFFFFFFFFFFFFFFFFFFFFFFFFFFF00000000000000000000FFFFFFFFFFFFFFFFFFFFFFFFFFFFFFFFFFFFFFFFFFFF00000000000000000000FFFFFFFFFFFFFFFFFFFFFFFFFFFFFFFFFFFFFFFFFFFF
310
FFFFFFFFFFFFFFFFFFFFFFFFFFFFFFFFFFFFFFFFFFFFFFFFFFFFFFFFFFFFFFFFFFFFFFFFFFFFFFFFFFFFFFFFFFFFFFFFFFFFFFFFFFFFFFFFFFFFFFFFFFFFFFFFFFFFFFFFFFFFFFFFFFFFFFFFFFFFFFFFFFFFFFFFFFFFFFFFFFFFFFFFFFFFFFFFFFFFFFFFFFFFFFFFFFFFFFFFFFFFFFFFFFFFFFFFFFFFFFFFFFFFFFFFFFFFFF
310
FFFFFFFFFFFFFFFFFFFFFFFFFFFFFFFFFFFFFFFFFFFFFFFFFFFFFFFFFFFFFFFFFFFFFFFFFFFFFFFFFFFFFFFFFFFFFFFFFFFFFFFFFFFFFFFFFFFFFFFFFFFFFFFFFFFFFFFFFFFFFFFFFFFFFFFFFFFFFFFFFFFFFFFFFFFFFFFFFFFFFFFFFFFFFFFFFFFFFFFFFFFFFFFFFFFFFFFFFFFFFFFFFFFFFFFFFFFFFFFFFFFFFFFFFFFFFF
310
FFFFFFFFFFFFFFFFFFFFFFFFFFFFFFFFFFFFFFFFFFFFFFFFFFFFFFFFFFFFFFFFFFFFFFFFFFFFFFFFFFFFFFFFFFFFFFFFFFFFFFFFFFFFFFFFFFFFFFFFFFFFFFFFFFFFFFFFFFFFFFFFFFFFFFFFFFFFFFFFFFFFFFFFFFFFFFFFFFFFFFFFFFFFFFFFFFFFFFFFFFFFFFFFFFFFFFFFFFFFFFFFFFFFFFFFFFFFFFFFFFFFFFFFFFFFFF
310
FFFFFFFFFFFFFFFFFFFFFFFFFFFFFFFFFFFFFFFFFFFFFFFFFFFFFFFFFFFFFFFFFFFFFFFFFFFFFFFFFFFFFFFFFFFFFFFFFFFFFFFFFFFFFFFF
102
{BLKREFS
331
25CF
331
25D3
102
}
  0
BLOCK_RECORD
  5
25E0
330
1D7E
100
AcDbSymbolTableRecord
100
AcDbBlockTableRecord
  2
NTC
340
0
310
2800000020000000200000000100080000000000000400000000000000000000000000000000000000000000000080000080000000808000800000008000800080800000C0C0C000C0DCC000F0CAA6000020400000206000002080000020A0000020C0000020E00000400000004020000040400000406000004080000040A0
310
000040C0000040E00000600000006020000060400000606000006080000060A0000060C0000060E00000800000008020000080400000806000008080000080A0000080C0000080E00000A0000000A0200000A0400000A0600000A0800000A0A00000A0C00000A0E00000C0000000C0200000C0400000C0600000C0800000C0
310
A00000C0C00000C0E00000E0000000E0200000E0400000E0600000E0800000E0A00000E0C00000E0E00040000000400020004000400040006000400080004000A0004000C0004000E00040200000402020004020400040206000402080004020A0004020C0004020E000404000004040200040404000404060004040800040
310
40A0004040C0004040E00040600000406020004060400040606000406080004060A0004060C0004060E00040800000408020004080400040806000408080004080A0004080C0004080E00040A0000040A0200040A0400040A0600040A0800040A0A00040A0C00040A0E00040C0000040C0200040C0400040C0600040C08000
310
40C0A00040C0C00040C0E00040E0000040E0200040E0400040E0600040E0800040E0A00040E0C00040E0E00080000000800020008000400080006000800080008000A0008000C0008000E00080200000802020008020400080206000802080008020A0008020C0008020E00080400000804020008040400080406000804080
310
008040A0008040C0008040E00080600000806020008060400080606000806080008060A0008060C0008060E00080800000808020008080400080806000808080008080A0008080C0008080E00080A0000080A0200080A0400080A0600080A0800080A0A00080A0C00080A0E00080C0000080C0200080C0400080C0600080C0
310
800080C0A00080C0C00080C0E00080E0000080E0200080E0400080E0600080E0800080E0A00080E0C00080E0E000C0000000C0002000C0004000C0006000C0008000C000A000C000C000C000E000C0200000C0202000C0204000C0206000C0208000C020A000C020C000C020E000C0400000C0402000C0404000C0406000C0
310
408000C040A000C040C000C040E000C0600000C0602000C0604000C0606000C0608000C060A000C060C000C060E000C0800000C0802000C0804000C0806000C0808000C080A000C080C000C080E000C0A00000C0A02000C0A04000C0A06000C0A08000C0A0A000C0A0C000C0A0E000C0C00000C0C02000C0C04000C0C06000
310
C0C08000C0C0A000F0FBFF00A4A0A000808080000000FF0000FF000000FFFF00FF000000FF00FF00FFFF0000FFFFFF00FFFFFFFFFFFFFFFFFFFFFFFFFFFFFFFFFFFFFFFFFFFFFFFFFFFFFFFFFFFFFFFFFFFFFFFFFFFFFFFFFFFFFFFFFFFFFFFFFFFFFFFFFFFFFFFFFFFFFFFFFFFFFFFFFFFFFFFFFFFFFFFFFFFFFFFFFFFFFF
310
FFFFFFFFFFFFFFFFFFFFFFFFFFFFFFFFFFFFFFFFFFFFFFFFFFFFFFFFFFFFFFFFFFFFFFFFFFFFFFFFFFFFFFFFFFFFFFFFFFFFFFFFFFFFFFFFFFFFFFFFFFFFFFFFFFFFFFFFFFFFFFFFFFFFFFFFFFFFFFFFFFFFFFFFFFFFFFFFFFFFFFFFFFFFFFFFFFFFFFFFFFFFFFFFFFFFFFFFFFFFFFFFFFFFFFFFFFFFFFFFFFFFFFFFFFFFFF
310
FFFFFFFFFFFFFFFFFFFFFFFFFFFFFFFFFFFFFFFFFFFFFFFFFFFFFFFFFFFFFFFFFFFFFFFFFFFFFFFFFFFFFFFFFFFFFFFFFFFFFFFFFFFFFFFFFFFFFFFFFFFFFFFFFFFFFFFFFFFFFFFFFFFFFFFFFFFFFFFFFFFFFFFFFFFFFFFFFFFFFFFFFFFFFFFFFFFFFFFFFFFFFFFFFFFFFFFFFFFFFFFFFFFFFFFFFFFFFFFFFFFFFFFFFFFFFF
310
FFFFFFFFFFFFFFFFFFFFFFFFFFFFFFFFFFFFFFFF000000000000000000000000000000000000000000000000000000000000FFFF00FF0000000000000000FFFFFFFFFFFFFFFFFFFFFFFFFFFFFFFFFFFFFF00FFFF00FF0000000000000000FFFFFFFFFFFFFFFFFFFFFFFFFFFFFFFFFFFFFF00FFFF00FF000000000000000000
310
00000000000000000000000000FFFFFFFFFF00FFFF00FF0000000000000000000000000000000000000000000000000000FF00FFFF00FF0000000000000000000000000000000000000000000000000000FF00FFFF00FF0000000000000000000000000000000000000000000000000000FF00FFFF00FF0000000000000000
310
00000000000000000000000000000000FFFFFF00FFFF00FF0000000000FFFFFFFFFFFFFFFFFFFFFFFFFFFFFFFFFFFFFFFFFFFF00FFFF000000000000000000000000000000000000000000000000000000000000FFFFFFFFFFFFFFFFFFFFFFFFFFFFFFFFFFFFFFFFFFFFFFFFFFFFFFFFFFFFFFFFFFFFFFFFFFFFFFFFFFFFFF
310
FFFFFFFFFFFFFFFFFFFFFFFFFFFFFFFFFFFFFFFFFFFFFFFFFFFFFFFFFFFFFFFFFFFFFFFFFFFFFFFFFFFFFFFFFFFFFFFFFFFFFFFFFFFFFFFFFFFFFFFFFFFFFFFFFFFFFFFFFFFFFFFFFFFFFFFFFFFFFFFFFFFFFFFFFFFFFFFFFFFFFFFFFFFFFFFFFFFFFFFFFFFFFFFFFFFFFFFFFFFFFFFFFFFFFFFFFFFFFFFFFFFFFFFFFFFFFF
310
FFFFFFFFFFFFFFFFFFFFFFFFFFFFFFFFFFFFFFFFFFFFFFFFFFFFFFFFFFFFFFFFFFFFFFFFFFFFFFFFFFFFFFFFFFFFFFFFFFFFFFFFFFFFFFFFFFFFFFFFFFFFFFFFFFFFFFFFFFFFFFFFFFFFFFFFFFFFFFFFFFFFFFFFFFFFFFFFFFFFFFFFFFFFFFFFFFFFFFFFFFFFFFFFFFFFFFFFFFFFFFFFFFFFFFFFFFFFFFFFFFFFFFFFFFFFFF
310
FFFFFFFFFFFFFFFFFFFFFFFFFFFFFFFFFFFFFFFFFFFFFFFFFFFFFFFFFFFFFFFFFFFFFFFFFFFFFFFFFFFFFFFFFFFFFFFFFFFFFFFFFFFFFFFF
102
{BLKREFS
331
25E6
331
25EC
102
}
  0
ENDTAB
  0
ENDSEC
  0
SECTION
  2
BLOCKS
  0
BLOCK
  5
1D9C
330
1D9B
100
AcDbEntity
  8
0
100
AcDbBlockBegin
  2
*Model_Space
 70
     0
 10
0.0
 20
0.0
 30
0.0
  3
*Model_Space
  1

  0
ENDBLK
  5
1D9D
330
1D9B
100
AcDbEntity
  8
0
100
AcDbBlockEnd
  0
BLOCK
  5
1D98
330
1D97
100
AcDbEntity
 67
     1
  8
0
100
AcDbBlockBegin
  2
*Paper_Space
 70
     0
 10
0.0
 20
0.0
 30
0.0
  3
*Paper_Space
  1

  0
ENDBLK
  5
1D99
330
1D97
100
AcDbEntity
 67
     1
  8
0
100
AcDbBlockEnd
  0
BLOCK
  5
1DB5
330
1DB4
100
AcDbEntity
  8
0
100
AcDbBlockBegin
  2
$MODEL_SPACE
 70
     0
 10
0.0
 20
0.0
 30
0.0
  3
$MODEL_SPACE
  1

  0
ENDBLK
  5
1DB6
330
1DB4
100
AcDbEntity
  8
0
100
AcDbBlockEnd
  0
BLOCK
  5
1DB8
330
1DB7
100
AcDbEntity
  8
0
100
AcDbBlockBegin
  2
$PAPER_SPACE
 70
     0
 10
0.0
 20
0.0
 30
0.0
  3
$PAPER_SPACE
  1

  0
ENDBLK
  5
1DB9
330
1DB7
100
AcDbEntity
  8
0
100
AcDbBlockEnd
  0
BLOCK
  5
204B
330
2048
100
AcDbEntity
  8
0
 62
     7
100
AcDbBlockBegin
  2
AI9-BLK14
 70
     0
 10
0.0
 20
0.0
 30
0.0
  3
AI9-BLK14
  1

  0
SPLINE
  5
2049
330
2048
100
AcDbEntity
  8
LAYER_1
 62
     7
100
AcDbSpline
210
0.0
220
0.0
230
1.0
 70
    11
 71
     3
 72
    23
 73
    19
 74
     0
 42
0.0000000001
 43
0.0000000001
 40
0.0
 40
0.0
 40
0.0
 40
0.0
 40
1.0
 40
1.0
 40
1.0
 40
2.0
 40
2.0
 40
2.0
 40
3.0
 40
3.0
 40
3.0
 40
4.0
 40
4.0
 40
4.0
 40
5.0
 40
5.0
 40
5.0
 40
6.0
 40
6.0
 40
6.0
 40
6.0
 10
-10.90321044921874
 20
10.88107571072048
 30
0.0
 10
-10.90321044921874
 20
10.88107571072048
 30
0.0
 10
-10.90321044921874
 20
-10.88107571072048
 30
0.0
 10
-10.90321044921874
 20
-10.88107571072048
 30
0.0
 10
-10.90321044921874
 20
-10.88107571072048
 30
0.0
 10
1.752692328559025
 20
-10.88107571072048
 30
0.0
 10
1.752692328559025
 20
-10.88107571072048
 30
0.0
 10
3.280592176649305
 20
-10.88107571072048
 30
0.0
 10
10.90321044921874
 20
-10.32383151584201
 30
0.0
 10
10.90321044921874
 20
0.6792867024739583
 30
0.0
 10
10.90321044921874
 20
10.61700914171006
 30
0.0
 10
2.773129611545138
 20
10.87952541775172
 30
0.0
 10
2.691136338975693
 20
10.88090345594618
 30
0.0
 10
2.691136338975693
 20
10.88090345594618
 30
0.0
 10
-9.903099229600693
 20
10.88107571072048
 30
0.0
 10
-9.903099229600693
 20
10.88107571072048
 30
0.0
 10
-9.903099229600693
 20
10.88107571072048
 30
0.0
 10
-10.90321044921874
 20
10.88107571072048
 30
0.0
 10
-10.90321044921874
 20
10.88107571072048
 30
0.0
  0
SPLINE
  5
204A
330
2048
100
AcDbEntity
  8
LAYER_1
 62
     7
100
AcDbSpline
210
0.0
220
0.0
230
1.0
 70
    11
 71
     3
 72
    20
 73
    16
 74
     0
 42
0.0000000001
 43
0.0000000001
 40
0.0
 40
0.0
 40
0.0
 40
0.0
 40
1.0
 40
1.0
 40
1.0
 40
2.0
 40
2.0
 40
2.0
 40
3.0
 40
3.0
 40
3.0
 40
4.0
 40
4.0
 40
4.0
 40
5.0
 40
5.0
 40
5.0
 40
5.0
 10
2.672877332899305
 20
8.881197781032986
 30
0.0
 10
2.905421278211805
 20
8.874307590060762
 30
0.0
 10
8.902988009982637
 20
8.616442192925347
 30
0.0
 10
8.902988009982637
 20
0.6792867024739583
 30
0.0
 10
8.902988009982637
 20
-8.191661919487842
 30
0.0
 10
3.430109320746526
 20
-8.881197781032986
 30
0.0
 10
1.752692328559025
 20
-8.881197781032986
 30
0.0
 10
1.752692328559025
 20
-8.881197781032986
 30
0.0
 10
-7.231427680121528
 20
-8.881197781032986
 30
0.0
 10
-8.902988009982637
 20
-8.881197781032986
 30
0.0
 10
-8.902988009982637
 20
-7.174497477213541
 30
0.0
 10
-8.902988009982637
 20
7.174497477213541
 30
0.0
 10
-8.902988009982637
 20
8.881197781032986
 30
0.0
 10
-7.208690049913191
 20
8.881197781032986
 30
0.0
 10
2.672877332899305
 20
8.881197781032986
 30
0.0
 10
2.672877332899305
 20
8.881197781032986
 30
0.0
  0
ENDBLK
  5
204C
330
2048
100
AcDbEntity
  8
0
100
AcDbBlockEnd
  0
BLOCK
  5
2050
330
204D
100
AcDbEntity
  8
0
 62
     7
100
AcDbBlockBegin
  2
AI9-BLK13
 70
     0
 10
0.0
 20
0.0
 30
0.0
  3
AI9-BLK13
  1

  0
LWPOLYLINE
  5
204E
330
204D
100
AcDbEntity
  8
LAYER_1
 62
     7
100
AcDbPolyline
 90
       12
 70
     1
 43
0.0
 10
-3.792361111111107
 20
10.7376736111111
 10
-2.469444444444443
 20
10.7376736111111
 10
-2.469444444444443
 20
1.874131944444444
 10
2.469444444444443
 20
1.874131944444444
 10
2.469444444444443
 20
10.7376736111111
 10
3.792361111111107
 20
10.7376736111111
 10
3.792361111111107
 20
-10.7376736111111
 10
2.469444444444443
 20
-10.7376736111111
 10
2.469444444444443
 20
-0.6835069444444444
 10
-2.469444444444443
 20
-0.6835069444444444
 10
-2.469444444444443
 20
-10.7376736111111
 10
-3.792361111111107
 20
-10.7376736111111
  0
HATCH
  5
204F
330
204D
100
AcDbEntity
  8
LAYER_1
 62
     7
100
AcDbHatch
 10
0.0
 20
0.0
 30
0.0
210
0.0
220
0.0
230
1.0
  2
SOLID
 70
     1
 71
     0
 91
        1
 92
        3
 72
     0
 73
     1
 93
       12
 10
-3.792361111111107
 20
10.7376736111111
 10
-2.469444444444443
 20
10.7376736111111
 10
-2.469444444444443
 20
1.874131944444444
 10
2.469444444444443
 20
1.874131944444444
 10
2.469444444444443
 20
10.7376736111111
 10
3.792361111111107
 20
10.7376736111111
 10
3.792361111111107
 20
-10.7376736111111
 10
2.469444444444443
 20
-10.7376736111111
 10
2.469444444444443
 20
-0.6835069444444444
 10
-2.469444444444443
 20
-0.6835069444444444
 10
-2.469444444444443
 20
-10.7376736111111
 10
-3.792361111111107
 20
-10.7376736111111
 97
        0
 75
     2
 76
     1
 98
        1
 10
0.0
 20
0.0
  0
ENDBLK
  5
2051
330
204D
100
AcDbEntity
  8
0
100
AcDbBlockEnd
  0
BLOCK
  5
2055
330
2052
100
AcDbEntity
  8
0
 62
     7
100
AcDbBlockBegin
  2
AI9-BLK11
 70
     0
 10
0.0
 20
0.0
 30
0.0
  3
AI9-BLK11
  1

  0
SPLINE
  5
2053
330
2052
100
AcDbEntity
  8
LAYER_1
 62
     7
100
AcDbSpline
210
0.0
220
0.0
230
1.0
 70
    11
 71
     3
 72
    26
 73
    22
 74
     0
 42
0.0000000001
 43
0.0000000001
 40
0.0
 40
0.0
 40
0.0
 40
0.0
 40
1.0
 40
1.0
 40
1.0
 40
2.0
 40
2.0
 40
2.0
 40
3.0
 40
3.0
 40
3.0
 40
4.0
 40
4.0
 40
4.0
 40
5.0
 40
5.0
 40
5.0
 40
6.0
 40
6.0
 40
6.0
 40
7.0
 40
7.0
 40
7.0
 40
7.0
 10
-2.645833333333333
 20
0.9039930555555551
 30
0.0
 10
-2.645833333333333
 20
0.9039930555555551
 30
0.0
 10
-2.645833333333333
 20
8.180034722222217
 30
0.0
 10
-2.645833333333333
 20
8.180034722222217
 30
0.0
 10
-2.645833333333333
 20
8.180034722222217
 30
0.0
 10
0.465087890625
 20
8.180034722222217
 30
0.0
 10
0.465087890625
 20
8.180034722222217
 30
0.0
 10
0.9026150173611108
 20
8.180034722222217
 30
0.0
 10
1.24988064236111
 20
8.034651692708331
 30
0.0
 10
1.506884765625
 20
7.745263671874997
 30
0.0
 10
2.001600477430554
 20
7.194048394097221
 30
0.0
 10
2.248958333333332
 20
6.160519748263887
 30
0.0
 10
2.248958333333332
 20
4.643299696180553
 30
0.0
 10
2.248958333333332
 20
3.232188585069443
 30
0.0
 10
2.072569444444444
 20
2.256537543402775
 30
0.0
 10
1.720480685763888
 20
1.715657552083333
 30
0.0
 10
1.368391927083333
 20
1.174088541666665
 30
0.0
 10
0.8929687499999998
 20
0.9039930555555551
 30
0.0
 10
0.2942111545138888
 20
0.9039930555555551
 30
0.0
 10
0.2942111545138888
 20
0.9039930555555551
 30
0.0
 10
-2.645833333333333
 20
0.9039930555555551
 30
0.0
 10
-2.645833333333333
 20
0.9039930555555551
 30
0.0
  0
SPLINE
  5
2054
330
2052
100
AcDbEntity
  8
LAYER_1
 62
     7
100
AcDbSpline
210
0.0
220
0.0
230
1.0
 70
    11
 71
     3
 72
    68
 73
    64
 74
     0
 42
0.0000000001
 43
0.0000000001
 40
0.0
 40
0.0
 40
0.0
 40
0.0
 40
1.0
 40
1.0
 40
1.0
 40
2.0
 40
2.0
 40
2.0
 40
3.0
 40
3.0
 40
3.0
 40
4.0
 40
4.0
 40
4.0
 40
5.0
 40
5.0
 40
5.0
 40
6.0
 40
6.0
 40
6.0
 40
7.0
 40
7.0
 40
7.0
 40
8.0
 40
8.0
 40
8.0
 40
9.0
 40
9.0
 40
9.0
 40
10.0
 40
10.0
 40
10.0
 40
11.0
 40
11.0
 40
11.0
 40
12.0
 40
12.0
 40
12.0
 40
13.0
 40
13.0
 40
13.0
 40
14.0
 40
14.0
 40
14.0
 40
15.0
 40
15.0
 40
15.0
 40
16.0
 40
16.0
 40
16.0
 40
17.0
 40
17.0
 40
17.0
 40
18.0
 40
18.0
 40
18.0
 40
19.0
 40
19.0
 40
19.0
 40
20.0
 40
20.0
 40
20.0
 40
21.0
 40
21.0
 40
21.0
 40
21.0
 10
-3.968749999999998
 20
-10.7376736111111
 30
0.0
 10
-3.968749999999998
 20
-10.7376736111111
 30
0.0
 10
-2.645833333333333
 20
-10.7376736111111
 30
0.0
 10
-2.645833333333333
 20
-10.7376736111111
 30
0.0
 10
-2.645833333333333
 20
-10.7376736111111
 30
0.0
 10
-2.645833333333333
 20
-1.521354166666665
 30
0.0
 10
-2.645833333333333
 20
-1.521354166666665
 30
0.0
 10
-2.645833333333333
 20
-1.521354166666665
 30
0.0
 10
0.2390896267361111
 20
-1.521354166666665
 30
0.0
 10
0.2390896267361111
 20
-1.521354166666665
 30
0.0
 10
0.7599880642361111
 20
-1.521354166666665
 30
0.0
 10
1.143771701388887
 20
-1.65295681423611
 30
0.0
 10
1.390440538194444
 20
-1.916162109374999
 30
0.0
 10
1.816254340277773
 20
-2.39434136284722
 30
0.0
 10
2.04363064236111
 20
-3.335541449652775
 30
0.0
 10
2.072569444444444
 20
-4.739762369791666
 30
0.0
 10
2.072569444444444
 20
-4.739762369791666
 30
0.0
 10
2.160763888888888
 20
-8.324039713541665
 30
0.0
 10
2.160763888888888
 20
-8.324039713541665
 30
0.0
 10
2.18005642361111
 20
-9.163264973958332
 30
0.0
 10
2.202794053819443
 20
-9.728949652777775
 30
0.0
 10
2.227598741319444
 20
-10.02109374999998
 30
0.0
 10
2.252403428819443
 20
-10.31392686631944
 30
0.0
 10
2.28892144097222
 20
-10.55301649305555
 30
0.0
 10
2.33853081597222
 20
-10.7376736111111
 30
0.0
 10
2.33853081597222
 20
-10.7376736111111
 30
0.0
 10
3.968749999999998
 20
-10.7376736111111
 30
0.0
 10
3.968749999999998
 20
-10.7376736111111
 30
0.0
 10
3.968749999999998
 20
-10.7376736111111
 30
0.0
 10
3.968749999999998
 20
-10.25260416666666
 30
0.0
 10
3.968749999999998
 20
-10.25260416666666
 30
0.0
 10
3.766867404513888
 20
-10.05830078125
 30
0.0
 10
3.625618489583333
 20
-9.621462673611112
 30
0.0
 10
3.545692274305555
 20
-8.942089843749997
 30
0.0
 10
3.49470486111111
 20
-8.543836805555555
 30
0.0
 10
3.459564887152775
 20
-7.937499999999999
 30
0.0
 10
3.439583333333333
 20
-7.121701388888887
 30
0.0
 10
3.439583333333333
 20
-7.121701388888887
 30
0.0
 10
3.395486111111106
 20
-4.232644314236106
 30
0.0
 10
3.395486111111106
 20
-4.232644314236106
 30
0.0
 10
3.375504557291666
 20
-2.981385633680555
 30
0.0
 10
3.26870659722222
 20
-2.077392578125
 30
0.0
 10
3.075781249999999
 20
-1.522043185763888
 30
0.0
 10
2.882166883680555
 20
-0.9666937934027776
 30
0.0
 10
2.592089843749999
 20
-0.5188313802083333
 30
0.0
 10
2.204861111111106
 20
-0.1770779079861111
 30
0.0
 10
2.63618706597222
 20
0.3197048611111111
 30
0.0
 10
2.971739366319443
 20
0.9770290798611107
 30
0.0
 10
3.211518012152775
 20
1.79558376736111
 30
0.0
 10
3.451296657986107
 20
2.613449435763888
 30
0.0
 10
3.571874999999999
 20
3.66558159722222
 30
0.0
 10
3.571874999999999
 20
4.951291232638888
 30
0.0
 10
3.571874999999999
 20
7.415912543402777
 30
0.0
 10
3.124701605902775
 20
9.106076388888887
 30
0.0
 10
2.231043836805555
 20
10.02178276909722
 30
0.0
 10
1.759754774305553
 20
10.498583984375
 30
0.0
 10
1.163753255208332
 20
10.7376736111111
 30
0.0
 10
0.443039279513889
 20
10.7376736111111
 30
0.0
 10
0.443039279513889
 20
10.7376736111111
 30
0.0
 10
-3.968749999999998
 20
10.7376736111111
 30
0.0
 10
-3.968749999999998
 20
10.7376736111111
 30
0.0
 10
-3.968749999999998
 20
10.7376736111111
 30
0.0
 10
-3.968749999999998
 20
-10.7376736111111
 30
0.0
 10
-3.968749999999998
 20
-10.7376736111111
 30
0.0
  0
ENDBLK
  5
2056
330
2052
100
AcDbEntity
  8
0
100
AcDbBlockEnd
  0
BLOCK
  5
2059
330
2057
100
AcDbEntity
  8
0
 62
     7
100
AcDbBlockBegin
  2
AI9-BLK10
 70
     0
 10
0.0
 20
0.0
 30
0.0
  3
AI9-BLK10
  1

  0
SPLINE
  5
2058
330
2057
100
AcDbEntity
  8
LAYER_1
 62
     7
100
AcDbSpline
210
0.0
220
0.0
230
1.0
 70
    11
 71
     3
 72
    59
 73
    55
 74
     0
 42
0.0000000001
 43
0.0000000001
 40
0.0
 40
0.0
 40
0.0
 40
0.0
 40
1.0
 40
1.0
 40
1.0
 40
2.0
 40
2.0
 40
2.0
 40
3.0
 40
3.0
 40
3.0
 40
4.0
 40
4.0
 40
4.0
 40
5.0
 40
5.0
 40
5.0
 40
6.0
 40
6.0
 40
6.0
 40
7.0
 40
7.0
 40
7.0
 40
8.0
 40
8.0
 40
8.0
 40
9.0
 40
9.0
 40
9.0
 40
10.0
 40
10.0
 40
10.0
 40
11.0
 40
11.0
 40
11.0
 40
12.0
 40
12.0
 40
12.0
 40
13.0
 40
13.0
 40
13.0
 40
14.0
 40
14.0
 40
14.0
 40
15.0
 40
15.0
 40
15.0
 40
16.0
 40
16.0
 40
16.0
 40
17.0
 40
17.0
 40
17.0
 40
18.0
 40
18.0
 40
18.0
 40
18.0
 10
-4.652256944444443
 20
10.7376736111111
 30
0.0
 10
-4.652256944444443
 20
10.7376736111111
 30
0.0
 10
-2.798795572916666
 20
10.7376736111111
 30
0.0
 10
-2.798795572916666
 20
10.7376736111111
 30
0.0
 10
-2.798795572916666
 20
10.7376736111111
 30
0.0
 10
0.0
 20
-7.419357638888887
 30
0.0
 10
0.0
 20
-7.419357638888887
 30
0.0
 10
0.0
 20
-7.419357638888887
 30
0.0
 10
2.793283420138888
 20
10.7376736111111
 30
0.0
 10
2.793283420138888
 20
10.7376736111111
 30
0.0
 10
2.793283420138888
 20
10.7376736111111
 30
0.0
 10
4.652256944444443
 20
10.7376736111111
 30
0.0
 10
4.652256944444443
 20
10.7376736111111
 30
0.0
 10
4.652256944444443
 20
10.7376736111111
 30
0.0
 10
4.652256944444443
 20
-10.7376736111111
 30
0.0
 10
4.652256944444443
 20
-10.7376736111111
 30
0.0
 10
4.652256944444443
 20
-10.7376736111111
 30
0.0
 10
3.41753472222222
 20
-10.7376736111111
 30
0.0
 10
3.41753472222222
 20
-10.7376736111111
 30
0.0
 10
3.41753472222222
 20
-10.7376736111111
 30
0.0
 10
3.41753472222222
 20
1.936832682291665
 30
0.0
 10
3.41753472222222
 20
1.936832682291665
 30
0.0
 10
3.41753472222222
 20
2.375048828124999
 30
0.0
 10
3.424424913194443
 20
3.101274956597221
 30
0.0
 10
3.439583333333333
 20
4.11482204861111
 30
0.0
 10
3.454052734374998
 20
5.128369140624998
 30
0.0
 10
3.461631944444443
 20
6.214952256944441
 30
0.0
 10
3.461631944444443
 20
7.375260416666666
 30
0.0
 10
3.461631944444443
 20
7.375260416666666
 30
0.0
 10
0.6538791232638889
 20
-10.7376736111111
 30
0.0
 10
0.6538791232638889
 20
-10.7376736111111
 30
0.0
 10
0.6538791232638889
 20
-10.7376736111111
 30
0.0
 10
-0.6628363715277778
 20
-10.7376736111111
 30
0.0
 10
-0.6628363715277778
 20
-10.7376736111111
 30
0.0
 10
-0.6628363715277778
 20
-10.7376736111111
 30
0.0
 10
-3.461631944444443
 20
7.375260416666666
 30
0.0
 10
-3.461631944444443
 20
7.375260416666666
 30
0.0
 10
-3.461631944444443
 20
7.375260416666666
 30
0.0
 10
-3.461631944444443
 20
6.717247178819441
 30
0.0
 10
-3.461631944444443
 20
6.717247178819441
 30
0.0
 10
-3.461631944444443
 20
6.190836588541666
 30
0.0
 10
-3.45474175347222
 20
5.389507378472222
 30
0.0
 10
-3.439583333333333
 20
4.312570529513888
 30
0.0
 10
-3.425113932291666
 20
3.235633680555555
 30
0.0
 10
-3.41753472222222
 20
2.44395073784722
 30
0.0
 10
-3.41753472222222
 20
1.936832682291665
 30
0.0
 10
-3.41753472222222
 20
1.936832682291665
 30
0.0
 10
-3.41753472222222
 20
-10.7376736111111
 30
0.0
 10
-3.41753472222222
 20
-10.7376736111111
 30
0.0
 10
-3.41753472222222
 20
-10.7376736111111
 30
0.0
 10
-4.652256944444443
 20
-10.7376736111111
 30
0.0
 10
-4.652256944444443
 20
-10.7376736111111
 30
0.0
 10
-4.652256944444443
 20
-10.7376736111111
 30
0.0
 10
-4.652256944444443
 20
10.7376736111111
 30
0.0
 10
-4.652256944444443
 20
10.7376736111111
 30
0.0
  0
ENDBLK
  5
205A
330
2057
100
AcDbEntity
  8
0
100
AcDbBlockEnd
  0
BLOCK
  5
205E
330
205B
100
AcDbEntity
  8
0
 62
     7
100
AcDbBlockBegin
  2
AI9-BLK9
 70
     0
 10
0.0
 20
0.0
 30
0.0
  3
AI9-BLK9
  1

  0
SPLINE
  5
205C
330
205B
100
AcDbEntity
  8
LAYER_1
 62
     7
100
AcDbSpline
210
0.0
220
0.0
230
1.0
 70
    11
 71
     3
 72
    29
 73
    25
 74
     0
 42
0.0000000001
 43
0.0000000001
 40
0.0
 40
0.0
 40
0.0
 40
0.0
 40
1.0
 40
1.0
 40
1.0
 40
2.0
 40
2.0
 40
2.0
 40
3.0
 40
3.0
 40
3.0
 40
4.0
 40
4.0
 40
4.0
 40
5.0
 40
5.0
 40
5.0
 40
6.0
 40
6.0
 40
6.0
 40
7.0
 40
7.0
 40
7.0
 40
8.0
 40
8.0
 40
8.0
 40
8.0
 10
0.0668348524305556
 20
-8.753298611111111
 30
0.0
 10
-0.9067491319444444
 20
-8.753298611111111
 30
0.0
 10
-1.60954861111111
 20
-7.936810980902778
 30
0.0
 10
-2.041563585069444
 20
-6.30383572048611
 30
0.0
 10
-2.474267578124999
 20
-4.670860460069443
 30
0.0
 10
-2.689930555555555
 20
-2.664436848958333
 30
0.0
 10
-2.689930555555555
 20
-0.28525390625
 30
0.0
 10
-2.689930555555555
 20
2.68855251736111
 30
0.0
 10
-2.439127604166666
 20
4.938199869791666
 30
0.0
 10
-1.937521701388888
 20
6.464377170138886
 30
0.0
 10
-1.43591579861111
 20
7.989865451388887
 30
0.0
 10
-0.7827256944444444
 20
8.753298611111111
 30
0.0
 10
0.0220486111111111
 20
8.753298611111111
 30
0.0
 10
0.8468044704861108
 20
8.753298611111111
 30
0.0
 10
1.49792751736111
 20
7.982975260416663
 30
0.0
 10
1.974728732638888
 20
6.442328559027776
 30
0.0
 10
2.451529947916665
 20
4.901681857638886
 30
0.0
 10
2.689930555555555
 20
2.868386501736111
 30
0.0
 10
2.689930555555555
 20
0.3438205295138888
 30
0.0
 10
2.689930555555555
 20
-2.045697699652774
 30
0.0
 10
2.483224826388884
 20
-4.15891927083333
 30
0.0
 10
2.071191406249999
 20
-5.996533203124998
 30
0.0
 10
1.65915798611111
 20
-7.834836154513887
 30
0.0
 10
0.9908094618055557
 20
-8.753298611111111
 30
0.0
 10
0.0668348524305556
 20
-8.753298611111111
 30
0.0
  0
SPLINE
  5
205D
330
205B
100
AcDbEntity
  8
LAYER_1
 62
     7
100
AcDbSpline
210
0.0
220
0.0
230
1.0
 70
    11
 71
     3
 72
    29
 73
    25
 74
     0
 42
0.0000000001
 43
0.0000000001
 40
0.0
 40
0.0
 40
0.0
 40
0.0
 40
1.0
 40
1.0
 40
1.0
 40
2.0
 40
2.0
 40
2.0
 40
3.0
 40
3.0
 40
3.0
 40
4.0
 40
4.0
 40
4.0
 40
5.0
 40
5.0
 40
5.0
 40
6.0
 40
6.0
 40
6.0
 40
7.0
 40
7.0
 40
7.0
 40
8.0
 40
8.0
 40
8.0
 40
8.0
 10
-0.0289388020833333
 20
11.35503472222222
 30
0.0
 10
-1.317404513888887
 20
11.35503472222222
 30
0.0
 10
-2.28892144097222
 20
10.02798394097222
 30
0.0
 10
-2.94280056423611
 20
7.374571397569441
 30
0.0
 10
-3.450607638888888
 20
5.30613606770833
 30
0.0
 10
-3.704166666666666
 20
2.81877712673611
 30
0.0
 10
-3.704166666666666
 20
-0.0881944444444445
 30
0.0
 10
-3.704166666666666
 20
-3.307291666666666
 30
0.0
 10
-3.406510416666666
 20
-5.97035047743055
 30
0.0
 10
-2.811197916666666
 20
-8.077370876736106
 30
0.0
 10
-2.147672526041664
 20
-10.26293945312499
 30
0.0
 10
-1.229899088541666
 20
-11.35503472222222
 30
0.0
 10
-0.0585666232638889
 20
-11.35503472222222
 30
0.0
 10
1.20027126736111
 20
-11.35503472222222
 30
0.0
 10
2.166276041666665
 20
-10.10653211805555
 30
0.0
 10
2.840136718749998
 20
-7.609526909722221
 30
0.0
 10
3.416156684027776
 20
-5.483213975694441
 30
0.0
 10
3.704166666666666
 20
-2.814643012152775
 30
0.0
 10
3.704166666666666
 20
0.3948079427083333
 30
0.0
 10
3.704166666666666
 20
3.360346137152776
 30
0.0
 10
3.449918619791666
 20
5.793961588541666
 30
0.0
 10
2.94280056423611
 20
7.696343315972222
 30
0.0
 10
2.298567708333333
 20
10.13547092013888
 30
0.0
 10
1.307758246527777
 20
11.35503472222222
 30
0.0
 10
-0.0289388020833333
 20
11.35503472222222
 30
0.0
  0
ENDBLK
  5
205F
330
205B
100
AcDbEntity
  8
0
100
AcDbBlockEnd
  0
BLOCK
  5
2063
330
2060
100
AcDbEntity
  8
0
 62
     7
100
AcDbBlockBegin
  2
AI9-BLK8
 70
     0
 10
0.0
 20
0.0
 30
0.0
  3
AI9-BLK8
  1

  0
LWPOLYLINE
  5
2061
330
2060
100
AcDbEntity
  8
LAYER_1
 62
     7
100
AcDbPolyline
 90
       10
 70
     1
 43
0.0
 10
-3.792361111111107
 20
10.7376736111111
 10
-2.268939887152773
 20
10.7376736111111
 10
2.557638888888888
 20
-6.505718315972222
 10
2.557638888888888
 20
10.7376736111111
 10
3.792361111111107
 20
10.7376736111111
 10
3.792361111111107
 20
-10.7376736111111
 10
2.32612847222222
 20
-10.7376736111111
 10
-2.557638888888888
 20
6.549815538194441
 10
-2.557638888888888
 20
-10.7376736111111
 10
-3.792361111111107
 20
-10.7376736111111
  0
HATCH
  5
2062
330
2060
100
AcDbEntity
  8
LAYER_1
 62
     7
100
AcDbHatch
 10
0.0
 20
0.0
 30
0.0
210
0.0
220
0.0
230
1.0
  2
SOLID
 70
     1
 71
     0
 91
        1
 92
        3
 72
     0
 73
     1
 93
       10
 10
-3.792361111111107
 20
10.7376736111111
 10
-2.268939887152773
 20
10.7376736111111
 10
2.557638888888888
 20
-6.505718315972222
 10
2.557638888888888
 20
10.7376736111111
 10
3.792361111111107
 20
10.7376736111111
 10
3.792361111111107
 20
-10.7376736111111
 10
2.32612847222222
 20
-10.7376736111111
 10
-2.557638888888888
 20
6.549815538194441
 10
-2.557638888888888
 20
-10.7376736111111
 10
-3.792361111111107
 20
-10.7376736111111
 97
        0
 75
     2
 76
     1
 98
        1
 10
0.0
 20
0.0
  0
ENDBLK
  5
2064
330
2060
100
AcDbEntity
  8
0
100
AcDbBlockEnd
  0
BLOCK
  5
2068
330
2065
100
AcDbEntity
  8
0
 62
     7
100
AcDbBlockBegin
  2
AI9-BLK7
 70
     0
 10
0.0
 20
0.0
 30
0.0
  3
AI9-BLK7
  1

  0
LWPOLYLINE
  5
2066
330
2065
100
AcDbEntity
  8
LAYER_1
 62
     7
100
AcDbPolyline
 90
        4
 70
     1
 43
0.0
 10
-0.6614583333333333
 20
10.7376736111111
 10
0.6614583333333333
 20
10.7376736111111
 10
0.6614583333333333
 20
-10.7376736111111
 10
-0.6614583333333333
 20
-10.7376736111111
  0
HATCH
  5
2067
330
2065
100
AcDbEntity
  8
LAYER_1
 62
     7
100
AcDbHatch
 10
0.0
 20
0.0
 30
0.0
210
0.0
220
0.0
230
1.0
  2
SOLID
 70
     1
 71
     0
 91
        1
 92
        3
 72
     0
 73
     1
 93
        4
 10
-0.6614583333333333
 20
10.7376736111111
 10
0.6614583333333333
 20
10.7376736111111
 10
0.6614583333333333
 20
-10.7376736111111
 10
-0.6614583333333333
 20
-10.7376736111111
 97
        0
 75
     2
 76
     1
 98
        1
 10
0.0
 20
0.0
  0
ENDBLK
  5
2069
330
2065
100
AcDbEntity
  8
0
100
AcDbBlockEnd
  0
BLOCK
  5
206C
330
206A
100
AcDbEntity
  8
0
 62
     7
100
AcDbBlockBegin
  2
AI9-BLK6
 70
     0
 10
0.0
 20
0.0
 30
0.0
  3
AI9-BLK6
  1

  0
SPLINE
  5
206B
330
206A
100
AcDbEntity
  8
LAYER_1
 62
     7
100
AcDbSpline
210
0.0
220
0.0
230
1.0
 70
    11
 71
     3
 72
    59
 73
    55
 74
     0
 42
0.0000000001
 43
0.0000000001
 40
0.0
 40
0.0
 40
0.0
 40
0.0
 40
1.0
 40
1.0
 40
1.0
 40
2.0
 40
2.0
 40
2.0
 40
3.0
 40
3.0
 40
3.0
 40
4.0
 40
4.0
 40
4.0
 40
5.0
 40
5.0
 40
5.0
 40
6.0
 40
6.0
 40
6.0
 40
7.0
 40
7.0
 40
7.0
 40
8.0
 40
8.0
 40
8.0
 40
9.0
 40
9.0
 40
9.0
 40
10.0
 40
10.0
 40
10.0
 40
11.0
 40
11.0
 40
11.0
 40
12.0
 40
12.0
 40
12.0
 40
13.0
 40
13.0
 40
13.0
 40
14.0
 40
14.0
 40
14.0
 40
15.0
 40
15.0
 40
15.0
 40
16.0
 40
16.0
 40
16.0
 40
17.0
 40
17.0
 40
17.0
 40
18.0
 40
18.0
 40
18.0
 40
18.0
 10
3.062689887152775
 20
9.168088107638887
 30
0.0
 10
3.735172526041666
 20
7.739062499999997
 30
0.0
 10
4.110687934027776
 20
6.116422526041666
 30
0.0
 10
4.189236111111108
 20
4.299479166666666
 30
0.0
 10
4.189236111111108
 20
4.299479166666666
 30
0.0
 10
2.866319444444443
 20
4.299479166666666
 30
0.0
 10
2.866319444444443
 20
4.299479166666666
 30
0.0
 10
2.720936414930555
 20
5.667871093749997
 30
0.0
 10
2.435682508680555
 20
6.752387152777776
 30
0.0
 10
2.009868706597218
 20
7.553027343749997
 30
0.0
 10
1.584054904513888
 20
8.352978515624997
 30
0.0
 10
0.9839192708333332
 20
8.753298611111111
 30
0.0
 10
0.2101508246527778
 20
8.753298611111111
 30
0.0
 10
-0.7386284722222222
 20
8.753298611111111
 30
0.0
 10
-1.503439670138888
 20
8.010536024305555
 30
0.0
 10
-2.083593749999999
 20
6.526388888888886
 30
0.0
 10
-2.664436848958333
 20
5.042241753472221
 30
0.0
 10
-2.954513888888888
 20
2.767100694444443
 30
0.0
 10
-2.954513888888888
 20
-0.2990342881944444
 30
0.0
 10
-2.954513888888888
 20
-2.811197916666666
 30
0.0
 10
-2.693375651041666
 20
-4.847938368055555
 30
0.0
 10
-2.17041015625
 20
-6.409944661458332
 30
0.0
 10
-1.648133680555553
 20
-7.972639973958332
 30
0.0
 10
-0.8640299479166666
 20
-8.753298611111111
 30
0.0
 10
0.1812120225694444
 20
-8.753298611111111
 30
0.0
 10
1.138948567708333
 20
-8.753298611111111
 30
0.0
 10
1.865174696180553
 20
-7.927853732638887
 30
0.0
 10
2.359201388888884
 20
-6.275585937499998
 30
0.0
 10
2.62998589409722
 20
-5.406043836805555
 30
0.0
 10
2.828423394097221
 20
-4.262272135416666
 30
0.0
 10
2.954513888888888
 20
-2.844270833333331
 30
0.0
 10
2.954513888888888
 20
-2.844270833333331
 30
0.0
 10
4.277430555555555
 20
-2.844270833333331
 30
0.0
 10
4.277430555555555
 20
-2.844270833333331
 30
0.0
 10
4.169943576388888
 20
-5.109765624999996
 30
0.0
 10
3.795117187499998
 20
-7.009391276041665
 30
0.0
 10
3.151573350694443
 20
-8.542458767361106
 30
0.0
 10
2.381249999999999
 20
-10.38834092881943
 30
0.0
 10
1.347721354166665
 20
-11.3109375
 30
0.0
 10
0.0509874131944445
 20
-11.3109375
 30
0.0
 10
-1.07004665798611
 20
-11.3109375
 30
0.0
 10
-2.010557725694444
 20
-10.55577256944443
 30
0.0
 10
-2.771234809027776
 20
-9.04475368923611
 30
0.0
 10
-3.775824652777775
 20
-7.046598307291666
 30
0.0
 10
-4.277430555555555
 20
-3.961170789930555
 30
0.0
 10
-4.277430555555555
 20
0.2115288628472222
 30
0.0
 10
-4.277430555555555
 20
3.379638671874998
 30
0.0
 10
-3.902604166666666
 20
5.977929687499997
 30
0.0
 10
-3.151573350694443
 20
8.005712890624996
 30
0.0
 10
-2.333018663194443
 20
10.20919596354165
 30
0.0
 10
-1.20647243923611
 20
11.3109375
 30
0.0
 10
0.2266872829861111
 20
11.3109375
 30
0.0
 10
1.444873046875
 20
11.3109375
 30
0.0
 10
2.390207248263884
 20
10.59642469618055
 30
0.0
 10
3.062689887152775
 20
9.168088107638887
 30
0.0
  0
ENDBLK
  5
206D
330
206A
100
AcDbEntity
  8
0
100
AcDbBlockEnd
  0
BLOCK
  5
2071
330
206E
100
AcDbEntity
  8
0
 62
     7
100
AcDbBlockBegin
  2
AI9-BLK5
 70
     0
 10
0.0
 20
0.0
 30
0.0
  3
AI9-BLK5
  1

  0
SPLINE
  5
206F
330
206E
100
AcDbEntity
  8
LAYER_1
 62
     7
100
AcDbSpline
210
0.0
220
0.0
230
1.0
 70
    11
 71
     3
 72
    32
 73
    28
 74
     0
 42
0.0000000001
 43
0.0000000001
 40
0.0
 40
0.0
 40
0.0
 40
0.0
 40
1.0
 40
1.0
 40
1.0
 40
2.0
 40
2.0
 40
2.0
 40
3.0
 40
3.0
 40
3.0
 40
4.0
 40
4.0
 40
4.0
 40
5.0
 40
5.0
 40
5.0
 40
6.0
 40
6.0
 40
6.0
 40
7.0
 40
7.0
 40
7.0
 40
8.0
 40
8.0
 40
8.0
 40
9.0
 40
9.0
 40
9.0
 40
9.0
 10
-2.62378472222222
 20
-8.268229166666666
 30
0.0
 10
-2.62378472222222
 20
-8.268229166666666
 30
0.0
 10
-2.62378472222222
 20
8.180034722222217
 30
0.0
 10
-2.62378472222222
 20
8.180034722222217
 30
0.0
 10
-2.62378472222222
 20
8.180034722222217
 30
0.0
 10
-0.3376193576388888
 20
8.180034722222217
 30
0.0
 10
-0.3376193576388888
 20
8.180034722222217
 30
0.0
 10
0.6972873263888888
 20
8.180034722222217
 30
0.0
 10
1.449007161458333
 20
7.445540364583332
 30
0.0
 10
1.918918185763885
 20
5.977929687499997
 30
0.0
 10
2.388829210069443
 20
4.510319010416666
 30
0.0
 10
2.62378472222222
 20
2.449462890624999
 30
0.0
 10
2.62378472222222
 20
-0.204638671875
 30
0.0
 10
2.62378472222222
 20
-0.8950358072916666
 30
0.0
 10
2.590022786458332
 20
-1.643310546874999
 30
0.0
 10
2.523187934027773
 20
-2.45015190972222
 30
0.0
 10
2.408121744791666
 20
-3.80200737847222
 30
0.0
 10
2.226220703124999
 20
-4.909950086805555
 30
0.0
 10
1.976795789930553
 20
-5.774669053819441
 30
0.0
 10
1.659847005208333
 20
-6.853672960069442
 30
0.0
 10
1.252636718749998
 20
-7.583344184027778
 30
0.0
 10
0.7544759114583333
 20
-7.962304687499997
 30
0.0
 10
0.4664659288194444
 20
-8.166254340277777
 30
0.0
 10
0.1074869791666666
 20
-8.268229166666666
 30
0.0
 10
-0.3231499565972222
 20
-8.268229166666666
 30
0.0
 10
-0.3231499565972222
 20
-8.268229166666666
 30
0.0
 10
-2.62378472222222
 20
-8.268229166666666
 30
0.0
 10
-2.62378472222222
 20
-8.268229166666666
 30
0.0
  0
SPLINE
  5
2070
330
206E
100
AcDbEntity
  8
LAYER_1
 62
     7
100
AcDbSpline
210
0.0
220
0.0
230
1.0
 70
    11
 71
     3
 72
    26
 73
    22
 74
     0
 42
0.0000000001
 43
0.0000000001
 40
0.0
 40
0.0
 40
0.0
 40
0.0
 40
1.0
 40
1.0
 40
1.0
 40
2.0
 40
2.0
 40
2.0
 40
3.0
 40
3.0
 40
3.0
 40
4.0
 40
4.0
 40
4.0
 40
5.0
 40
5.0
 40
5.0
 40
6.0
 40
6.0
 40
6.0
 40
7.0
 40
7.0
 40
7.0
 40
7.0
 10
-3.946701388888888
 20
-10.7376736111111
 30
0.0
 10
-3.946701388888888
 20
-10.7376736111111
 30
0.0
 10
-0.0943956163194444
 20
-10.7376736111111
 30
0.0
 10
-0.0943956163194444
 20
-10.7376736111111
 30
0.0
 10
1.546847873263885
 20
-10.7376736111111
 30
0.0
 10
2.705777994791666
 20
-9.11021050347222
 30
0.0
 10
3.381705729166666
 20
-5.854595269097222
 30
0.0
 10
3.757910156249999
 20
-4.01284722222222
 30
0.0
 10
3.946701388888888
 20
-1.951991102430555
 30
0.0
 10
3.946701388888888
 20
0.328662109375
 30
0.0
 10
3.946701388888888
 20
3.281797960069443
 30
0.0
 10
3.622862413194443
 20
5.703700086805552
 30
0.0
 10
2.976562499999998
 20
7.594368489583332
 30
0.0
 10
2.25171440972222
 20
9.689675564236106
 30
0.0
 10
1.233344184027777
 20
10.7376736111111
 30
0.0
 10
-0.0799262152777778
 20
10.7376736111111
 30
0.0
 10
-0.0799262152777778
 20
10.7376736111111
 30
0.0
 10
-3.946701388888888
 20
10.7376736111111
 30
0.0
 10
-3.946701388888888
 20
10.7376736111111
 30
0.0
 10
-3.946701388888888
 20
10.7376736111111
 30
0.0
 10
-3.946701388888888
 20
-10.7376736111111
 30
0.0
 10
-3.946701388888888
 20
-10.7376736111111
 30
0.0
  0
ENDBLK
  5
2072
330
206E
100
AcDbEntity
  8
0
100
AcDbBlockEnd
  0
BLOCK
  5
2076
330
2073
100
AcDbEntity
  8
0
 62
     7
100
AcDbBlockBegin
  2
AI9-BLK4
 70
     0
 10
0.0
 20
0.0
 30
0.0
  3
AI9-BLK4
  1

  0
SPLINE
  5
2074
330
2073
100
AcDbEntity
  8
LAYER_1
 62
     7
100
AcDbSpline
210
0.0
220
0.0
230
1.0
 70
    11
 71
     3
 72
    26
 73
    22
 74
     0
 42
0.0000000001
 43
0.0000000001
 40
0.0
 40
0.0
 40
0.0
 40
0.0
 40
1.0
 40
1.0
 40
1.0
 40
2.0
 40
2.0
 40
2.0
 40
3.0
 40
3.0
 40
3.0
 40
4.0
 40
4.0
 40
4.0
 40
5.0
 40
5.0
 40
5.0
 40
6.0
 40
6.0
 40
6.0
 40
7.0
 40
7.0
 40
7.0
 40
7.0
 10
-2.645833333333333
 20
0.9039930555555551
 30
0.0
 10
-2.645833333333333
 20
0.9039930555555551
 30
0.0
 10
-2.645833333333333
 20
8.180034722222217
 30
0.0
 10
-2.645833333333333
 20
8.180034722222217
 30
0.0
 10
-2.645833333333333
 20
8.180034722222217
 30
0.0
 10
0.465087890625
 20
8.180034722222217
 30
0.0
 10
0.465087890625
 20
8.180034722222217
 30
0.0
 10
0.9026150173611108
 20
8.180034722222217
 30
0.0
 10
1.24988064236111
 20
8.034651692708331
 30
0.0
 10
1.506884765625
 20
7.745263671874997
 30
0.0
 10
2.001600477430554
 20
7.194048394097221
 30
0.0
 10
2.248958333333332
 20
6.160519748263887
 30
0.0
 10
2.248958333333332
 20
4.643299696180553
 30
0.0
 10
2.248958333333332
 20
3.232188585069443
 30
0.0
 10
2.072569444444444
 20
2.256537543402775
 30
0.0
 10
1.720480685763888
 20
1.715657552083333
 30
0.0
 10
1.368391927083333
 20
1.174088541666665
 30
0.0
 10
0.8929687499999998
 20
0.9039930555555551
 30
0.0
 10
0.2942111545138888
 20
0.9039930555555551
 30
0.0
 10
0.2942111545138888
 20
0.9039930555555551
 30
0.0
 10
-2.645833333333333
 20
0.9039930555555551
 30
0.0
 10
-2.645833333333333
 20
0.9039930555555551
 30
0.0
  0
SPLINE
  5
2075
330
2073
100
AcDbEntity
  8
LAYER_1
 62
     7
100
AcDbSpline
210
0.0
220
0.0
230
1.0
 70
    11
 71
     3
 72
    68
 73
    64
 74
     0
 42
0.0000000001
 43
0.0000000001
 40
0.0
 40
0.0
 40
0.0
 40
0.0
 40
1.0
 40
1.0
 40
1.0
 40
2.0
 40
2.0
 40
2.0
 40
3.0
 40
3.0
 40
3.0
 40
4.0
 40
4.0
 40
4.0
 40
5.0
 40
5.0
 40
5.0
 40
6.0
 40
6.0
 40
6.0
 40
7.0
 40
7.0
 40
7.0
 40
8.0
 40
8.0
 40
8.0
 40
9.0
 40
9.0
 40
9.0
 40
10.0
 40
10.0
 40
10.0
 40
11.0
 40
11.0
 40
11.0
 40
12.0
 40
12.0
 40
12.0
 40
13.0
 40
13.0
 40
13.0
 40
14.0
 40
14.0
 40
14.0
 40
15.0
 40
15.0
 40
15.0
 40
16.0
 40
16.0
 40
16.0
 40
17.0
 40
17.0
 40
17.0
 40
18.0
 40
18.0
 40
18.0
 40
19.0
 40
19.0
 40
19.0
 40
20.0
 40
20.0
 40
20.0
 40
21.0
 40
21.0
 40
21.0
 40
21.0
 10
-3.968749999999998
 20
-10.7376736111111
 30
0.0
 10
-3.968749999999998
 20
-10.7376736111111
 30
0.0
 10
-2.645833333333333
 20
-10.7376736111111
 30
0.0
 10
-2.645833333333333
 20
-10.7376736111111
 30
0.0
 10
-2.645833333333333
 20
-10.7376736111111
 30
0.0
 10
-2.645833333333333
 20
-1.521354166666665
 30
0.0
 10
-2.645833333333333
 20
-1.521354166666665
 30
0.0
 10
-2.645833333333333
 20
-1.521354166666665
 30
0.0
 10
0.2390896267361111
 20
-1.521354166666665
 30
0.0
 10
0.2390896267361111
 20
-1.521354166666665
 30
0.0
 10
0.7599880642361111
 20
-1.521354166666665
 30
0.0
 10
1.143771701388887
 20
-1.65295681423611
 30
0.0
 10
1.390440538194444
 20
-1.916162109374999
 30
0.0
 10
1.816254340277773
 20
-2.39434136284722
 30
0.0
 10
2.04363064236111
 20
-3.335541449652775
 30
0.0
 10
2.072569444444444
 20
-4.739762369791666
 30
0.0
 10
2.072569444444444
 20
-4.739762369791666
 30
0.0
 10
2.160763888888888
 20
-8.324039713541665
 30
0.0
 10
2.160763888888888
 20
-8.324039713541665
 30
0.0
 10
2.18005642361111
 20
-9.163264973958332
 30
0.0
 10
2.202794053819443
 20
-9.728949652777775
 30
0.0
 10
2.227598741319444
 20
-10.02109374999998
 30
0.0
 10
2.252403428819443
 20
-10.31392686631944
 30
0.0
 10
2.28892144097222
 20
-10.55301649305555
 30
0.0
 10
2.33853081597222
 20
-10.7376736111111
 30
0.0
 10
2.33853081597222
 20
-10.7376736111111
 30
0.0
 10
3.968749999999998
 20
-10.7376736111111
 30
0.0
 10
3.968749999999998
 20
-10.7376736111111
 30
0.0
 10
3.968749999999998
 20
-10.7376736111111
 30
0.0
 10
3.968749999999998
 20
-10.25260416666666
 30
0.0
 10
3.968749999999998
 20
-10.25260416666666
 30
0.0
 10
3.766867404513888
 20
-10.05830078125
 30
0.0
 10
3.625618489583333
 20
-9.621462673611112
 30
0.0
 10
3.545692274305555
 20
-8.942089843749997
 30
0.0
 10
3.49470486111111
 20
-8.543836805555555
 30
0.0
 10
3.459564887152775
 20
-7.937499999999999
 30
0.0
 10
3.439583333333333
 20
-7.121701388888887
 30
0.0
 10
3.439583333333333
 20
-7.121701388888887
 30
0.0
 10
3.395486111111106
 20
-4.232644314236106
 30
0.0
 10
3.395486111111106
 20
-4.232644314236106
 30
0.0
 10
3.375504557291666
 20
-2.981385633680555
 30
0.0
 10
3.26870659722222
 20
-2.077392578125
 30
0.0
 10
3.075781249999999
 20
-1.522043185763888
 30
0.0
 10
2.882166883680555
 20
-0.9666937934027776
 30
0.0
 10
2.592089843749999
 20
-0.5188313802083333
 30
0.0
 10
2.204861111111106
 20
-0.1770779079861111
 30
0.0
 10
2.63618706597222
 20
0.3197048611111111
 30
0.0
 10
2.971739366319443
 20
0.9770290798611107
 30
0.0
 10
3.211518012152775
 20
1.79558376736111
 30
0.0
 10
3.451296657986107
 20
2.613449435763888
 30
0.0
 10
3.571874999999999
 20
3.66558159722222
 30
0.0
 10
3.571874999999999
 20
4.951291232638888
 30
0.0
 10
3.571874999999999
 20
7.415912543402777
 30
0.0
 10
3.124701605902775
 20
9.106076388888887
 30
0.0
 10
2.231043836805555
 20
10.02178276909722
 30
0.0
 10
1.759754774305553
 20
10.498583984375
 30
0.0
 10
1.163753255208332
 20
10.7376736111111
 30
0.0
 10
0.443039279513889
 20
10.7376736111111
 30
0.0
 10
0.443039279513889
 20
10.7376736111111
 30
0.0
 10
-3.968749999999998
 20
10.7376736111111
 30
0.0
 10
-3.968749999999998
 20
10.7376736111111
 30
0.0
 10
-3.968749999999998
 20
10.7376736111111
 30
0.0
 10
-3.968749999999998
 20
-10.7376736111111
 30
0.0
 10
-3.968749999999998
 20
-10.7376736111111
 30
0.0
  0
ENDBLK
  5
2077
330
2073
100
AcDbEntity
  8
0
100
AcDbBlockEnd
  0
BLOCK
  5
207B
330
2078
100
AcDbEntity
  8
0
 62
     7
100
AcDbBlockBegin
  2
AI9-BLK3
 70
     0
 10
0.0
 20
0.0
 30
0.0
  3
AI9-BLK3
  1

  0
LWPOLYLINE
  5
2079
330
2078
100
AcDbEntity
  8
LAYER_1
 62
     7
100
AcDbPolyline
 90
        4
 70
     1
 43
0.0
 10
-0.6613722059461809
 20
10.7376736111111
 10
0.6613722059461809
 20
10.7376736111111
 10
0.6613722059461809
 20
-10.7376736111111
 10
-0.6613722059461809
 20
-10.7376736111111
  0
HATCH
  5
207A
330
2078
100
AcDbEntity
  8
LAYER_1
 62
     7
100
AcDbHatch
 10
0.0
 20
0.0
 30
0.0
210
0.0
220
0.0
230
1.0
  2
SOLID
 70
     1
 71
     0
 91
        1
 92
        3
 72
     0
 73
     1
 93
        4
 10
-0.6613722059461809
 20
10.7376736111111
 10
0.6613722059461809
 20
10.7376736111111
 10
0.6613722059461809
 20
-10.7376736111111
 10
-0.6613722059461809
 20
-10.7376736111111
 97
        0
 75
     2
 76
     1
 98
        1
 10
0.0
 20
0.0
  0
ENDBLK
  5
207C
330
2078
100
AcDbEntity
  8
0
100
AcDbBlockEnd
  0
BLOCK
  5
2080
330
207D
100
AcDbEntity
  8
0
 62
     7
100
AcDbBlockBegin
  2
AI9-BLK2
 70
     0
 10
0.0
 20
0.0
 30
0.0
  3
AI9-BLK2
  1

  0
LWPOLYLINE
  5
207E
330
207D
100
AcDbEntity
  8
LAYER_1
 62
     7
100
AcDbPolyline
 90
        7
 70
     1
 43
0.0
 10
-2.785704210069443
 20
10.7376736111111
 10
0.0
 20
-7.550960286458332
 10
2.771234809027776
 20
10.7376736111111
 10
4.233333333333331
 20
10.7376736111111
 10
0.6910861545138888
 20
-10.7376736111111
 10
-0.7055555555555558
 20
-10.7376736111111
 10
-4.233333333333331
 20
10.7376736111111
  0
HATCH
  5
207F
330
207D
100
AcDbEntity
  8
LAYER_1
 62
     7
100
AcDbHatch
 10
0.0
 20
0.0
 30
0.0
210
0.0
220
0.0
230
1.0
  2
SOLID
 70
     1
 71
     0
 91
        1
 92
        3
 72
     0
 73
     1
 93
        7
 10
-2.785704210069443
 20
10.7376736111111
 10
0.0
 20
-7.550960286458332
 10
2.771234809027776
 20
10.7376736111111
 10
4.233333333333331
 20
10.7376736111111
 10
0.6910861545138888
 20
-10.7376736111111
 10
-0.7055555555555558
 20
-10.7376736111111
 10
-4.233333333333331
 20
10.7376736111111
 97
        0
 75
     2
 76
     1
 98
        1
 10
0.0
 20
0.0
  0
ENDBLK
  5
2081
330
207D
100
AcDbEntity
  8
0
100
AcDbBlockEnd
  0
BLOCK
  5
2085
330
2082
100
AcDbEntity
  8
0
 62
     7
100
AcDbBlockBegin
  2
AI9-BLK1
 70
     0
 10
0.0
 20
0.0
 30
0.0
  3
AI9-BLK1
  1

  0
LWPOLYLINE
  5
2083
330
2082
100
AcDbEntity
  8
LAYER_1
 62
     7
100
AcDbPolyline
 90
       12
 70
     1
 43
0.0
 10
-3.571874999999999
 20
10.7376736111111
 10
3.483680555555555
 20
10.7376736111111
 10
3.483680555555555
 20
8.091840277777777
 10
-2.248958333333332
 20
8.091840277777777
 10
-2.248958333333332
 20
1.565451388888888
 10
3.042708333333333
 20
1.565451388888888
 10
3.042708333333333
 20
-0.9039930555555551
 10
-2.248958333333332
 20
-0.9039930555555551
 10
-2.248958333333332
 20
-8.180034722222217
 10
3.571874999999999
 20
-8.180034722222217
 10
3.571874999999999
 20
-10.7376736111111
 10
-3.571874999999999
 20
-10.7376736111111
  0
HATCH
  5
2084
330
2082
100
AcDbEntity
  8
LAYER_1
 62
     7
100
AcDbHatch
 10
0.0
 20
0.0
 30
0.0
210
0.0
220
0.0
230
1.0
  2
SOLID
 70
     1
 71
     0
 91
        1
 92
        3
 72
     0
 73
     1
 93
       12
 10
-3.571874999999999
 20
10.7376736111111
 10
3.483680555555555
 20
10.7376736111111
 10
3.483680555555555
 20
8.091840277777777
 10
-2.248958333333332
 20
8.091840277777777
 10
-2.248958333333332
 20
1.565451388888888
 10
3.042708333333333
 20
1.565451388888888
 10
3.042708333333333
 20
-0.9039930555555551
 10
-2.248958333333332
 20
-0.9039930555555551
 10
-2.248958333333332
 20
-8.180034722222217
 10
3.571874999999999
 20
-8.180034722222217
 10
3.571874999999999
 20
-10.7376736111111
 10
-3.571874999999999
 20
-10.7376736111111
 97
        0
 75
     2
 76
     1
 98
        1
 10
0.0
 20
0.0
  0
ENDBLK
  5
2086
330
2082
100
AcDbEntity
  8
0
100
AcDbBlockEnd
  0
BLOCK
  5
20AA
330
2087
100
AcDbEntity
  8
0
100
AcDbBlockBegin
  2
HD_LLC_logo_OT5
 70
     0
 10
0.0
 20
0.0
 30
0.0
  3
HD_LLC_logo_OT5
  1

  0
SPLINE
  5
2088
102
{ACAD_REACTORS
330
20A8
102
}
330
2087
100
AcDbEntity
  8
LAYER_1
 62
     7
100
AcDbSpline
210
0.0
220
0.0
230
1.0
 70
    11
 71
     3
 72
   113
 73
   109
 74
     0
 42
0.0000000001
 43
0.0000000001
 40
0.0
 40
0.0
 40
0.0
 40
0.0
 40
1.0
 40
1.0
 40
1.0
 40
2.0
 40
2.0
 40
2.0
 40
3.0
 40
3.0
 40
3.0
 40
4.0
 40
4.0
 40
4.0
 40
5.0
 40
5.0
 40
5.0
 40
6.0
 40
6.0
 40
6.0
 40
7.0
 40
7.0
 40
7.0
 40
8.0
 40
8.0
 40
8.0
 40
9.0
 40
9.0
 40
9.0
 40
10.0
 40
10.0
 40
10.0
 40
11.0
 40
11.0
 40
11.0
 40
12.0
 40
12.0
 40
12.0
 40
13.0
 40
13.0
 40
13.0
 40
14.0
 40
14.0
 40
14.0
 40
15.0
 40
15.0
 40
15.0
 40
16.0
 40
16.0
 40
16.0
 40
17.0
 40
17.0
 40
17.0
 40
18.0
 40
18.0
 40
18.0
 40
19.0
 40
19.0
 40
19.0
 40
20.0
 40
20.0
 40
20.0
 40
21.0
 40
21.0
 40
21.0
 40
22.0
 40
22.0
 40
22.0
 40
23.0
 40
23.0
 40
23.0
 40
24.0
 40
24.0
 40
24.0
 40
25.0
 40
25.0
 40
25.0
 40
26.0
 40
26.0
 40
26.0
 40
27.0
 40
27.0
 40
27.0
 40
28.0
 40
28.0
 40
28.0
 40
29.0
 40
29.0
 40
29.0
 40
30.0
 40
30.0
 40
30.0
 40
31.0
 40
31.0
 40
31.0
 40
32.0
 40
32.0
 40
32.0
 40
33.0
 40
33.0
 40
33.0
 40
34.0
 40
34.0
 40
34.0
 40
35.0
 40
35.0
 40
35.0
 40
36.0
 40
36.0
 40
36.0
 40
36.0
 10
193.3039632161458
 20
186.1548733181423
 30
0.0
 10
193.3039632161458
 20
186.1860514322916
 30
0.0
 10
193.3039632161458
 20
219.6932223849826
 30
0.0
 10
193.3039632161458
 20
219.6932223849826
 30
0.0
 10
193.3039632161458
 20
219.6932223849826
 30
0.0
 10
193.2974175347219
 20
219.7488606770833
 30
0.0
 10
193.2974175347219
 20
219.7488606770833
 30
0.0
 10
191.5293945312499
 20
235.455740017361
 30
0.0
 10
175.1458984374999
 20
235.2467949761284
 30
0.0
 10
174.9808783637151
 20
235.2428331163193
 30
0.0
 10
174.9808783637151
 20
235.2428331163193
 30
0.0
 10
125.8827555338541
 20
235.2430053710937
 30
0.0
 10
125.8827555338541
 20
235.2430053710937
 30
0.0
 10
125.8827555338541
 20
235.2430053710937
 30
0.0
 10
125.8827555338541
 20
255.5278998480901
 30
0.0
 10
125.8827555338541
 20
255.5278998480901
 30
0.0
 10
125.8827555338541
 20
255.5278998480901
 30
0.0
 10
84.5626247829861
 20
255.5278998480901
 30
0.0
 10
84.5626247829861
 20
255.5278998480901
 30
0.0
 10
84.5626247829861
 20
255.5278998480901
 30
0.0
 10
84.55711263020829
 20
233.7919311523436
 30
0.0
 10
84.55711263020829
 20
233.7919311523436
 30
0.0
 10
84.55711263020829
 20
233.7919311523436
 30
0.0
 10
64.42052951388888
 20
233.7919311523436
 30
0.0
 10
64.42052951388888
 20
233.7919311523436
 30
0.0
 10
64.42052951388888
 20
233.7919311523436
 30
0.0
 10
64.41501736111111
 20
255.5278998480901
 30
0.0
 10
64.41501736111111
 20
255.5278998480901
 30
0.0
 10
64.41501736111111
 20
255.5278998480901
 30
0.0
 10
23.91757541232637
 20
255.5278998480901
 30
0.0
 10
23.91757541232637
 20
255.5278998480901
 30
0.0
 10
23.91757541232637
 20
255.5278998480901
 30
0.0
 10
23.91757541232637
 20
233.2393378363715
 30
0.0
 10
23.91757541232637
 20
233.2393378363715
 30
0.0
 10
23.91757541232637
 20
233.2393378363715
 30
0.0
 10
43.65624999999999
 20
233.2393378363715
 30
0.0
 10
43.65624999999999
 20
233.2393378363715
 30
0.0
 10
43.65624999999999
 20
233.2393378363715
 30
0.0
 10
43.65624999999999
 20
211.5188720703125
 30
0.0
 10
43.65624999999999
 20
211.5188720703125
 30
0.0
 10
43.65624999999999
 20
211.5188720703125
 30
0.0
 10
23.91757541232637
 20
211.5188720703125
 30
0.0
 10
23.91757541232637
 20
211.5188720703125
 30
0.0
 10
23.91757541232637
 20
211.5188720703125
 30
0.0
 10
23.91757541232637
 20
189.2303100585936
 30
0.0
 10
23.91757541232637
 20
189.2303100585936
 30
0.0
 10
23.91757541232637
 20
189.2303100585936
 30
0.0
 10
64.41501736111111
 20
189.2303100585936
 30
0.0
 10
64.41501736111111
 20
189.2303100585936
 30
0.0
 10
64.41501736111111
 20
189.2303100585936
 30
0.0
 10
64.42052951388888
 20
211.069976128472
 30
0.0
 10
64.42052951388888
 20
211.069976128472
 30
0.0
 10
64.42052951388888
 20
211.069976128472
 30
0.0
 10
84.55711263020829
 20
211.069976128472
 30
0.0
 10
84.55711263020829
 20
211.069976128472
 30
0.0
 10
84.55711263020829
 20
211.069976128472
 30
0.0
 10
84.5626247829861
 20
189.2303100585936
 30
0.0
 10
84.5626247829861
 20
189.2303100585936
 30
0.0
 10
84.5626247829861
 20
189.2303100585936
 30
0.0
 10
125.8827555338541
 20
189.2303100585936
 30
0.0
 10
125.8827555338541
 20
189.2303100585936
 30
0.0
 10
125.8827555338541
 20
189.2303100585936
 30
0.0
 10
125.8827555338541
 20
211.5188720703125
 30
0.0
 10
125.8827555338541
 20
211.5188720703125
 30
0.0
 10
125.8827555338541
 20
211.5188720703125
 30
0.0
 10
105.3213921440971
 20
211.5188720703125
 30
0.0
 10
105.3213921440971
 20
211.5188720703125
 30
0.0
 10
105.3213921440971
 20
211.5188720703125
 30
0.0
 10
105.3213921440971
 20
233.2393378363715
 30
0.0
 10
105.3213921440971
 20
233.2393378363715
 30
0.0
 10
105.3213921440971
 20
233.2393378363715
 30
0.0
 10
175.0046495225693
 20
233.243127441406
 30
0.0
 10
175.0046495225693
 20
233.243127441406
 30
0.0
 10
175.6268337673611
 20
233.2560465494791
 30
0.0
 10
189.7165852864583
 20
233.3962619357638
 30
0.0
 10
191.3037407769094
 20
219.5690266927083
 30
0.0
 10
191.3037407769094
 20
219.4332899305555
 30
0.0
 10
191.3037407769094
 20
186.1142211914062
 30
0.0
 10
191.3037407769094
 20
186.1142211914062
 30
0.0
 10
191.3037407769094
 20
186.1142211914062
 30
0.0
 10
191.3051188151039
 20
186.0880384657115
 30
0.0
 10
191.3051188151039
 20
186.0880384657115
 30
0.0
 10
191.3054633246526
 20
186.0787367078991
 30
0.0
 10
191.3109754774304
 20
185.9566080729166
 30
0.0
 10
191.3109754774304
 20
185.7399115668401
 30
0.0
 10
191.3109754774304
 20
184.2090833875865
 30
0.0
 10
191.0488037109374
 20
177.9643310546874
 30
0.0
 10
186.9866916232638
 20
173.5652886284722
 30
0.0
 10
184.2540418836804
 20
170.6064683702255
 30
0.0
 10
180.3224989149304
 20
169.0308539496526
 30
0.0
 10
175.300927734375
 20
168.8825425889756
 30
0.0
 10
175.300927734375
 20
168.8825425889756
 30
0.0
 10
107.0094889322916
 20
168.8828870985243
 30
0.0
 10
107.0094889322916
 20
168.8828870985243
 30
0.0
 10
107.0094889322916
 20
168.8828870985243
 30
0.0
 10
107.0094889322916
 20
166.8830091688368
 30
0.0
 10
107.0094889322916
 20
166.8830091688368
 30
0.0
 10
107.0094889322916
 20
166.8830091688368
 30
0.0
 10
175.3305555555555
 20
166.8830091688368
 30
0.0
 10
175.3305555555555
 20
166.8830091688368
 30
0.0
 10
180.9467502170138
 20
167.0485460069444
 30
0.0
 10
185.3571614583333
 20
168.8448187934026
 30
0.0
 10
188.4687717013888
 20
172.2223904079861
 30
0.0
 10
192.9649658203124
 20
177.1034016927083
 30
0.0
 10
193.3136094835069
 20
183.7202243381076
 30
0.0
 10
193.3136094835069
 20
185.6520616319443
 30
0.0
 10
193.3136094835069
 20
185.9247409396701
 30
0.0
 10
193.3070638020833
 20
186.0868326822916
 30
0.0
 10
193.3039632161458
 20
186.1548733181423
 30
0.0
  0
INSERT
  5
2089
102
{ACAD_REACTORS
330
20A9
102
}
330
2087
100
AcDbEntity
  8
LAYER_1
 62
     7
100
AcDbBlockReference
  2
AI9-BLK14
 10
159.5625257703993
 20
200.5118781195744
 30
0.0
  0
INSERT
  5
208A
330
2087
100
AcDbEntity
  8
LAYER_1
 62
     7
100
AcDbBlockReference
  2
AI9-BLK13
 10
27.69615614149305
 20
179.2145562065971
 30
0.0
 42
0.9200000000000001
  0
INSERT
  5
208B
102
{ACAD_REACTORS
330
2096
102
}
330
2087
100
AcDbEntity
  8
LAYER_1
 62
     7
100
AcDbBlockReference
  2
AI9-BLK11
 10
44.76591525607638
 20
179.2145562065971
 30
0.0
 42
0.9200000000000001
  0
INSERT
  5
208C
102
{ACAD_REACTORS
330
20A4
102
}
330
2087
100
AcDbEntity
  8
LAYER_1
 62
     7
100
AcDbBlockReference
  2
AI9-BLK10
 10
54.04665798611111
 20
179.2145562065971
 30
0.0
 42
0.9200000000000001
  0
INSERT
  5
208D
102
{ACAD_REACTORS
330
20A3
102
}
330
2087
100
AcDbEntity
  8
LAYER_1
 62
     7
100
AcDbBlockReference
  2
AI9-BLK9
 10
62.79013807508679
 20
179.2145562065971
 30
0.0
 42
0.9
  0
INSERT
  5
208E
330
2087
100
AcDbEntity
  8
LAYER_1
 62
     7
100
AcDbBlockReference
  2
AI9-BLK8
 10
71.03046196831595
 20
179.2145562065971
 30
0.0
 42
0.9200000000000001
  0
INSERT
  5
208F
330
2087
100
AcDbEntity
  8
LAYER_1
 62
     7
100
AcDbBlockReference
  2
AI9-BLK7
 10
76.93793945312498
 20
179.2145562065971
 30
0.0
 42
0.9200000000000001
  0
INSERT
  5
2090
102
{ACAD_REACTORS
330
2097
102
}
330
2087
100
AcDbEntity
  8
LAYER_1
 62
     7
100
AcDbBlockReference
  2
AI9-BLK6
 10
82.55602891710069
 20
179.2145562065971
 30
0.0
 42
0.9
  0
INSERT
  5
2091
102
{ACAD_REACTORS
330
20A5
102
}
330
2087
100
AcDbEntity
  8
LAYER_1
 62
     7
100
AcDbBlockReference
  2
AI9-BLK5
 10
94.32430284288193
 20
179.2145562065971
 30
0.0
 42
0.9200000000000001
  0
INSERT
  5
2092
102
{ACAD_REACTORS
330
20A6
102
}
330
2087
100
AcDbEntity
  8
LAYER_1
 62
     7
100
AcDbBlockReference
  2
AI9-BLK4
 10
103.2081705729166
 20
179.2145562065971
 30
0.0
 42
0.9200000000000001
  0
INSERT
  5
2093
330
2087
100
AcDbEntity
  8
LAYER_1
 62
     7
100
AcDbBlockReference
  2
AI9-BLK3
 10
108.850978597005
 20
179.2145562065971
 30
0.0
 42
0.9200000000000001
  0
INSERT
  5
2094
330
2087
100
AcDbEntity
  8
LAYER_1
 62
     7
100
AcDbBlockReference
  2
AI9-BLK2
 10
114.2045708550346
 20
179.2145562065971
 30
0.0
 42
0.9200000000000001
  0
INSERT
  5
2095
330
2087
100
AcDbEntity
  8
LAYER_1
 62
     7
100
AcDbBlockReference
  2
AI9-BLK1
 10
122.4125108506944
 20
179.2145562065971
 30
0.0
 42
0.9200000000000001
  0
HATCH
  5
2096
330
2087
100
AcDbEntity
  8
0
  6
Continuous
100
AcDbHatch
 10
0.0
 20
0.0
 30
0.0
210
0.0
220
0.0
230
1.0
  2
SOLID
 70
     1
 71
     1
 91
        2
 92
       16
 93
        1
 72
     4
 94
        3
 73
     0
 74
     0
 95
       26
 96
       22
 40
0.0
 40
0.0
 40
0.0
 40
0.0
 40
1.0
 40
1.0
 40
1.0
 40
2.0
 40
2.0
 40
2.0
 40
3.0
 40
3.0
 40
3.0
 40
4.0
 40
4.0
 40
4.0
 40
5.0
 40
5.0
 40
5.0
 40
6.0
 40
6.0
 40
6.0
 40
7.0
 40
7.0
 40
7.0
 40
7.0
 10
42.12008192274304
 20
180.046229817708
 10
42.12008192274304
 20
180.046229817708
 10
42.12008192274304
 20
186.7401881510414
 10
42.12008192274304
 20
186.7401881510414
 10
42.12008192274304
 20
186.7401881510414
 10
45.23100314670138
 20
186.7401881510414
 10
45.23100314670138
 20
186.7401881510414
 10
45.66853027343749
 20
186.7401881510414
 10
46.01579589843749
 20
186.6064357638887
 10
46.27280002170138
 20
186.3401987847218
 10
46.76751573350694
 20
185.8330807291664
 10
47.01487358940972
 20
184.8822343749996
 10
47.01487358940972
 20
183.4863919270832
 10
47.01487358940972
 20
182.188169704861
 10
46.83848470052082
 20
181.2905707465276
 10
46.48639594184028
 20
180.7929611545137
 10
46.13430718315971
 20
180.2947176649304
 10
45.65888400607638
 20
180.046229817708
 10
45.06012641059028
 20
180.046229817708
 10
45.06012641059028
 20
180.046229817708
 10
42.12008192274304
 20
180.046229817708
 10
42.12008192274304
 20
180.046229817708
 97
        1
330
208B
 92
        1
 93
        1
 72
     4
 94
        3
 73
     0
 74
     0
 95
       68
 96
       64
 40
0.0
 40
0.0
 40
0.0
 40
0.0
 40
1.0
 40
1.0
 40
1.0
 40
2.0
 40
2.0
 40
2.0
 40
3.0
 40
3.0
 40
3.0
 40
4.0
 40
4.0
 40
4.0
 40
5.0
 40
5.0
 40
5.0
 40
6.0
 40
6.0
 40
6.0
 40
7.0
 40
7.0
 40
7.0
 40
8.0
 40
8.0
 40
8.0
 40
9.0
 40
9.0
 40
9.0
 40
10.0
 40
10.0
 40
10.0
 40
11.0
 40
11.0
 40
11.0
 40
12.0
 40
12.0
 40
12.0
 40
13.0
 40
13.0
 40
13.0
 40
14.0
 40
14.0
 40
14.0
 40
15.0
 40
15.0
 40
15.0
 40
16.0
 40
16.0
 40
16.0
 40
17.0
 40
17.0
 40
17.0
 40
18.0
 40
18.0
 40
18.0
 40
19.0
 40
19.0
 40
19.0
 40
20.0
 40
20.0
 40
20.0
 40
21.0
 40
21.0
 40
21.0
 40
21.0
 10
40.79716525607638
 20
169.3358964843748
 10
40.79716525607638
 20
169.3358964843748
 10
42.12008192274304
 20
169.3358964843748
 10
42.12008192274304
 20
169.3358964843748
 10
42.12008192274304
 20
169.3358964843748
 10
42.12008192274304
 20
177.8149103732637
 10
42.12008192274304
 20
177.8149103732637
 10
42.12008192274304
 20
177.8149103732637
 10
45.00500488281249
 20
177.8149103732637
 10
45.00500488281249
 20
177.8149103732637
 10
45.52590332031249
 20
177.8149103732637
 10
45.90968695746528
 20
177.6938359374998
 10
46.15635579427083
 20
177.4516870659719
 10
46.58216959635415
 20
177.0117621527776
 10
46.80954589843749
 20
176.1458580729164
 10
46.83848470052082
 20
174.8539748263887
 10
46.83848470052082
 20
174.8539748263887
 10
46.92667914496527
 20
171.5564396701385
 10
46.92667914496527
 20
171.5564396701385
 10
46.94597167968749
 20
170.7843524305554
 10
46.96870930989581
 20
170.2639225260415
 10
46.99351399739582
 20
169.9951499565971
 10
47.01831868489581
 20
169.725743489583
 10
47.0548366970486
 20
169.5057810329859
 10
47.10444607204859
 20
169.3358964843748
 10
47.10444607204859
 20
169.3358964843748
 10
48.73466525607638
 20
169.3358964843748
 10
48.73466525607638
 20
169.3358964843748
 10
48.73466525607638
 20
169.3358964843748
 10
48.73466525607638
 20
169.7821603732635
 10
48.73466525607638
 20
169.7821603732635
 10
48.53278266059028
 20
169.9609194878471
 10
48.39153374565971
 20
170.3628105468748
 10
48.31160753038194
 20
170.9878335503471
 10
48.26062011718749
 20
171.3542263454858
 10
48.22548014322915
 20
171.9120562065971
 10
48.20549858940971
 20
172.6625909288193
 10
48.20549858940971
 20
172.6625909288193
 10
48.16140136718749
 20
175.3205234374999
 10
48.16140136718749
 20
175.3205234374999
 10
48.14141981336803
 20
176.4716814236109
 10
48.03462185329859
 20
177.3033550347219
 10
47.84169650607638
 20
177.8142764756941
 10
47.64808213975693
 20
178.3251979166665
 10
47.35800509982638
 20
178.7372313368054
 10
46.97077636718749
 20
179.0516445312498
 10
47.4021023220486
 20
179.5086846788193
 10
47.73765462239582
 20
180.1134229600693
 10
47.97743326822915
 20
180.8664932725691
 10
48.21721191406249
 20
181.6189296874999
 10
48.33779025607638
 20
182.5868912760413
 10
48.33779025607638
 20
183.7697441406248
 10
48.33779025607638
 20
186.0371957465274
 10
47.89061686197916
 20
187.5921464843749
 10
46.99695909288194
 20
188.4345963541665
 10
46.52567003038194
 20
188.8732534722221
 10
45.92966851128472
 20
189.0932159288193
 10
45.20895453559027
 20
189.0932159288193
 10
45.20895453559027
 20
189.0932159288193
 10
40.79716525607638
 20
189.0932159288193
 10
40.79716525607638
 20
189.0932159288193
 10
40.79716525607638
 20
189.0932159288193
 10
40.79716525607638
 20
169.3358964843748
 10
40.79716525607638
 20
169.3358964843748
 97
        0
 75
     0
 76
     1
 98
        0
  0
HATCH
  5
2097
330
2087
100
AcDbEntity
  8
0
  6
Continuous
100
AcDbHatch
 10
0.0
 20
0.0
 30
0.0
210
0.0
220
0.0
230
1.0
  2
SOLID
 70
     1
 71
     1
 91
        1
 92
        1
 93
        1
 72
     4
 94
        3
 73
     0
 74
     0
 95
       59
 96
       55
 40
0.0
 40
0.0
 40
0.0
 40
0.0
 40
1.0
 40
1.0
 40
1.0
 40
2.0
 40
2.0
 40
2.0
 40
3.0
 40
3.0
 40
3.0
 40
4.0
 40
4.0
 40
4.0
 40
5.0
 40
5.0
 40
5.0
 40
6.0
 40
6.0
 40
6.0
 40
7.0
 40
7.0
 40
7.0
 40
8.0
 40
8.0
 40
8.0
 40
9.0
 40
9.0
 40
9.0
 40
10.0
 40
10.0
 40
10.0
 40
11.0
 40
11.0
 40
11.0
 40
12.0
 40
12.0
 40
12.0
 40
13.0
 40
13.0
 40
13.0
 40
14.0
 40
14.0
 40
14.0
 40
15.0
 40
15.0
 40
15.0
 40
16.0
 40
16.0
 40
16.0
 40
17.0
 40
17.0
 40
17.0
 40
18.0
 40
18.0
 40
18.0
 40
18.0
 10
85.61871880425345
 20
187.4658355034721
 10
86.29120144314232
 20
186.1797124565971
 10
86.66671685112847
 20
184.7193364800346
 10
86.7452650282118
 20
183.0840874565969
 10
86.7452650282118
 20
183.0840874565969
 10
85.42234836154511
 20
183.0840874565969
 10
85.42234836154511
 20
183.0840874565969
 10
85.27696533203123
 20
184.3156401909719
 10
84.99171142578125
 20
185.2917046440971
 10
84.56589762369791
 20
186.0122808159719
 10
84.14008382161458
 20
186.7322368706594
 10
83.53994818793401
 20
187.0925249565969
 10
82.76617974175342
 20
187.0925249565969
 10
81.81740044487847
 20
187.0925249565969
 10
81.05258924696178
 20
186.4240386284721
 10
80.47243516710068
 20
185.0883062065971
 10
79.89159206814234
 20
183.7525737847219
 10
79.6015150282118
 20
181.7049468315971
 10
79.6015150282118
 20
178.9454253472221
 10
79.6015150282118
 20
176.6844780815969
 10
79.86265326605901
 20
174.8514116753471
 10
80.38561876085069
 20
173.4456060112846
 10
80.90789523654512
 20
172.0391802300344
 10
81.69199896918403
 20
171.3365874565971
 10
82.73724093967013
 20
171.3365874565971
 10
83.69497748480901
 20
171.3365874565971
 10
84.42120361328125
 20
172.0794878472221
 10
84.91523030598958
 20
173.5665288628469
 10
85.18601481119791
 20
174.3491167534719
 10
85.38445231119791
 20
175.3785112847221
 10
85.51054280598959
 20
176.6547124565971
 10
85.51054280598959
 20
176.6547124565971
 10
86.83345947265625
 20
176.6547124565971
 10
86.83345947265625
 20
176.6547124565971
 10
86.72597249348957
 20
174.6157671440971
 10
86.35114610460069
 20
172.9061040581596
 10
85.70760226779514
 20
171.526343315972
 10
84.93727891710069
 20
169.8650493706596
 10
83.90375027126735
 20
169.0347124565971
 10
82.60701633029514
 20
169.0347124565971
 10
81.48598225911458
 20
169.0347124565971
 10
80.54547119140625
 20
169.7143608940971
 10
79.78479410807292
 20
171.0742778862845
 10
78.78020426432292
 20
172.8726177300344
 10
78.27859836154512
 20
175.6495024956596
 10
78.27859836154512
 20
179.4049321831594
 10
78.27859836154512
 20
182.2562310112846
 10
78.65342475043402
 20
184.5946929253469
 10
79.40445556640622
 20
186.4196978081596
 10
80.22301025390625
 20
188.4028325737846
 10
81.34955647786458
 20
189.3943999565971
 10
82.78271620008679
 20
189.3943999565971
 10
84.00090196397568
 20
189.3943999565971
 10
84.94623616536458
 20
188.7513384331594
 10
85.61871880425345
 20
187.4658355034721
 97
        1
330
2090
 75
     0
 76
     1
 98
        1
 10
0.0
 20
0.0
  0
LINE
  5
2098
102
{ACAD_REACTORS
330
20A7
102
}
330
2087
100
AcDbEntity
  8
LAYER_1
 62
     7
100
AcDbLine
 10
34.65766059027778
 20
177.4497853732638
 30
0.0
 11
36.19830729166666
 21
186.1658769531249
 31
0.0
  0
LINE
  5
2099
102
{ACAD_REACTORS
330
20A7
102
}
330
2087
100
AcDbEntity
  8
LAYER_1
 62
     7
100
AcDbLine
 10
36.19830729166666
 20
186.1658769531249
 30
0.0
 11
37.67556423611111
 21
177.4497853732638
 31
0.0
  0
LINE
  5
209A
102
{ACAD_REACTORS
330
20A7
102
}
330
2087
100
AcDbEntity
  8
LAYER_1
 62
     7
100
AcDbLine
 10
37.67556423611111
 20
177.4497853732638
 30
0.0
 11
34.65766059027778
 21
177.4497853732638
 31
0.0
  0
LINE
  5
209B
102
{ACAD_REACTORS
330
20A7
102
}
330
2087
100
AcDbEntity
  8
LAYER_1
 62
     7
100
AcDbLine
 10
31.83957248263888
 20
169.3358964843748
 30
0.0
 11
33.22450086805555
 21
169.3358964843748
 31
0.0
  0
LINE
  5
209C
102
{ACAD_REACTORS
330
20A7
102
}
330
2087
100
AcDbEntity
  8
LAYER_1
 62
     7
100
AcDbLine
 10
33.22450086805555
 20
169.3358964843748
 30
0.0
 11
34.27043185763887
 21
175.2590353732638
 31
0.0
  0
LINE
  5
209D
102
{ACAD_REACTORS
330
20A7
102
}
330
2087
100
AcDbEntity
  8
LAYER_1
 62
     7
100
AcDbLine
 10
34.27043185763887
 20
175.2590353732638
 30
0.0
 11
38.04694552951389
 21
175.2590353732638
 31
0.0
  0
LINE
  5
209E
102
{ACAD_REACTORS
330
20A7
102
}
330
2087
100
AcDbEntity
  8
LAYER_1
 62
     7
100
AcDbLine
 10
38.04694552951389
 20
175.2590353732638
 30
0.0
 11
39.05015733506942
 21
169.3358964843748
 31
0.0
  0
LINE
  5
209F
102
{ACAD_REACTORS
330
20A7
102
}
330
2087
100
AcDbEntity
  8
LAYER_1
 62
     7
100
AcDbLine
 10
39.05015733506942
 20
169.3358964843748
 30
0.0
 11
40.43508572048611
 21
169.3358964843748
 31
0.0
  0
LINE
  5
20A0
102
{ACAD_REACTORS
330
20A7
102
}
330
2087
100
AcDbEntity
  8
LAYER_1
 62
     7
100
AcDbLine
 10
40.43508572048611
 20
169.3358964843748
 30
0.0
 11
36.952783203125
 21
189.0932159288193
 31
0.0
  0
LINE
  5
20A1
102
{ACAD_REACTORS
330
20A7
102
}
330
2087
100
AcDbEntity
  8
LAYER_1
 62
     7
100
AcDbLine
 10
36.952783203125
 20
189.0932159288193
 30
0.0
 11
35.47828233506943
 21
189.0932159288193
 31
0.0
  0
LINE
  5
20A2
102
{ACAD_REACTORS
330
20A7
102
}
330
2087
100
AcDbEntity
  8
LAYER_1
 62
     7
100
AcDbLine
 10
35.47828233506943
 20
189.0932159288193
 30
0.0
 11
31.83957248263888
 21
169.3358964843748
 31
0.0
  0
HATCH
  5
20A3
330
2087
100
AcDbEntity
  8
0
  6
Continuous
100
AcDbHatch
 10
0.0
 20
0.0
 30
0.0
210
0.0
220
0.0
230
1.0
  2
SOLID
 70
     1
 71
     1
 91
        2
 92
       16
 93
        1
 72
     4
 94
        3
 73
     0
 74
     0
 95
       29
 96
       25
 40
0.0
 40
0.0
 40
0.0
 40
0.0
 40
1.0
 40
1.0
 40
1.0
 40
2.0
 40
2.0
 40
2.0
 40
3.0
 40
3.0
 40
3.0
 40
4.0
 40
4.0
 40
4.0
 40
5.0
 40
5.0
 40
5.0
 40
6.0
 40
6.0
 40
6.0
 40
7.0
 40
7.0
 40
7.0
 40
8.0
 40
8.0
 40
8.0
 40
8.0
 10
62.85697292751734
 20
171.3365874565971
 10
61.88338894314235
 20
171.3365874565971
 10
61.18058946397566
 20
172.0714263237844
 10
60.74857449001735
 20
173.5411040581594
 10
60.31587049696178
 20
175.0107817925344
 10
60.10020751953123
 20
176.8165630425343
 10
60.10020751953123
 20
178.9578276909721
 10
60.10020751953123
 20
181.6342534722221
 10
60.35101047092013
 20
183.6589360894094
 10
60.85261637369789
 20
185.0324956597219
 10
61.35422227647566
 20
186.4054351128471
 10
62.00741238064235
 20
187.0925249565969
 10
62.81218668619789
 20
187.0925249565969
 10
63.6369425455729
 20
187.0925249565969
 10
64.28806559244789
 20
186.3992339409721
 10
64.76486680772568
 20
185.0126519097221
 10
65.24166802300347
 20
183.6260698784719
 10
65.48006863064235
 20
181.7961040581594
 10
65.48006863064235
 20
179.5239946831596
 10
65.48006863064235
 20
177.3734282769096
 10
65.27336290147568
 20
175.4715288628469
 10
64.86132948133678
 20
173.8176763237846
 10
64.4492960611979
 20
172.1632036675344
 10
63.78094753689235
 20
171.3365874565971
 10
62.85697292751734
 20
171.3365874565971
 97
        1
330
208D
 92
        1
 93
        1
 72
     4
 94
        3
 73
     0
 74
     0
 95
       29
 96
       25
 40
0.0
 40
0.0
 40
0.0
 40
0.0
 40
1.0
 40
1.0
 40
1.0
 40
2.0
 40
2.0
 40
2.0
 40
3.0
 40
3.0
 40
3.0
 40
4.0
 40
4.0
 40
4.0
 40
5.0
 40
5.0
 40
5.0
 40
6.0
 40
6.0
 40
6.0
 40
7.0
 40
7.0
 40
7.0
 40
8.0
 40
8.0
 40
8.0
 40
8.0
 10
62.76119927300346
 20
189.4340874565971
 10
61.47273356119789
 20
189.4340874565971
 10
60.50121663411457
 20
188.2397417534719
 10
59.84733751085068
 20
185.8516704644094
 10
59.3395304361979
 20
183.9900786675344
 10
59.08597140842012
 20
181.7514556206596
 10
59.08597140842012
 20
179.1351812065971
 10
59.08597140842012
 20
176.2379937065971
 10
59.3836276584201
 20
173.8412407769094
 10
59.9789401584201
 20
171.9449224175346
 10
60.6424655490451
 20
169.9779106987846
 10
61.5602389865451
 20
168.9950249565971
 10
62.7315714518229
 20
168.9950249565971
 10
63.9904093424479
 20
168.9950249565971
 10
64.95641411675345
 20
170.1186773003469
 10
65.63027479383679
 20
172.3659819878471
 10
66.20629475911457
 20
174.2796636284719
 10
66.49430474175345
 20
176.6813774956593
 10
66.49430474175345
 20
179.5698833550344
 10
66.49430474175345
 20
182.2388677300343
 10
66.24005669487845
 20
184.4291216362844
 10
65.73293863932289
 20
186.1412651909719
 10
65.08870578342011
 20
188.3364800347219
 10
64.09789632161457
 20
189.4340874565971
 10
62.76119927300346
 20
189.4340874565971
 97
        0
 75
     0
 76
     1
 98
        0
  0
HATCH
  5
20A4
330
2087
100
AcDbEntity
  8
0
  6
Continuous
100
AcDbHatch
 10
0.0
 20
0.0
 30
0.0
210
0.0
220
0.0
230
1.0
  2
SOLID
 70
     1
 71
     1
 91
        1
 92
        1
 93
        1
 72
     4
 94
        3
 73
     0
 74
     0
 95
       59
 96
       55
 40
0.0
 40
0.0
 40
0.0
 40
0.0
 40
1.0
 40
1.0
 40
1.0
 40
2.0
 40
2.0
 40
2.0
 40
3.0
 40
3.0
 40
3.0
 40
4.0
 40
4.0
 40
4.0
 40
5.0
 40
5.0
 40
5.0
 40
6.0
 40
6.0
 40
6.0
 40
7.0
 40
7.0
 40
7.0
 40
8.0
 40
8.0
 40
8.0
 40
9.0
 40
9.0
 40
9.0
 40
10.0
 40
10.0
 40
10.0
 40
11.0
 40
11.0
 40
11.0
 40
12.0
 40
12.0
 40
12.0
 40
13.0
 40
13.0
 40
13.0
 40
14.0
 40
14.0
 40
14.0
 40
15.0
 40
15.0
 40
15.0
 40
16.0
 40
16.0
 40
16.0
 40
17.0
 40
17.0
 40
17.0
 40
18.0
 40
18.0
 40
18.0
 40
18.0
 10
49.39440104166666
 20
189.0932159288193
 10
49.39440104166666
 20
189.0932159288193
 10
51.24786241319444
 20
189.0932159288193
 10
51.24786241319444
 20
189.0932159288193
 10
51.24786241319444
 20
189.0932159288193
 10
54.04665798611111
 20
172.3887471788193
 10
54.04665798611111
 20
172.3887471788193
 10
54.04665798611111
 20
172.3887471788193
 10
56.83994140624999
 20
189.0932159288193
 10
56.83994140624999
 20
189.0932159288193
 10
56.83994140624999
 20
189.0932159288193
 10
58.69891493055553
 20
189.0932159288193
 10
58.69891493055553
 20
189.0932159288193
 10
58.69891493055553
 20
189.0932159288193
 10
58.69891493055553
 20
169.3358964843748
 10
58.69891493055553
 20
169.3358964843748
 10
58.69891493055553
 20
169.3358964843748
 10
57.46419270833333
 20
169.3358964843748
 10
57.46419270833333
 20
169.3358964843748
 10
57.46419270833333
 20
169.3358964843748
 10
57.46419270833333
 20
180.9964422743054
 10
57.46419270833333
 20
180.9964422743054
 10
57.46419270833333
 20
181.3996011284721
 10
57.47108289930555
 20
182.0677291666664
 10
57.48624131944444
 20
183.0001924913193
 10
57.50071072048609
 20
183.9326558159721
 10
57.50828993055553
 20
184.932312282986
 10
57.50828993055553
 20
185.9997957899304
 10
57.50828993055553
 20
185.9997957899304
 10
54.700537109375
 20
169.3358964843748
 10
54.700537109375
 20
169.3358964843748
 10
54.700537109375
 20
169.3358964843748
 10
53.38382161458333
 20
169.3358964843748
 10
53.38382161458333
 20
169.3358964843748
 10
53.38382161458333
 20
169.3358964843748
 10
50.58502604166665
 20
185.9997957899304
 10
50.58502604166665
 20
185.9997957899304
 10
50.58502604166665
 20
185.9997957899304
 10
50.58502604166665
 20
185.3944236111109
 10
50.58502604166665
 20
185.3944236111109
 10
50.58502604166665
 20
184.9101258680554
 10
50.59191623263888
 20
184.1729029947915
 10
50.60707465277777
 20
183.1821210937498
 10
50.62154405381942
 20
182.1913391927082
 10
50.62912326388889
 20
181.4629908854165
 10
50.62912326388889
 20
180.9964422743054
 10
50.62912326388889
 20
180.9964422743054
 10
50.62912326388889
 20
169.3358964843748
 10
50.62912326388889
 20
169.3358964843748
 10
50.62912326388889
 20
169.3358964843748
 10
49.39440104166666
 20
169.3358964843748
 10
49.39440104166666
 20
169.3358964843748
 10
49.39440104166666
 20
169.3358964843748
 10
49.39440104166666
 20
189.0932159288193
 10
49.39440104166666
 20
189.0932159288193
 97
        1
330
208C
 75
     0
 76
     1
 98
        1
 10
0.0
 20
0.0
  0
HATCH
  5
20A5
330
2087
100
AcDbEntity
  8
0
  6
Continuous
100
AcDbHatch
 10
0.0
 20
0.0
 30
0.0
210
0.0
220
0.0
230
1.0
  2
SOLID
 70
     1
 71
     1
 91
        2
 92
       16
 93
        1
 72
     4
 94
        3
 73
     0
 74
     0
 95
       32
 96
       28
 40
0.0
 40
0.0
 40
0.0
 40
0.0
 40
1.0
 40
1.0
 40
1.0
 40
2.0
 40
2.0
 40
2.0
 40
3.0
 40
3.0
 40
3.0
 40
4.0
 40
4.0
 40
4.0
 40
5.0
 40
5.0
 40
5.0
 40
6.0
 40
6.0
 40
6.0
 40
7.0
 40
7.0
 40
7.0
 40
8.0
 40
8.0
 40
8.0
 40
9.0
 40
9.0
 40
9.0
 40
9.0
 10
91.70051812065969
 20
171.6077853732635
 10
91.70051812065969
 20
171.6077853732635
 10
91.70051812065969
 20
186.7401881510414
 10
91.70051812065969
 20
186.7401881510414
 10
91.70051812065969
 20
186.7401881510414
 10
93.98668348524305
 20
186.7401881510414
 10
93.98668348524305
 20
186.7401881510414
 10
95.02159016927082
 20
186.7401881510414
 10
95.77331000434028
 20
186.0644533420137
 10
96.24322102864582
 20
184.7142515190969
 10
96.71313205295138
 20
183.3640496961804
 10
96.94808756510417
 20
181.4680620659721
 10
96.94808756510417
 20
179.0262886284719
 10
96.94808756510417
 20
178.3911232638887
 10
96.91432562934028
 20
177.7027105034721
 10
96.84749077690971
 20
176.9604164496524
 10
96.7324245876736
 20
175.7167094184024
 10
96.55052354600693
 20
174.6974021267359
 10
96.30109863281248
 20
173.901860677083
 10
95.98414984809028
 20
172.9091770833332
 10
95.57693956163193
 20
172.2378795572914
 10
95.07877875434026
 20
171.8892358940971
 10
94.79076877170138
 20
171.7016022135415
 10
94.43178982204859
 20
171.6077853732635
 10
94.00115288628471
 20
171.6077853732635
 10
94.00115288628471
 20
171.6077853732635
 10
91.70051812065969
 20
171.6077853732635
 10
91.70051812065969
 20
171.6077853732635
 97
        1
330
2091
 92
        1
 93
        1
 72
     4
 94
        3
 73
     0
 74
     0
 95
       26
 96
       22
 40
0.0
 40
0.0
 40
0.0
 40
0.0
 40
1.0
 40
1.0
 40
1.0
 40
2.0
 40
2.0
 40
2.0
 40
3.0
 40
3.0
 40
3.0
 40
4.0
 40
4.0
 40
4.0
 40
5.0
 40
5.0
 40
5.0
 40
6.0
 40
6.0
 40
6.0
 40
7.0
 40
7.0
 40
7.0
 40
7.0
 10
90.37760145399305
 20
169.3358964843748
 10
90.37760145399305
 20
169.3358964843748
 10
94.22990722656248
 20
169.3358964843748
 10
94.22990722656248
 20
169.3358964843748
 10
95.87115071614581
 20
169.3358964843748
 10
97.03008083767359
 20
170.8331625434026
 10
97.70600857204859
 20
173.8283285590274
 10
98.08221299913194
 20
175.5227367621524
 10
98.27100423177082
 20
177.4187243923609
 10
98.27100423177082
 20
179.5169253472221
 10
98.27100423177082
 20
182.233810329861
 10
97.94716525607638
 20
184.4619602864582
 10
97.30086534288195
 20
186.2013752170135
 10
96.57601725260416
 20
188.1290577256941
 10
95.5576470269097
 20
189.0932159288193
 10
94.24437662760416
 20
189.0932159288193
 10
94.24437662760416
 20
189.0932159288193
 10
90.37760145399305
 20
189.0932159288193
 10
90.37760145399305
 20
189.0932159288193
 10
90.37760145399305
 20
189.0932159288193
 10
90.37760145399305
 20
169.3358964843748
 10
90.37760145399305
 20
169.3358964843748
 97
        0
 75
     0
 76
     1
 98
        0
  0
HATCH
  5
20A6
330
2087
100
AcDbEntity
  8
0
  6
Continuous
100
AcDbHatch
 10
0.0
 20
0.0
 30
0.0
210
0.0
220
0.0
230
1.0
  2
SOLID
 70
     1
 71
     1
 91
        2
 92
       16
 93
        1
 72
     4
 94
        3
 73
     0
 74
     0
 95
       26
 96
       22
 40
0.0
 40
0.0
 40
0.0
 40
0.0
 40
1.0
 40
1.0
 40
1.0
 40
2.0
 40
2.0
 40
2.0
 40
3.0
 40
3.0
 40
3.0
 40
4.0
 40
4.0
 40
4.0
 40
5.0
 40
5.0
 40
5.0
 40
6.0
 40
6.0
 40
6.0
 40
7.0
 40
7.0
 40
7.0
 40
7.0
 10
100.5623372395832
 20
180.046229817708
 10
100.5623372395832
 20
180.046229817708
 10
100.5623372395832
 20
186.7401881510414
 10
100.5623372395832
 20
186.7401881510414
 10
100.5623372395832
 20
186.7401881510414
 10
103.6732584635416
 20
186.7401881510414
 10
103.6732584635416
 20
186.7401881510414
 10
104.1107855902777
 20
186.7401881510414
 10
104.4580512152777
 20
186.6064357638887
 10
104.7150553385415
 20
186.3401987847218
 10
105.2097710503471
 20
185.8330807291664
 10
105.4571289062497
 20
184.8822343749996
 10
105.4571289062497
 20
183.4863919270832
 10
105.4571289062497
 20
182.188169704861
 10
105.280740017361
 20
181.2905707465276
 10
104.9286512586804
 20
180.7929611545137
 10
104.5765624999999
 20
180.2947176649304
 10
104.1011393229166
 20
180.046229817708
 10
103.5023817274304
 20
180.046229817708
 10
103.5023817274304
 20
180.046229817708
 10
100.5623372395832
 20
180.046229817708
 10
100.5623372395832
 20
180.046229817708
 97
        1
330
2092
 92
        1
 93
        1
 72
     4
 94
        3
 73
     0
 74
     0
 95
       68
 96
       64
 40
0.0
 40
0.0
 40
0.0
 40
0.0
 40
1.0
 40
1.0
 40
1.0
 40
2.0
 40
2.0
 40
2.0
 40
3.0
 40
3.0
 40
3.0
 40
4.0
 40
4.0
 40
4.0
 40
5.0
 40
5.0
 40
5.0
 40
6.0
 40
6.0
 40
6.0
 40
7.0
 40
7.0
 40
7.0
 40
8.0
 40
8.0
 40
8.0
 40
9.0
 40
9.0
 40
9.0
 40
10.0
 40
10.0
 40
10.0
 40
11.0
 40
11.0
 40
11.0
 40
12.0
 40
12.0
 40
12.0
 40
13.0
 40
13.0
 40
13.0
 40
14.0
 40
14.0
 40
14.0
 40
15.0
 40
15.0
 40
15.0
 40
16.0
 40
16.0
 40
16.0
 40
17.0
 40
17.0
 40
17.0
 40
18.0
 40
18.0
 40
18.0
 40
19.0
 40
19.0
 40
19.0
 40
20.0
 40
20.0
 40
20.0
 40
21.0
 40
21.0
 40
21.0
 40
21.0
 10
99.23942057291661
 20
169.3358964843748
 10
99.23942057291661
 20
169.3358964843748
 10
100.5623372395832
 20
169.3358964843748
 10
100.5623372395832
 20
169.3358964843748
 10
100.5623372395832
 20
169.3358964843748
 10
100.5623372395832
 20
177.8149103732637
 10
100.5623372395832
 20
177.8149103732637
 10
100.5623372395832
 20
177.8149103732637
 10
103.4472601996527
 20
177.8149103732637
 10
103.4472601996527
 20
177.8149103732637
 10
103.9681586371527
 20
177.8149103732637
 10
104.3519422743053
 20
177.6938359374998
 10
104.5986111111109
 20
177.4516870659719
 10
105.0244249131943
 20
177.0117621527776
 10
105.2518012152777
 20
176.1458580729164
 10
105.280740017361
 20
174.8539748263887
 10
105.280740017361
 20
174.8539748263887
 10
105.3689344618053
 20
171.5564396701385
 10
105.3689344618053
 20
171.5564396701385
 10
105.3882269965277
 20
170.7843524305554
 10
105.4109646267359
 20
170.2639225260415
 10
105.4357693142359
 20
169.9951499565971
 10
105.4605740017358
 20
169.725743489583
 10
105.4970920138888
 20
169.5057810329859
 10
105.5467013888887
 20
169.3358964843748
 10
105.5467013888887
 20
169.3358964843748
 10
107.1769205729166
 20
169.3358964843748
 10
107.1769205729166
 20
169.3358964843748
 10
107.1769205729166
 20
169.3358964843748
 10
107.1769205729166
 20
169.7821603732635
 10
107.1769205729166
 20
169.7821603732635
 10
106.9750379774303
 20
169.9609194878471
 10
106.8337890624997
 20
170.3628105468748
 10
106.7538628472221
 20
170.9878335503471
 10
106.7028754340274
 20
171.3542263454858
 10
106.6677354600692
 20
171.9120562065971
 10
106.6477539062497
 20
172.6625909288193
 10
106.6477539062497
 20
172.6625909288193
 10
106.6036566840277
 20
175.3205234374999
 10
106.6036566840277
 20
175.3205234374999
 10
106.5836751302082
 20
176.4716814236109
 10
106.4768771701387
 20
177.3033550347219
 10
106.2839518229166
 20
177.8142764756941
 10
106.0903374565971
 20
178.3251979166665
 10
105.8002604166666
 20
178.7372313368054
 10
105.4130316840277
 20
179.0516445312498
 10
105.8443576388886
 20
179.5086846788193
 10
106.179909939236
 20
180.1134229600693
 10
106.4196885850692
 20
180.8664932725691
 10
106.6594672309027
 20
181.6189296874999
 10
106.7800455729166
 20
182.5868912760413
 10
106.7800455729166
 20
183.7697441406248
 10
106.7800455729166
 20
186.0371957465274
 10
106.3328721788193
 20
187.5921464843749
 10
105.4392144097221
 20
188.4345963541665
 10
104.9679253472221
 20
188.8732534722221
 10
104.3719238281249
 20
189.0932159288193
 10
103.6512098524303
 20
189.0932159288193
 10
103.6512098524303
 20
189.0932159288193
 10
99.23942057291661
 20
189.0932159288193
 10
99.23942057291661
 20
189.0932159288193
 10
99.23942057291661
 20
189.0932159288193
 10
99.23942057291661
 20
169.3358964843748
 10
99.23942057291661
 20
169.3358964843748
 97
        0
 75
     0
 76
     1
 98
        0
  0
HATCH
  5
20A7
330
2087
100
AcDbEntity
  8
0
  6
Continuous
100
AcDbHatch
 10
0.0
 20
0.0
 30
0.0
210
0.0
220
0.0
230
1.0
  2
SOLID
 70
     1
 71
     1
 91
        2
 92
        1
 93
        8
 72
     1
 10
35.47828233506943
 20
189.0932159288193
 11
31.83957248263888
 21
169.3358964843748
 72
     1
 10
31.83957248263888
 20
169.3358964843748
 11
33.22450086805555
 21
169.3358964843748
 72
     1
 10
33.22450086805555
 20
169.3358964843748
 11
34.27043185763887
 21
175.2590353732638
 72
     1
 10
34.27043185763887
 20
175.2590353732638
 11
38.04694552951389
 21
175.2590353732638
 72
     1
 10
38.04694552951389
 20
175.2590353732638
 11
39.05015733506942
 21
169.3358964843748
 72
     1
 10
39.05015733506942
 20
169.3358964843748
 11
40.43508572048611
 21
169.3358964843748
 72
     1
 10
40.43508572048611
 20
169.3358964843748
 11
36.952783203125
 21
189.0932159288193
 72
     1
 10
36.952783203125
 20
189.0932159288193
 11
35.47828233506943
 21
189.0932159288193
 97
        8
330
20A2
330
209B
330
209C
330
209D
330
209E
330
209F
330
20A0
330
20A1
 92
       16
 93
        3
 72
     1
 10
37.67556423611111
 20
177.4497853732638
 11
34.65766059027778
 21
177.4497853732638
 72
     1
 10
34.65766059027778
 20
177.4497853732638
 11
36.19830729166666
 21
186.1658769531249
 72
     1
 10
36.19830729166666
 20
186.1658769531249
 11
37.67556423611111
 21
177.4497853732638
 97
        3
330
209A
330
2098
330
2099
 75
     0
 76
     1
 98
        1
 10
0.0
 20
0.0
  0
HATCH
  5
20A8
330
2087
100
AcDbEntity
  8
0
  6
Continuous
100
AcDbHatch
 10
0.0
 20
0.0
 30
0.0
210
0.0
220
0.0
230
1.0
  2
SOLID
 70
     1
 71
     1
 91
        1
 92
        1
 93
        1
 72
     4
 94
        3
 73
     0
 74
     0
 95
      113
 96
      109
 40
0.0
 40
0.0
 40
0.0
 40
0.0
 40
1.0
 40
1.0
 40
1.0
 40
2.0
 40
2.0
 40
2.0
 40
3.0
 40
3.0
 40
3.0
 40
4.0
 40
4.0
 40
4.0
 40
5.0
 40
5.0
 40
5.0
 40
6.0
 40
6.0
 40
6.0
 40
7.0
 40
7.0
 40
7.0
 40
8.0
 40
8.0
 40
8.0
 40
9.0
 40
9.0
 40
9.0
 40
10.0
 40
10.0
 40
10.0
 40
11.0
 40
11.0
 40
11.0
 40
12.0
 40
12.0
 40
12.0
 40
13.0
 40
13.0
 40
13.0
 40
14.0
 40
14.0
 40
14.0
 40
15.0
 40
15.0
 40
15.0
 40
16.0
 40
16.0
 40
16.0
 40
17.0
 40
17.0
 40
17.0
 40
18.0
 40
18.0
 40
18.0
 40
19.0
 40
19.0
 40
19.0
 40
20.0
 40
20.0
 40
20.0
 40
21.0
 40
21.0
 40
21.0
 40
22.0
 40
22.0
 40
22.0
 40
23.0
 40
23.0
 40
23.0
 40
24.0
 40
24.0
 40
24.0
 40
25.0
 40
25.0
 40
25.0
 40
26.0
 40
26.0
 40
26.0
 40
27.0
 40
27.0
 40
27.0
 40
28.0
 40
28.0
 40
28.0
 40
29.0
 40
29.0
 40
29.0
 40
30.0
 40
30.0
 40
30.0
 40
31.0
 40
31.0
 40
31.0
 40
32.0
 40
32.0
 40
32.0
 40
33.0
 40
33.0
 40
33.0
 40
34.0
 40
34.0
 40
34.0
 40
35.0
 40
35.0
 40
35.0
 40
36.0
 40
36.0
 40
36.0
 40
36.0
 10
193.3039632161458
 20
186.1548733181423
 10
193.3039632161458
 20
186.1860514322916
 10
193.3039632161458
 20
219.6932223849826
 10
193.3039632161458
 20
219.6932223849826
 10
193.3039632161458
 20
219.6932223849826
 10
193.2974175347219
 20
219.7488606770833
 10
193.2974175347219
 20
219.7488606770833
 10
191.5293945312499
 20
235.455740017361
 10
175.1458984374999
 20
235.2467949761284
 10
174.9808783637151
 20
235.2428331163193
 10
174.9808783637151
 20
235.2428331163193
 10
125.8827555338541
 20
235.2430053710937
 10
125.8827555338541
 20
235.2430053710937
 10
125.8827555338541
 20
235.2430053710937
 10
125.8827555338541
 20
255.5278998480901
 10
125.8827555338541
 20
255.5278998480901
 10
125.8827555338541
 20
255.5278998480901
 10
84.5626247829861
 20
255.5278998480901
 10
84.5626247829861
 20
255.5278998480901
 10
84.5626247829861
 20
255.5278998480901
 10
84.55711263020829
 20
233.7919311523436
 10
84.55711263020829
 20
233.7919311523436
 10
84.55711263020829
 20
233.7919311523436
 10
64.42052951388888
 20
233.7919311523436
 10
64.42052951388888
 20
233.7919311523436
 10
64.42052951388888
 20
233.7919311523436
 10
64.41501736111111
 20
255.5278998480901
 10
64.41501736111111
 20
255.5278998480901
 10
64.41501736111111
 20
255.5278998480901
 10
23.91757541232637
 20
255.5278998480901
 10
23.91757541232637
 20
255.5278998480901
 10
23.91757541232637
 20
255.5278998480901
 10
23.91757541232637
 20
233.2393378363715
 10
23.91757541232637
 20
233.2393378363715
 10
23.91757541232637
 20
233.2393378363715
 10
43.65624999999999
 20
233.2393378363715
 10
43.65624999999999
 20
233.2393378363715
 10
43.65624999999999
 20
233.2393378363715
 10
43.65624999999999
 20
211.5188720703125
 10
43.65624999999999
 20
211.5188720703125
 10
43.65624999999999
 20
211.5188720703125
 10
23.91757541232637
 20
211.5188720703125
 10
23.91757541232637
 20
211.5188720703125
 10
23.91757541232637
 20
211.5188720703125
 10
23.91757541232637
 20
189.2303100585936
 10
23.91757541232637
 20
189.2303100585936
 10
23.91757541232637
 20
189.2303100585936
 10
64.41501736111111
 20
189.2303100585936
 10
64.41501736111111
 20
189.2303100585936
 10
64.41501736111111
 20
189.2303100585936
 10
64.42052951388888
 20
211.069976128472
 10
64.42052951388888
 20
211.069976128472
 10
64.42052951388888
 20
211.069976128472
 10
84.55711263020829
 20
211.069976128472
 10
84.55711263020829
 20
211.069976128472
 10
84.55711263020829
 20
211.069976128472
 10
84.5626247829861
 20
189.2303100585936
 10
84.5626247829861
 20
189.2303100585936
 10
84.5626247829861
 20
189.2303100585936
 10
125.8827555338541
 20
189.2303100585936
 10
125.8827555338541
 20
189.2303100585936
 10
125.8827555338541
 20
189.2303100585936
 10
125.8827555338541
 20
211.5188720703125
 10
125.8827555338541
 20
211.5188720703125
 10
125.8827555338541
 20
211.5188720703125
 10
105.3213921440971
 20
211.5188720703125
 10
105.3213921440971
 20
211.5188720703125
 10
105.3213921440971
 20
211.5188720703125
 10
105.3213921440971
 20
233.2393378363715
 10
105.3213921440971
 20
233.2393378363715
 10
105.3213921440971
 20
233.2393378363715
 10
175.0046495225693
 20
233.243127441406
 10
175.0046495225693
 20
233.243127441406
 10
175.6268337673611
 20
233.2560465494791
 10
189.7165852864583
 20
233.3962619357638
 10
191.3037407769094
 20
219.5690266927083
 10
191.3037407769094
 20
219.4332899305555
 10
191.3037407769094
 20
186.1142211914062
 10
191.3037407769094
 20
186.1142211914062
 10
191.3037407769094
 20
186.1142211914062
 10
191.3051188151039
 20
186.0880384657115
 10
191.3051188151039
 20
186.0880384657115
 10
191.3054633246526
 20
186.0787367078991
 10
191.3109754774304
 20
185.9566080729166
 10
191.3109754774304
 20
185.7399115668401
 10
191.3109754774304
 20
184.2090833875865
 10
191.0488037109374
 20
177.9643310546874
 10
186.9866916232638
 20
173.5652886284722
 10
184.2540418836804
 20
170.6064683702255
 10
180.3224989149304
 20
169.0308539496526
 10
175.300927734375
 20
168.8825425889756
 10
175.300927734375
 20
168.8825425889756
 10
107.0094889322916
 20
168.8828870985243
 10
107.0094889322916
 20
168.8828870985243
 10
107.0094889322916
 20
168.8828870985243
 10
107.0094889322916
 20
166.8830091688368
 10
107.0094889322916
 20
166.8830091688368
 10
107.0094889322916
 20
166.8830091688368
 10
175.3305555555555
 20
166.8830091688368
 10
175.3305555555555
 20
166.8830091688368
 10
180.9467502170138
 20
167.0485460069444
 10
185.3571614583333
 20
168.8448187934026
 10
188.4687717013888
 20
172.2223904079861
 10
192.9649658203124
 20
177.1034016927083
 10
193.3136094835069
 20
183.7202243381076
 10
193.3136094835069
 20
185.6520616319443
 10
193.3136094835069
 20
185.9247409396701
 10
193.3070638020833
 20
186.0868326822916
 10
193.3039632161458
 20
186.1548733181423
 97
        1
330
2088
 75
     0
 76
     1
 98
        1
 10
0.0
 20
0.0
  0
HATCH
  5
20A9
330
2087
100
AcDbEntity
  8
0
  6
Continuous
100
AcDbHatch
 10
0.0
 20
0.0
 30
0.0
210
0.0
220
0.0
230
1.0
  2
SOLID
 70
     1
 71
     1
 91
        2
 92
        1
 93
        1
 72
     4
 94
        3
 73
     0
 74
     0
 95
       23
 96
       19
 40
0.0
 40
0.0
 40
0.0
 40
0.0
 40
1.0
 40
1.0
 40
1.0
 40
2.0
 40
2.0
 40
2.0
 40
3.0
 40
3.0
 40
3.0
 40
4.0
 40
4.0
 40
4.0
 40
5.0
 40
5.0
 40
5.0
 40
6.0
 40
6.0
 40
6.0
 40
6.0
 10
148.6593153211804
 20
211.3929538302949
 10
148.6593153211804
 20
211.3929538302949
 10
148.6593153211804
 20
189.630802408854
 10
148.6593153211804
 20
189.630802408854
 10
148.6593153211804
 20
189.630802408854
 10
161.3152180989583
 20
189.630802408854
 10
161.3152180989583
 20
189.630802408854
 10
162.8431179470483
 20
189.630802408854
 10
170.4657362196178
 20
190.1880466037324
 10
170.4657362196178
 20
201.1911648220484
 10
170.4657362196178
 20
211.1288872612845
 10
162.3356553819444
 20
211.3914035373261
 10
162.2536621093749
 20
211.3927815755205
 10
162.2536621093749
 20
211.3927815755205
 10
149.6594265407986
 20
211.3929538302949
 10
149.6594265407986
 20
211.3929538302949
 10
149.6594265407986
 20
211.3929538302949
 10
148.6593153211804
 20
211.3929538302949
 10
148.6593153211804
 20
211.3929538302949
 97
        1
330
2089
 92
       16
 93
        1
 72
     4
 94
        3
 73
     0
 74
     0
 95
       20
 96
       16
 40
0.0
 40
0.0
 40
0.0
 40
0.0
 40
1.0
 40
1.0
 40
1.0
 40
2.0
 40
2.0
 40
2.0
 40
3.0
 40
3.0
 40
3.0
 40
4.0
 40
4.0
 40
4.0
 40
5.0
 40
5.0
 40
5.0
 40
5.0
 10
162.2354031032984
 20
209.3930759006075
 10
162.467947048611
 20
209.3861857096352
 10
168.4655137803819
 20
209.1283203124997
 10
168.4655137803819
 20
201.1911648220484
 10
168.4655137803819
 20
192.3202162000866
 10
162.9926350911458
 20
191.6306803385414
 10
161.3152180989583
 20
191.6306803385414
 10
161.3152180989583
 20
191.6306803385414
 10
152.3310980902776
 20
191.6306803385414
 10
150.6595377604166
 20
191.6306803385414
 10
150.6595377604166
 20
193.3373806423609
 10
150.6595377604166
 20
207.686375596788
 10
150.6595377604166
 20
209.3930759006075
 10
152.3538357204859
 20
209.3930759006075
 10
162.2354031032984
 20
209.3930759006075
 10
162.2354031032984
 20
209.3930759006075
 97
        0
 75
     0
 76
     1
 98
        0
  0
ENDBLK
  5
20AB
330
2087
100
AcDbEntity
  8
0
100
AcDbBlockEnd
  0
BLOCK
  5
20AE
330
20AC
100
AcDbEntity
  8
0
100
AcDbBlockBegin
  2
HD logo-new
 70
     0
 10
0.0
 20
0.0
 30
0.0
  3
HD logo-new
  1

  0
INSERT
  5
20AD
330
20AC
100
AcDbEntity
  8
0
 62
     3
100
AcDbBlockReference
  2
HD_LLC_logo_OT5
 10
-27.1607188578505
 20
-68.37367811463031
 30
0.0
 41
0.2999999999999971
 42
0.3000000000000007
 43
0.3
  0
ENDBLK
  5
20AF
330
20AC
100
AcDbEntity
  8
0
100
AcDbBlockEnd
  0
BLOCK
  5
20B2
330
20B0
100
AcDbEntity
  8
0
100
AcDbBlockBegin
  2
HD Logo
 70
     0
 10
0.0
 20
0.0
 30
0.0
  3
HD Logo
  1

  0
INSERT
  5
20B1
330
20B0
100
AcDbEntity
  8
0
100
AcDbBlockReference
  2
HD logo-new
 10
0.9700256734946606
 20
7.273795608420527
 30
0.0
  0
ENDBLK
  5
20B3
330
20B0
100
AcDbEntity
  8
0
100
AcDbBlockEnd
  0
BLOCK
  5
20BE
330
20BC
100
AcDbEntity
  8
0
100
AcDbBlockBegin
  2
Harmonic Drive LLC
 70
     0
 10
0.0
 20
0.0
 30
0.0
  3
Harmonic Drive LLC
  1

  0
MTEXT
  5
20BD
330
20BC
100
AcDbEntity
  8
0
100
AcDbMText
 10
8.730232253264317
 20
-1.454758693481394
 30
0.0
 40
5.25
 41
158.5992
 71
     5
 72
     5
  1
{\fArial|b0|i0|c0|p34;Harmonic Drive LLC\P800-921-3332\Pwww.harmonicdrive.net}
 73
     1
 44
1.0
  0
ENDBLK
  5
20BF
330
20BC
100
AcDbEntity
  8
0
100
AcDbBlockEnd
  0
BLOCK
  5
25CC
330
25CA
100
AcDbEntity
  8
0
100
AcDbBlockBegin
  2
HD LLC
 70
     0
 10
0.0
 20
0.0
 30
0.0
  3
HD LLC
  1

  0
MTEXT
  5
25CB
330
25CA
100
AcDbEntity
  8
0
100
AcDbMText
 10
-2.314970886968865
 20
1.247205085865914
 30
0.0
 40
5.675387507387601
 41
236.1828726592229
 71
     5
 72
     5
  1
Harmonic Drive LLC\P800-921-3332\Pwww.harmonicdrive.net
 73
     1
 44
1.0
  0
ENDBLK
  5
25CD
330
25CA
100
AcDbEntity
  8
0
100
AcDbBlockEnd
  0
BLOCK
  5
25E3
330
25E0
100
AcDbEntity
  8
0
100
AcDbBlockBegin
  2
NTC
 70
     0
 10
0.0
 20
0.0
 30
0.0
  3
NTC
  1

  0
LWPOLYLINE
  5
25E1
330
25E0
100
AcDbEntity
  8
0
100
AcDbPolyline
 90
        8
 70
     1
 43
0.0
 10
4.581008201925953
 20
-10.78862239032818
 10
319.3921777697513
 20
-10.78862239032818
 42
-0.4142135623730951
 10
324.9046777697513
 20
-16.30112239032816
 10
324.9046777697513
 20
-117.4075202476924
 42
-0.4142135623730951
 10
319.3921777697513
 20
-122.9200202476925
 10
4.581008201925838
 20
-122.9200202476925
 42
-0.4142135623730951
 10
-0.9314917980741483
 20
-117.4075202476924
 10
-0.9314917980740915
 20
-16.30112239032816
 42
-0.4142135623730951
  0
MTEXT
  5
25E2
330
25E0
100
AcDbEntity
  8
0
  6
Continuous
370
    30
100
AcDbMText
 10
21.65307678143926
 20
-17.4535155144544
 30
0.0
 40
8.75
 41
294.5432999999998
 71
     1
 72
     5
  3
{\fTxt|b1|i0|c0|p2;Notice:\P\Ftxt.shx;\H0.5714x;All specifications and dimensions shown in the drawing are subject to change without notice. This drawing is the property of Harmonic Drive LLC.   This data is believed to be accurate, however, Harmonic
  1
 Drive LLC assumes no liability for any errors or omissions in the specifications, models, or drawings.\P\PHarmonic Drive LLC\PTel: 800-921-3332\Pwww.harmonicdrive.net}
 73
     1
 44
1.0
  0
ENDBLK
  5
25E4
330
25E0
100
AcDbEntity
  8
0
100
AcDbBlockEnd
  0
ENDSEC
  0
SECTION
  2
ENTITIES
  0
TEXT
  5
203F
330
1D9B
100
AcDbEntity
  8
1
 62
     3
100
AcDbText
 10
-568.9349484502171
 20
-334.536590863377
 30
0.0
 40
7.5
  1
 
 41
0.9
100
AcDbText
  0
TEXT
  5
2350
330
1D9B
100
AcDbEntity
  8
1
 62
     0
100
AcDbText
 10
353.0063087814278
 20
584.6888915807928
 30
0.0
 40
11.0
  1
REMARKS:  M.H.C = MINIMUM HOUSING CLEARANCE
 41
0.9
 72
     1
 11
496.581058781428
 21
590.1888915807927
 31
0.0
100
AcDbText
 73
     2
  0
TEXT
  5
2351
330
1D9B
100
AcDbEntity
  8
1
 62
     0
100
AcDbText
 10
744.5877974851963
 20
594.311267391569
 30
0.0
 40
18.2
  1
CSF-90-XXX-2A-GR.dxf
 41
0.9
100
AcDbText
  0
TEXT
  5
2352
330
1D9B
100
AcDbEntity
  8
1
 62
     0
100
AcDbText
 10
816.9673688818365
 20
552.100521503405
 30
0.0
 40
18.2
  1
2002/3
 41
0.9
 72
     1
 11
851.4966353799712
 21
561.200521503405
 31
0.0
100
AcDbText
 73
     2
  0
CIRCLE
  5
2353
330
1D9B
100
AcDbEntity
  8
1
 62
     7
100
AcDbCircle
 10
151.0581555321712
 20
865.0767472715054
 30
0.0
 40
36.0
  0
CIRCLE
  5
2354
330
1D9B
100
AcDbEntity
  8
1
 62
     7
100
AcDbCircle
 10
151.0581555321712
 20
865.0767472715054
 30
0.0
 40
71.0
  0
CIRCLE
  5
2355
330
1D9B
100
AcDbEntity
  8
1
 62
     7
100
AcDbCircle
 10
151.0581555321712
 20
865.0767472715054
 30
0.0
 40
111.8479999999999
  0
CIRCLE
  5
2356
330
1D9B
100
AcDbEntity
  8
1
 62
     7
100
AcDbCircle
 10
151.0581555321712
 20
865.0767472715054
 30
0.0
 40
122.5
  0
CIRCLE
  5
2357
330
1D9B
100
AcDbEntity
  8
1
 62
     7
100
AcDbCircle
 10
151.0581555321712
 20
865.0767472715054
 30
0.0
 40
150.0
  0
CIRCLE
  5
2358
330
1D9B
100
AcDbEntity
  8
1
  6
CENTER
 62
     3
100
AcDbCircle
 10
151.0581555321712
 20
865.0767472715054
 30
0.0
 40
135.0
  0
CIRCLE
  5
2359
330
1D9B
100
AcDbEntity
  8
1
  6
CENTER
 62
     3
100
AcDbCircle
 10
151.0581555321712
 20
865.0767472715054
 30
0.0
 40
55.0
  0
CIRCLE
  5
235A
330
1D9B
100
AcDbEntity
  8
1
 62
     7
100
AcDbCircle
 10
189.9490284974315
 20
826.1858743062456
 30
0.0
 40
10.99999999999979
  0
CIRCLE
  5
235B
330
1D9B
100
AcDbEntity
  8
1
 62
     7
100
AcDbCircle
 10
189.9490284974315
 20
903.9676202367656
 30
0.0
 40
10.99999999999994
  0
CIRCLE
  5
235C
330
1D9B
100
AcDbEntity
  8
1
 62
     3
100
AcDbCircle
 10
177.3953490043485
 20
997.4827601259416
 30
0.0
 40
6.0
  0
CIRCLE
  5
235D
330
1D9B
100
AcDbEntity
  8
1
 62
     7
100
AcDbCircle
 10
151.0581555321712
 20
865.0767472715054
 30
0.0
 40
115.45
  0
ARC
  5
235E
330
1D9B
100
AcDbEntity
  8
1
  6
CENTER
 62
     3
100
AcDbCircle
 10
151.0581555321712
 20
865.0767472715054
 30
0.0
 40
60.0
100
AcDbArc
 50
270.0
 51
314.9999999999997
  0
LINE
  5
235F
330
1D9B
100
AcDbEntity
  8
1
  6
DASHDOT
 62
     3
100
AcDbLine
 10
201.6162903870093
 20
814.5186124166674
 30
0.0
 11
178.2817666078535
 21
837.8531361958234
 31
0.0
  0
LINE
  5
2360
330
1D9B
100
AcDbEntity
  8
1
  6
DASHDOT
 62
     3
100
AcDbLine
 10
201.6162903870093
 20
915.6348821263437
 30
0.0
 11
178.2817666078535
 21
892.3003583471876
 31
0.0
  0
CIRCLE
  5
2361
330
1D9B
100
AcDbEntity
  8
1
 62
     7
100
AcDbCircle
 10
112.1672825669113
 20
826.1858743062456
 30
0.0
 40
10.99999999999979
  0
LINE
  5
2362
330
1D9B
100
AcDbEntity
  8
1
  6
DASHDOT
 62
     3
100
AcDbLine
 10
100.500020677333
 20
814.5186124166675
 30
0.0
 11
123.8345444564892
 21
837.8531361958234
 31
0.0
  0
LINE
  5
2363
330
1D9B
100
AcDbEntity
  8
1
  6
CENTER
 62
     3
100
AcDbLine
 10
151.0581555321712
 20
1030.076747271505
 30
0.0
 11
151.0581555321712
 21
700.0767472715056
 31
0.0
  0
CIRCLE
  5
2364
330
1D9B
100
AcDbEntity
  8
1
 62
     7
100
AcDbCircle
 10
151.0581555321712
 20
730.0767472715055
 30
0.0
 40
7.0
  0
CIRCLE
  5
2365
330
1D9B
100
AcDbEntity
  8
1
 62
     3
100
AcDbCircle
 10
124.7209620599937
 20
732.6707344170695
 30
0.0
 40
6.0
  0
LINE
  5
2366
330
1D9B
100
AcDbEntity
  8
1
  6
DASHDOT
 62
     3
100
AcDbLine
 10
122.6725136788246
 20
722.3724889728355
 30
0.0
 11
126.7694104411635
 21
742.9689798613034
 31
0.0
  0
CIRCLE
  5
2367
330
1D9B
100
AcDbEntity
  8
1
 62
     7
100
AcDbCircle
 10
26.33441864314773
 20
813.4144839022184
 30
0.0
 40
6.999999999999992
  0
CIRCLE
  5
2368
330
1D9B
100
AcDbEntity
  8
1
 62
     7
100
AcDbCircle
 10
55.59874007198789
 20
769.6173318113217
 30
0.0
 40
6.999999999999832
  0
LINE
  5
2369
330
1D9B
100
AcDbEntity
  8
1
  6
DASHDOT
 62
     3
100
AcDbLine
 10
16.63368355177897
 20
809.3963078623851
 30
0.0
 11
36.03515373451603
 21
817.4326599420519
 31
0.0
  0
LINE
  5
236A
330
1D9B
100
AcDbEntity
  8
1
  6
DASHDOT
 62
     3
100
AcDbLine
 10
48.17411886952868
 20
762.1927106088629
 30
0.0
 11
63.02336127444608
 21
777.0419530137803
 31
0.0
  0
CIRCLE
  5
236B
330
1D9B
100
AcDbEntity
  8
1
 62
     7
100
AcDbCircle
 10
151.0581555321712
 20
810.0767472715055
 30
0.0
 40
11.0
  0
CIRCLE
  5
236C
330
1D9B
100
AcDbEntity
  8
1
 62
     3
100
AcDbCircle
 10
174.0191614740765
 20
809.6439753208283
 30
0.0
 40
6.0
  0
CIRCLE
  5
236D
330
1D9B
100
AcDbEntity
  8
1
 62
     7
100
AcDbCircle
 10
174.0191614740765
 20
809.6439753208283
 30
0.0
 40
4.799999999999955
  0
CIRCLE
  5
236E
330
1D9B
100
AcDbEntity
  8
1
 62
     7
100
AcDbCircle
 10
99.39589216288425
 20
740.3530103824818
 30
0.0
 40
7.000000000000166
  0
CIRCLE
  5
236F
330
1D9B
100
AcDbEntity
  8
1
 62
     7
100
AcDbCircle
 10
124.7209620599937
 20
732.6707344170695
 30
0.0
 40
4.799999999999726
  0
LINE
  5
2370
330
1D9B
100
AcDbEntity
  8
1
  6
DASHDOT
 62
     3
100
AcDbLine
 10
177.4633123653627
 20
801.3290595282267
 30
0.0
 11
170.5750105827911
 21
817.9588911134299
 31
0.0
  0
LINE
  5
2371
330
1D9B
100
AcDbEntity
  8
1
  6
DASHDOT
 62
     3
100
AcDbLine
 10
95.37771612305101
 20
730.6522752911135
 30
0.0
 11
103.4140682027179
 21
750.0537454738504
 31
0.0
  0
CIRCLE
  5
2372
330
1D9B
100
AcDbEntity
  8
1
 62
     7
100
AcDbCircle
 10
26.33441864314773
 20
916.7390106407927
 30
0.0
 40
7.000000000000079
  0
CIRCLE
  5
2373
330
1D9B
100
AcDbEntity
  8
1
 62
     7
100
AcDbCircle
 10
16.05815553217155
 20
865.0767472715054
 30
0.0
 40
7.000000000000111
  0
LINE
  5
2374
330
1D9B
100
AcDbEntity
  8
1
  6
DASHDOT
 62
     3
100
AcDbLine
 10
16.63368355177897
 20
920.757186680626
 30
0.0
 11
36.03515373451603
 21
912.7208346009592
 31
0.0
  0
CIRCLE
  5
2375
330
1D9B
100
AcDbEntity
  8
1
 62
     7
100
AcDbCircle
 10
151.0581555321712
 20
920.0767472715055
 30
0.0
 40
11.0
  0
CIRCLE
  5
2376
330
1D9B
100
AcDbEntity
  8
1
 62
     7
100
AcDbCircle
 10
112.1672825669113
 20
903.9676202367656
 30
0.0
 40
11.00000000000002
  0
CIRCLE
  5
2377
330
1D9B
100
AcDbEntity
  8
1
 62
     7
100
AcDbCircle
 10
96.05815553217126
 20
865.0767472715054
 30
0.0
 40
11.0
  0
CIRCLE
  5
2378
330
1D9B
100
AcDbEntity
  8
1
 62
     3
100
AcDbCircle
 10
128.0971495902659
 20
920.5095192221826
 30
0.0
 40
6.0
  0
CIRCLE
  5
2379
330
1D9B
100
AcDbEntity
  8
1
 62
     7
100
AcDbCircle
 10
128.0971495902659
 20
920.5095192221826
 30
0.0
 40
4.800000000000181
  0
ARC
  5
237A
330
1D9B
100
AcDbEntity
  8
1
  6
CENTER
 62
     3
100
AcDbCircle
 10
151.0581555321712
 20
865.0767472715054
 30
0.0
 40
60.0
100
AcDbArc
 50
90.0
 51
134.9999999999997
  0
LINE
  5
237B
330
1D9B
100
AcDbEntity
  8
1
  6
DASHDOT
 62
     3
100
AcDbLine
 10
100.500020677333
 20
915.6348821263437
 30
0.0
 11
123.8345444564892
 21
892.3003583471876
 31
0.0
  0
LINE
  5
237C
330
1D9B
100
AcDbEntity
  8
1
  6
DASHDOT
 62
     3
100
AcDbLine
 10
124.6529986989802
 20
928.8244350147843
 30
0.0
 11
131.5413004815517
 21
912.1946034295811
 31
0.0
  0
CIRCLE
  5
237D
330
1D9B
100
AcDbEntity
  8
1
 62
     7
100
AcDbCircle
 10
55.59874007198789
 20
960.5361627316893
 30
0.0
 40
7.0
  0
LINE
  5
237E
330
1D9B
100
AcDbEntity
  8
1
  6
DASHDOT
 62
     3
100
AcDbLine
 10
48.17411886952868
 20
967.960783934148
 30
0.0
 11
63.02336127444596
 21
953.1115415292306
 31
0.0
  0
CIRCLE
  5
237F
330
1D9B
100
AcDbEntity
  8
1
 62
     7
100
AcDbCircle
 10
151.0581555321712
 20
1000.076747271505
 30
0.0
 40
7.0
  0
CIRCLE
  5
2380
330
1D9B
100
AcDbEntity
  8
1
 62
     7
100
AcDbCircle
 10
99.39589216288425
 20
989.8004841605294
 30
0.0
 40
6.999999999999962
  0
CIRCLE
  5
2381
330
1D9B
100
AcDbEntity
  8
1
 62
     7
100
AcDbCircle
 10
177.3953490043485
 20
997.4827601259416
 30
0.0
 40
4.799999999999955
  0
LINE
  5
2382
330
1D9B
100
AcDbEntity
  8
1
  6
DASHDOT
 62
     3
100
AcDbLine
 10
95.37771612305101
 20
999.5012192518979
 30
0.0
 11
103.4140682027177
 21
980.0997490691607
 31
0.0
  0
LINE
  5
2383
330
1D9B
100
AcDbEntity
  8
1
  6
DASHDOT
 62
     3
100
AcDbLine
 10
179.4437973855177
 20
1007.781005570175
 30
0.0
 11
175.346900623179
 21
987.1845146817078
 31
0.0
  0
LINE
  5
2384
330
1D9B
100
AcDbEntity
  8
1
 62
     7
100
AcDbLine
 10
430.173614967614
 20
811.0767472715055
 30
0.0
 11
430.173614967614
 21
865.0767472715054
 31
0.0
  0
LINE
  5
2385
330
1D9B
100
AcDbEntity
  8
1
 62
     7
100
AcDbLine
 10
439.173614967614
 20
811.0767472715055
 30
0.0
 11
439.173614967614
 21
865.0767472715054
 31
0.0
  0
LINE
  5
2386
330
1D9B
100
AcDbEntity
  8
1
 62
     7
100
AcDbLine
 10
494.4736149676141
 20
834.0767472715054
 30
0.0
 11
494.4736149676141
 21
851.0767472715052
 31
0.0
  0
LINE
  5
2387
330
1D9B
100
AcDbEntity
  8
1
 62
     7
100
AcDbLine
 10
542.6736149676141
 20
851.0767472715052
 30
0.0
 11
542.6736149676141
 21
835.0767472715055
 31
0.0
  0
CIRCLE
  5
2388
330
1D9B
100
AcDbEntity
  8
1
 62
     7
100
AcDbCircle
 10
202.7204189014584
 20
740.3530103824818
 30
0.0
 40
6.999999999999857
  0
CIRCLE
  5
2389
330
1D9B
100
AcDbEntity
  8
1
 62
     7
100
AcDbCircle
 10
246.5175709923552
 20
769.6173318113217
 30
0.0
 40
6.999999999999913
  0
CIRCLE
  5
238A
330
1D9B
100
AcDbEntity
  8
1
 62
     7
100
AcDbCircle
 10
275.7818924211948
 20
813.4144839022185
 30
0.0
 40
7.000000000000093
  0
LINE
  5
238B
330
1D9B
100
AcDbEntity
  8
1
  6
DASHDOT
 62
     3
100
AcDbLine
 10
206.7385949412918
 20
730.6522752911135
 30
0.0
 11
198.7022428616247
 21
750.0537454738504
 31
0.0
  0
LINE
  5
238C
330
1D9B
100
AcDbEntity
  8
1
  6
DASHDOT
 62
     3
100
AcDbLine
 10
253.9421921948138
 20
762.192710608863
 30
0.0
 11
239.0929497898965
 21
777.0419530137806
 31
0.0
  0
LINE
  5
238D
330
1D9B
100
AcDbEntity
  8
1
  6
DASHDOT
 62
     3
100
AcDbLine
 10
285.4826275125635
 20
809.3963078623851
 30
0.0
 11
266.0811573298265
 21
817.4326599420519
 31
0.0
  0
LINE
  5
238E
330
1D9B
100
AcDbEntity
  8
1
 62
     7
100
AcDbLine
 10
542.6736149676141
 20
723.0767472715056
 30
0.0
 11
542.6736149676141
 21
737.0767472715056
 31
0.0
  0
LINE
  5
238F
330
1D9B
100
AcDbEntity
  8
1
 62
     7
100
AcDbLine
 10
501.6736149676141
 20
725.2767472715056
 30
0.0
 11
501.6736149676141
 21
734.8767472715056
 31
0.0
  0
LINE
  5
2390
330
1D9B
100
AcDbEntity
  8
1
 62
     7
100
AcDbLine
 10
542.6736149676141
 20
715.4767472715056
 30
0.0
 11
542.6736149676141
 21
723.0767472715056
 31
0.0
  0
LINE
  5
2391
330
1D9B
100
AcDbEntity
  8
1
 62
     7
100
AcDbLine
 10
501.6736149676141
 20
715.4767472715056
 30
0.0
 11
501.6736149676141
 21
723.0767472715056
 31
0.0
  0
LINE
  5
2392
330
1D9B
100
AcDbEntity
  8
1
 62
     7
100
AcDbLine
 10
502.0736149676142
 20
715.0767472715056
 30
0.0
 11
542.2736149676142
 21
715.0767472715056
 31
0.0
  0
LINE
  5
2393
330
1D9B
100
AcDbEntity
  8
1
 62
     7
100
AcDbLine
 10
501.6736149676141
 20
715.4767472715056
 30
0.0
 11
502.0736149676142
 21
715.0767472715056
 31
0.0
  0
LINE
  5
2394
330
1D9B
100
AcDbEntity
  8
1
 62
     7
100
AcDbLine
 10
542.6736149676141
 20
715.4767472715056
 30
0.0
 11
542.2736149676142
 21
715.0767472715056
 31
0.0
  0
LINE
  5
2395
330
1D9B
100
AcDbEntity
  8
1
 62
     7
100
AcDbLine
 10
501.6736149676141
 20
724.0767472715056
 30
0.0
 11
501.6736149676141
 21
725.2767472715056
 31
0.0
  0
LINE
  5
2396
330
1D9B
100
AcDbEntity
  8
1
 62
     7
100
AcDbLine
 10
501.6736149676141
 20
723.0767472715056
 30
0.0
 11
542.6736149676141
 21
723.0767472715056
 31
0.0
  0
LINE
  5
2397
330
1D9B
100
AcDbEntity
  8
1
 62
     7
100
AcDbLine
 10
501.6736149676141
 20
723.0767472715056
 30
0.0
 11
501.6736149676141
 21
724.0767472715056
 31
0.0
  0
ARC
  5
2398
330
1D9B
100
AcDbEntity
  8
1
 62
     7
100
AcDbCircle
 10
478.269614967614
 20
663.2957472715056
 30
0.0
 40
89.99999999999996
100
AcDbArc
 50
74.5610703618274
 51
90.0
  0
LINE
  5
2399
330
1D9B
100
AcDbEntity
  8
1
 62
     7
100
AcDbLine
 10
444.7986149676141
 20
754.6507472715055
 30
0.0
 11
540.1736149676142
 21
754.6507472715055
 31
0.0
  0
LINE
  5
239A
330
1D9B
100
AcDbEntity
  8
1
 62
     7
100
AcDbLine
 10
496.4736149676141
 20
742.5767472715055
 30
0.0
 11
501.3736149676141
 21
742.5767472715055
 31
0.0
  0
LINE
  5
239B
330
1D9B
100
AcDbEntity
  8
1
 62
     7
100
AcDbLine
 10
542.6736149676141
 20
749.8287472715055
 30
0.0
 11
495.6736149676141
 21
749.8287472715055
 31
0.0
  0
LINE
  5
239C
330
1D9B
100
AcDbEntity
  8
1
 62
     7
100
AcDbLine
 10
497.6736149676141
 20
751.9307472715056
 30
0.0
 11
495.6736149676141
 21
749.9307472715055
 31
0.0
  0
LINE
  5
239D
330
1D9B
100
AcDbEntity
  8
1
 62
     7
100
AcDbLine
 10
494.8061149676139
 20
796.5767472715056
 30
0.0
 11
504.2736149676141
 21
796.5767472715056
 31
0.0
  0
LINE
  5
239E
330
1D9B
100
AcDbEntity
  8
1
 62
     7
100
AcDbLine
 10
494.8061149676139
 20
823.0767472715056
 30
0.0
 11
504.2736149676141
 21
823.0767472715056
 31
0.0
  0
LINE
  5
239F
330
1D9B
100
AcDbEntity
  8
1
 62
     7
100
AcDbLine
 10
494.4736149676141
 20
834.0767472715054
 30
0.0
 11
504.7736149676141
 21
834.0767472715054
 31
0.0
  0
LINE
  5
23A0
330
1D9B
100
AcDbEntity
  8
1
  6
CENTER
 62
     3
100
AcDbLine
 10
496.1736149676141
 20
730.0767472715055
 30
0.0
 11
548.1736149676142
 21
730.0767472715055
 31
0.0
  0
ARC
  5
23A1
330
1D9B
100
AcDbEntity
  8
1
 62
     7
100
AcDbCircle
 10
444.3436149676143
 20
759.8207472715056
 30
0.0
 40
6.524999999999976
100
AcDbArc
 50
180.0
 51
270.0
  0
ARC
  5
23A2
330
1D9B
100
AcDbEntity
  8
1
 62
     7
100
AcDbCircle
 10
436.918614967614
 20
792.1767472715056
 30
0.0
 40
0.9000000000000909
100
AcDbArc
 50
0.0
 51
90.0
  0
ARC
  5
23A3
330
1D9B
100
AcDbEntity
  8
1
 62
     7
100
AcDbCircle
 10
444.7986149676141
 20
760.2757472715055
 30
0.0
 40
5.625
100
AcDbArc
 50
180.0
 51
270.0
  0
LINE
  5
23A4
330
1D9B
100
AcDbEntity
  8
1
 62
     7
100
AcDbLine
 10
437.8186149676142
 20
759.8207472715056
 30
0.0
 11
437.8186149676142
 21
792.1767472715056
 31
0.0
  0
LINE
  5
23A5
330
1D9B
100
AcDbEntity
  8
1
 62
     7
100
AcDbLine
 10
478.269614967614
 20
753.2957472715057
 30
0.0
 11
444.3436149676143
 21
753.2957472715057
 31
0.0
  0
LINE
  5
23A6
330
1D9B
100
AcDbEntity
  8
1
 62
     7
100
AcDbLine
 10
430.173614967614
 20
800.2767472715056
 30
0.0
 11
430.173614967614
 21
809.8767472715055
 31
0.0
  0
LINE
  5
23A7
330
1D9B
100
AcDbEntity
  8
1
 62
     7
100
AcDbLine
 10
439.173614967614
 20
800.2767472715056
 30
0.0
 11
439.173614967614
 21
809.8767472715055
 31
0.0
  0
LINE
  5
23A8
330
1D9B
100
AcDbEntity
  8
1
 62
     7
100
AcDbLine
 10
439.173614967614
 20
800.2767472715056
 30
0.0
 11
430.173614967614
 21
800.2767472715056
 31
0.0
  0
LINE
  5
23A9
330
1D9B
100
AcDbEntity
  8
1
 62
     7
100
AcDbLine
 10
430.173614967614
 20
809.8767472715055
 30
0.0
 11
430.173614967614
 21
811.0767472715055
 31
0.0
  0
LINE
  5
23AA
330
1D9B
100
AcDbEntity
  8
1
 62
     7
100
AcDbLine
 10
439.173614967614
 20
809.8767472715055
 30
0.0
 11
439.173614967614
 21
811.0767472715055
 31
0.0
  0
LINE
  5
23AB
330
1D9B
100
AcDbEntity
  8
1
 62
     7
100
AcDbLine
 10
439.173614967614
 20
809.8767472715055
 30
0.0
 11
430.173614967614
 21
809.8767472715055
 31
0.0
  0
LINE
  5
23AC
330
1D9B
100
AcDbEntity
  8
1
  6
CENTER
 62
     3
100
AcDbLine
 10
440.9736149676142
 20
805.0767472715056
 30
0.0
 11
428.3736149676143
 21
805.0767472715056
 31
0.0
  0
LINE
  5
23AD
330
1D9B
100
AcDbEntity
  8
1
 62
     7
100
AcDbLine
 10
430.173614967614
 20
799.0767472715056
 30
0.0
 11
430.173614967614
 21
800.2767472715056
 31
0.0
  0
LINE
  5
23AE
330
1D9B
100
AcDbEntity
  8
1
 62
     7
100
AcDbLine
 10
439.173614967614
 20
799.0767472715056
 30
0.0
 11
439.173614967614
 21
800.2767472715056
 31
0.0
  0
LINE
  5
23AF
330
1D9B
100
AcDbEntity
  8
1
 62
     3
100
AcDbLine
 10
439.173614967614
 20
799.0767472715056
 30
0.0
 11
430.173614967614
 21
799.0767472715056
 31
0.0
  0
LINE
  5
23B0
330
1D9B
100
AcDbEntity
  8
1
 62
     3
100
AcDbLine
 10
439.173614967614
 20
811.0767472715055
 30
0.0
 11
430.173614967614
 21
811.0767472715055
 31
0.0
  0
LINE
  5
23B1
330
1D9B
100
AcDbEntity
  8
1
  6
DIVIDE
 62
     7
100
AcDbLine
 10
433.1736149676141
 20
745.5767472715056
 30
0.0
 11
433.1736149676141
 21
764.2124159204472
 31
0.0
  0
LINE
  5
23B2
330
1D9B
100
AcDbEntity
  8
1
  6
DIVIDE
 62
     7
100
AcDbLine
 10
454.3456512942554
 20
745.5767472715056
 30
0.0
 11
433.1736149676141
 21
745.5767472715056
 31
0.0
  0
LINE
  5
23B3
330
1D9B
100
AcDbEntity
  8
1
 62
     7
100
AcDbLine
 10
436.918614967614
 20
793.0767472715055
 30
0.0
 11
430.673614967614
 21
793.0767472715055
 31
0.0
  0
LINE
  5
23B4
330
1D9B
100
AcDbEntity
  8
1
 62
     7
100
AcDbLine
 10
430.173614967614
 20
829.0767472715057
 30
0.0
 11
439.173614967614
 21
829.0767472715057
 31
0.0
  0
LINE
  5
23B5
330
1D9B
100
AcDbEntity
  8
1
 62
     7
100
AcDbLine
 10
439.173614967614
 20
760.2757472715055
 30
0.0
 11
439.173614967614
 21
799.0767472715056
 31
0.0
  0
LINE
  5
23B6
330
1D9B
100
AcDbEntity
  8
1
 62
     7
100
AcDbLine
 10
430.173614967614
 20
793.5767472715056
 30
0.0
 11
430.173614967614
 21
799.0767472715056
 31
0.0
  0
LINE
  5
23B7
330
1D9B
100
AcDbEntity
  8
1
 62
     7
100
AcDbLine
 10
430.673614967614
 20
793.0767472715055
 30
0.0
 11
430.173614967614
 21
793.5767472715056
 31
0.0
  0
LINE
  5
23B8
330
1D9B
100
AcDbEntity
  8
1
 62
     7
100
AcDbLine
 10
495.6736149676141
 20
749.9307472715055
 30
0.0
 11
495.6736149676141
 21
749.8287472715055
 31
0.0
  0
LINE
  5
23B9
330
1D9B
100
AcDbEntity
  8
1
 62
     7
100
AcDbLine
 10
495.6736149676141
 20
743.3767472715056
 30
0.0
 11
496.4736149676141
 21
742.5767472715055
 31
0.0
  0
LINE
  5
23BA
330
1D9B
100
AcDbEntity
  8
1
 62
     7
100
AcDbLine
 10
494.8061149676139
 20
796.5767472715056
 30
0.0
 11
494.8061149676139
 21
797.2953892148836
 31
0.0
  0
LINE
  5
23BB
330
1D9B
100
AcDbEntity
  8
1
 62
     7
100
AcDbLine
 10
494.4736149676141
 20
797.2953892148836
 30
0.0
 11
494.8061149676139
 21
797.2953892148836
 31
0.0
  0
LINE
  5
23BC
330
1D9B
100
AcDbEntity
  8
1
 62
     7
100
AcDbLine
 10
494.8061149676139
 20
797.2953892148836
 30
0.0
 11
494.8061149676139
 21
823.0767472715056
 31
0.0
  0
LINE
  5
23BD
330
1D9B
100
AcDbEntity
  8
1
 62
     7
100
AcDbLine
 10
494.4736149676141
 20
797.2953892148836
 30
0.0
 11
494.4736149676141
 21
834.0767472715054
 31
0.0
  0
LINE
  5
23BE
330
1D9B
100
AcDbEntity
  8
1
 62
     7
100
AcDbLine
 10
495.6736149676141
 20
749.8287472715055
 30
0.0
 11
495.6736149676141
 21
743.3767472715056
 31
0.0
  0
ARC
  5
23BF
330
1D9B
100
AcDbEntity
  8
1
 62
     7
100
AcDbCircle
 10
508.9077549153396
 20
776.5837472715054
 30
0.0
 40
0.9000000000001191
100
AcDbArc
 50
90.0
 51
186.9999999999928
  0
ARC
  5
23C0
330
1D9B
100
AcDbEntity
  8
1
 62
     7
100
AcDbCircle
 10
509.690489967614
 20
763.3487472715057
 30
0.0
 40
0.8999999999998921
100
AcDbArc
 50
180.0
 51
270.0
  0
ARC
  5
23C1
330
1D9B
100
AcDbEntity
  8
1
 62
     7
100
AcDbCircle
 10
542.0736149676143
 20
753.2752754089294
 30
0.0
 40
0.600000000000029
100
AcDbArc
 50
314.9999999999905
 51
0.0
  0
ARC
  5
23C2
330
1D9B
100
AcDbEntity
  8
1
 62
     7
100
AcDbCircle
 10
542.0736149676143
 20
753.950349083269
 30
0.0
 40
0.5999999999999091
100
AcDbArc
 50
0.0
 51
87.00000000001411
  0
ARC
  5
23C3
330
1D9B
100
AcDbEntity
  8
1
 62
     7
100
AcDbCircle
 10
501.3736149676141
 20
742.2767472715056
 30
0.0
 40
0.3000000000000114
100
AcDbArc
 50
0.0
 51
90.0
  0
ARC
  5
23C4
330
1D9B
100
AcDbEntity
  8
1
 62
     7
100
AcDbCircle
 10
523.7761149676141
 20
769.8187472715056
 30
0.0
 40
10.71562499999999
100
AcDbArc
 50
270.0
 51
295.3476220319611
  0
ARC
  5
23C5
330
1D9B
100
AcDbEntity
  8
1
 62
     7
100
AcDbCircle
 10
523.7761149676141
 20
769.8187472715056
 30
0.0
 40
10.71562499999997
100
AcDbArc
 50
295.3476220319611
 51
62.67565605912054
  0
ARC
  5
23C6
330
1D9B
100
AcDbEntity
  8
1
 62
     7
100
AcDbCircle
 10
523.7761149676141
 20
769.8187472715056
 30
0.0
 40
10.71562499999995
100
AcDbArc
 50
62.67565605912054
 51
90.0
  0
ARC
  5
23C7
330
1D9B
100
AcDbEntity
  8
1
 62
     7
100
AcDbCircle
 10
523.7761149676141
 20
769.8187472715056
 30
0.0
 40
10.71562500000001
100
AcDbArc
 50
90.0
 51
117.3243439408794
  0
ARC
  5
23C8
330
1D9B
100
AcDbEntity
  8
1
 62
     7
100
AcDbCircle
 10
523.7761149676141
 20
769.8187472715056
 30
0.0
 40
10.71562499999999
100
AcDbArc
 50
117.3243439408794
 51
244.6523779680382
  0
ARC
  5
23C9
330
1D9B
100
AcDbEntity
  8
1
 62
     7
100
AcDbCircle
 10
523.7761149676141
 20
769.8187472715056
 30
0.0
 40
10.71562500000001
100
AcDbArc
 50
244.6523779680382
 51
270.0
  0
ARC
  5
23CA
330
1D9B
100
AcDbEntity
  8
1
 62
     7
100
AcDbCircle
 10
506.7736149676141
 20
832.5767472715053
 30
0.0
 40
2.5
100
AcDbArc
 50
143.1301023541539
 51
180.0
  0
ARC
  5
23CB
330
1D9B
100
AcDbEntity
  8
1
 62
     7
100
AcDbCircle
 10
506.7736149676141
 20
832.5767472715053
 30
0.0
 40
2.5
100
AcDbArc
 50
90.0
 51
143.1301023541539
  0
LINE
  5
23CC
330
1D9B
100
AcDbEntity
  8
1
 62
     7
100
AcDbLine
 10
512.7604899676141
 20
777.4837472715057
 30
0.0
 11
516.2879647193469
 21
777.4837472715057
 31
0.0
  0
LINE
  5
23CD
330
1D9B
100
AcDbEntity
  8
1
 62
     7
100
AcDbLine
 10
512.7604899676141
 20
762.4487472715056
 30
0.0
 11
512.7604899676141
 21
777.4837472715057
 31
0.0
  0
LINE
  5
23CE
330
1D9B
100
AcDbEntity
  8
1
 62
     7
100
AcDbLine
 10
512.7604899676141
 20
777.4837472715057
 30
0.0
 11
508.9077549153396
 21
777.4837472715057
 31
0.0
  0
LINE
  5
23CF
330
1D9B
100
AcDbEntity
  8
1
 62
     7
100
AcDbLine
 10
508.790489967614
 20
770.1538354863283
 30
0.0
 11
508.0144633788624
 21
776.474064862441
 31
0.0
  0
LINE
  5
23D0
330
1D9B
100
AcDbEntity
  8
1
 62
     7
100
AcDbLine
 10
508.790489967614
 20
770.1538354863283
 30
0.0
 11
508.790489967614
 21
763.3487472715057
 31
0.0
  0
LINE
  5
23D1
330
1D9B
100
AcDbEntity
  8
1
 62
     7
100
AcDbLine
 10
512.7604899676141
 20
762.4487472715056
 30
0.0
 11
509.690489967614
 21
762.4487472715056
 31
0.0
  0
LINE
  5
23D2
330
1D9B
100
AcDbEntity
  8
1
 62
     7
100
AcDbLine
 10
515.9198856132179
 20
762.5314789580873
 30
0.0
 11
512.7604899676141
 21
762.4487472715056
 31
0.0
  0
LINE
  5
23D3
330
1D9B
100
AcDbEntity
  8
1
 62
     7
100
AcDbLine
 10
538.7636149676141
 20
754.6247472715056
 30
0.0
 11
523.7761149676141
 21
754.6247472715056
 31
0.0
  0
LINE
  5
23D4
330
1D9B
100
AcDbEntity
  8
1
 62
     7
100
AcDbLine
 10
540.063614967614
 20
755.375302621452
 30
0.0
 11
540.063614967614
 21
759.6347472715056
 31
0.0
  0
LINE
  5
23D5
330
1D9B
100
AcDbEntity
  8
1
 62
     7
100
AcDbLine
 10
539.563614967614
 20
760.1347472715056
 30
0.0
 11
528.3635721217056
 21
760.1347472715056
 31
0.0
  0
LINE
  5
23D6
330
1D9B
100
AcDbEntity
  8
1
 62
     7
100
AcDbLine
 10
534.0061149676142
 20
779.3387472715055
 30
0.0
 11
528.6948769196325
 21
779.3387472715055
 31
0.0
  0
LINE
  5
23D7
330
1D9B
100
AcDbEntity
  8
1
 62
     7
100
AcDbLine
 10
535.2061149676139
 20
783.8537472715056
 30
0.0
 11
535.2061149676139
 21
780.5387472715056
 31
0.0
  0
LINE
  5
23D8
330
1D9B
100
AcDbEntity
  8
1
 62
     7
100
AcDbLine
 10
534.0061149676142
 20
785.0537472715055
 30
0.0
 11
523.7761149676141
 21
785.0537472715055
 31
0.0
  0
LINE
  5
23D9
330
1D9B
100
AcDbEntity
  8
1
 62
     7
100
AcDbLine
 10
534.0061149676142
 20
779.3387472715055
 30
0.0
 11
535.2061149676139
 21
780.5387472715056
 31
0.0
  0
LINE
  5
23DA
330
1D9B
100
AcDbEntity
  8
1
 62
     7
100
AcDbLine
 10
535.2061149676139
 20
783.8537472715056
 30
0.0
 11
534.0061149676142
 21
785.0537472715055
 31
0.0
  0
LINE
  5
23DB
330
1D9B
100
AcDbEntity
  8
1
 62
     7
100
AcDbLine
 10
540.063614967614
 20
759.6347472715056
 30
0.0
 11
539.563614967614
 21
760.1347472715056
 31
0.0
  0
LINE
  5
23DC
330
1D9B
100
AcDbEntity
  8
1
 62
     7
100
AcDbLine
 10
540.063614967614
 20
755.375302621452
 30
0.0
 11
538.7636149676141
 21
754.6247472715056
 31
0.0
  0
LINE
  5
23DD
330
1D9B
100
AcDbEntity
  8
1
 62
     7
100
AcDbLine
 10
540.063614967614
 20
776.1068218520137
 30
0.0
 11
540.063614967614
 21
759.6347472715056
 31
0.0
  0
LINE
  5
23DE
330
1D9B
100
AcDbEntity
  8
1
 62
     7
100
AcDbLine
 10
507.4886149676142
 20
759.6347472715056
 30
0.0
 11
507.4886149676142
 21
776.1068218520137
 31
0.0
  0
LINE
  5
23DF
330
1D9B
100
AcDbEntity
  8
1
 62
     7
100
AcDbLine
 10
508.7886149676141
 20
754.6247472715056
 30
0.0
 11
507.4886149676142
 21
755.375302621452
 31
0.0
  0
LINE
  5
23E0
330
1D9B
100
AcDbEntity
  8
1
 62
     7
100
AcDbLine
 10
507.9886149676142
 20
760.1347472715056
 30
0.0
 11
507.4886149676142
 21
759.6347472715056
 31
0.0
  0
LINE
  5
23E1
330
1D9B
100
AcDbEntity
  8
1
 62
     7
100
AcDbLine
 10
513.5461149676141
 20
785.0537472715055
 30
0.0
 11
512.3461149676143
 21
783.8537472715056
 31
0.0
  0
LINE
  5
23E2
330
1D9B
100
AcDbEntity
  8
1
 62
     7
100
AcDbLine
 10
512.3461149676143
 20
780.5387472715056
 30
0.0
 11
513.5461149676141
 21
779.3387472715055
 31
0.0
  0
LINE
  5
23E3
330
1D9B
100
AcDbEntity
  8
1
 62
     7
100
AcDbLine
 10
523.7761149676141
 20
785.0537472715055
 30
0.0
 11
513.5461149676141
 21
785.0537472715055
 31
0.0
  0
LINE
  5
23E4
330
1D9B
100
AcDbEntity
  8
1
 62
     7
100
AcDbLine
 10
512.3461149676143
 20
780.5387472715056
 30
0.0
 11
512.3461149676143
 21
783.8537472715056
 31
0.0
  0
LINE
  5
23E5
330
1D9B
100
AcDbEntity
  8
1
 62
     7
100
AcDbLine
 10
518.8573530155956
 20
779.3387472715055
 30
0.0
 11
513.5461149676141
 21
779.3387472715055
 31
0.0
  0
LINE
  5
23E6
330
1D9B
100
AcDbEntity
  8
1
 62
     7
100
AcDbLine
 10
519.1886578135227
 20
760.1347472715056
 30
0.0
 11
507.9886149676142
 21
760.1347472715056
 31
0.0
  0
LINE
  5
23E7
330
1D9B
100
AcDbEntity
  8
1
 62
     7
100
AcDbLine
 10
507.4886149676142
 20
759.6347472715056
 30
0.0
 11
507.4886149676142
 21
755.375302621452
 31
0.0
  0
LINE
  5
23E8
330
1D9B
100
AcDbEntity
  8
1
 62
     7
100
AcDbLine
 10
523.7761149676141
 20
754.6247472715056
 30
0.0
 11
508.7886149676141
 21
754.6247472715056
 31
0.0
  0
LINE
  5
23E9
330
1D9B
100
AcDbEntity
  8
1
 62
     7
100
AcDbLine
 10
504.2736149676141
 20
796.5767472715056
 30
0.0
 11
504.4061149676141
 21
796.5767472715056
 31
0.0
  0
LINE
  5
23EA
330
1D9B
100
AcDbEntity
  8
1
 62
     7
100
AcDbLine
 10
504.2736149676141
 20
823.0767472715056
 30
0.0
 11
504.2736149676141
 21
796.5767472715056
 31
0.0
  0
LINE
  5
23EB
330
1D9B
100
AcDbEntity
  8
1
  6
DIVIDE
 62
     7
100
AcDbLine
 10
545.6736149676141
 20
745.5767472715056
 30
0.0
 11
545.6736149676141
 21
768.4695219294666
 31
0.0
  0
LINE
  5
23EC
330
1D9B
100
AcDbEntity
  8
1
 62
     7
100
AcDbLine
 10
542.6736149676141
 20
745.5767472715056
 30
0.0
 11
542.6736149676141
 21
749.8287472715055
 31
0.0
  0
LINE
  5
23ED
330
1D9B
100
AcDbEntity
  8
1
  6
DIVIDE
 62
     7
100
AcDbLine
 10
542.6736149676141
 20
745.5767472715056
 30
0.0
 11
545.6736149676141
 21
745.5767472715056
 31
0.0
  0
LINE
  5
23EE
330
1D9B
100
AcDbEntity
  8
1
 62
     7
100
AcDbLine
 10
530.9736149676141
 20
749.8287472715055
 30
0.0
 11
520.1736149676142
 21
749.8287472715055
 31
0.0
  0
LINE
  5
23EF
330
1D9B
100
AcDbEntity
  8
1
 62
     7
100
AcDbLine
 10
539.5731781022425
 20
749.926310406134
 30
0.0
 11
530.9736149676141
 21
749.8287472715055
 31
0.0
  0
LINE
  5
23F0
330
1D9B
100
AcDbEntity
  8
1
 62
     7
100
AcDbLine
 10
502.228614967614
 20
750.0480747273151
 30
0.0
 11
520.1736149676142
 21
749.8287472715055
 31
0.0
  0
LINE
  5
23F1
330
1D9B
100
AcDbEntity
  8
1
 62
     7
100
AcDbLine
 10
542.4978790363261
 20
752.8510113402175
 30
0.0
 11
539.5731781022425
 21
749.926310406134
 31
0.0
  0
LINE
  5
23F2
330
1D9B
100
AcDbEntity
  8
1
 62
     7
100
AcDbLine
 10
542.6736149676141
 20
753.950349083269
 30
0.0
 11
542.6736149676141
 21
753.2752754089294
 31
0.0
  0
LINE
  5
23F3
330
1D9B
100
AcDbEntity
  8
1
 62
     7
100
AcDbLine
 10
542.1050165413598
 20
754.5495268041218
 30
0.0
 11
540.1736149676142
 21
754.6507472715055
 31
0.0
  0
LINE
  5
23F4
330
1D9B
100
AcDbEntity
  8
1
 62
     7
100
AcDbLine
 10
542.6736149676141
 20
787.5232189404994
 30
0.0
 11
542.6736149676141
 21
753.950349083269
 31
0.0
  0
LINE
  5
23F5
330
1D9B
100
AcDbEntity
  8
1
 62
     7
100
AcDbLine
 10
540.6736149676142
 20
751.9307472715055
 30
0.0
 11
497.6736149676141
 21
751.9307472715056
 31
0.0
  0
LINE
  5
23F6
330
1D9B
100
AcDbEntity
  8
1
 62
     7
100
AcDbLine
 10
542.6736149676141
 20
737.0767472715056
 30
0.0
 11
542.6736149676141
 21
745.5767472715056
 31
0.0
  0
LINE
  5
23F7
330
1D9B
100
AcDbEntity
  8
1
 62
     7
100
AcDbLine
 10
540.6736149676142
 20
751.9307472715055
 30
0.0
 11
542.6736149676141
 21
749.9307472715055
 31
0.0
  0
LINE
  5
23F8
330
1D9B
100
AcDbEntity
  8
1
 62
     7
100
AcDbLine
 10
501.6736149676141
 20
736.0767472715056
 30
0.0
 11
501.6736149676141
 21
737.0767472715056
 31
0.0
  0
LINE
  5
23F9
330
1D9B
100
AcDbEntity
  8
1
 62
     7
100
AcDbLine
 10
501.6736149676141
 20
734.8767472715056
 30
0.0
 11
501.6736149676141
 21
736.0767472715056
 31
0.0
  0
LINE
  5
23FA
330
1D9B
100
AcDbEntity
  8
1
 62
     7
100
AcDbLine
 10
535.1736149676141
 20
834.0767472715054
 30
0.0
 11
511.7736149676141
 21
834.0767472715054
 31
0.0
  0
LINE
  5
23FB
330
1D9B
100
AcDbEntity
  8
1
 62
     7
100
AcDbLine
 10
511.7736149676141
 20
823.3267472715056
 30
0.0
 11
521.506114967614
 21
823.3267472715056
 31
0.0
  0
LINE
  5
23FC
330
1D9B
100
AcDbEntity
  8
1
 62
     7
100
AcDbLine
 10
521.506114967614
 20
835.0767472715055
 30
0.0
 11
521.506114967614
 21
823.3267472715056
 31
0.0
  0
LINE
  5
23FD
330
1D9B
100
AcDbEntity
  8
1
 62
     7
100
AcDbLine
 10
511.7736149676141
 20
835.0767472715055
 30
0.0
 11
511.7736149676141
 21
823.3267472715056
 31
0.0
  0
LINE
  5
23FE
330
1D9B
100
AcDbEntity
  8
1
 62
     7
100
AcDbLine
 10
511.306114967614
 20
834.8267472715054
 30
0.0
 11
511.306114967614
 21
823.0767472715056
 31
0.0
  0
LINE
  5
23FF
330
1D9B
100
AcDbEntity
  8
1
 62
     7
100
AcDbLine
 10
511.7736149676141
 20
823.0767472715056
 30
0.0
 11
511.306114967614
 21
823.0767472715056
 31
0.0
  0
LINE
  5
2400
330
1D9B
100
AcDbEntity
  8
1
 62
     7
100
AcDbLine
 10
507.2736149676141
 20
834.8267472715054
 30
0.0
 11
511.306114967614
 21
834.8267472715054
 31
0.0
  0
LINE
  5
2401
330
1D9B
100
AcDbEntity
  8
1
 62
     7
100
AcDbLine
 10
511.306114967614
 20
835.0767472715055
 30
0.0
 11
511.306114967614
 21
834.8267472715054
 31
0.0
  0
LINE
  5
2402
330
1D9B
100
AcDbEntity
  8
1
 62
     7
100
AcDbLine
 10
504.7736149676141
 20
828.0767472715055
 30
0.0
 11
504.7736149676141
 21
832.3267472715052
 31
0.0
  0
LINE
  5
2403
330
1D9B
100
AcDbEntity
  8
1
 62
     7
100
AcDbLine
 10
504.2736149676141
 20
828.0767472715055
 30
0.0
 11
504.7736149676141
 21
828.0767472715055
 31
0.0
  0
LINE
  5
2404
330
1D9B
100
AcDbEntity
  8
1
 62
     7
100
AcDbLine
 10
507.2190070299905
 20
834.7721393338817
 30
0.0
 11
504.7736149676141
 21
832.3267472715052
 31
0.0
  0
LINE
  5
2405
330
1D9B
100
AcDbEntity
  8
1
 62
     7
100
AcDbLine
 10
507.2190070299905
 20
835.0767472715055
 30
0.0
 11
507.2190070299905
 21
834.7721393338817
 31
0.0
  0
LINE
  5
2406
330
1D9B
100
AcDbEntity
  8
1
 62
     7
100
AcDbLine
 10
507.2736149676141
 20
834.8267472715054
 30
0.0
 11
507.2190070299905
 21
834.7721393338817
 31
0.0
  0
LINE
  5
2407
330
1D9B
100
AcDbEntity
  8
1
 62
     7
100
AcDbLine
 10
511.7736149676141
 20
796.5767472715056
 30
0.0
 11
506.9061149676141
 21
796.5767472715056
 31
0.0
  0
LINE
  5
2408
330
1D9B
100
AcDbEntity
  8
1
 62
     7
100
AcDbLine
 10
535.1736149676141
 20
835.0767472715055
 30
0.0
 11
535.1736149676141
 21
834.9267472715055
 31
0.0
  0
LINE
  5
2409
330
1D9B
100
AcDbEntity
  8
1
 62
     7
100
AcDbLine
 10
535.1736149676141
 20
785.0667472715056
 30
0.0
 11
533.9736149676141
 21
785.0667472715056
 31
0.0
  0
LINE
  5
240A
330
1D9B
100
AcDbEntity
  8
1
 62
     7
100
AcDbLine
 10
535.1736149676141
 20
785.0667472715056
 30
0.0
 11
535.1736149676141
 21
783.8667472715055
 31
0.0
  0
LINE
  5
240B
330
1D9B
100
AcDbEntity
  8
1
 62
     7
100
AcDbLine
 10
512.3461149676139
 20
785.0667472715056
 30
0.0
 11
513.5461149676139
 21
785.0667472715056
 31
0.0
  0
LINE
  5
240C
330
1D9B
100
AcDbEntity
  8
1
 62
     7
100
AcDbLine
 10
512.3461149676139
 20
785.0667472715056
 30
0.0
 11
512.3461149676139
 21
783.8667472715055
 31
0.0
  0
LINE
  5
240D
330
1D9B
100
AcDbEntity
  8
1
 62
     7
100
AcDbLine
 10
511.7736149676141
 20
785.0667472715056
 30
0.0
 11
512.3461149676139
 21
785.0667472715056
 31
0.0
  0
LINE
  5
240E
330
1D9B
100
AcDbEntity
  8
1
 62
     7
100
AcDbLine
 10
504.4061149676141
 20
773.0767472715056
 30
0.0
 11
506.9061149676141
 21
773.0767472715056
 31
0.0
  0
LINE
  5
240F
330
1D9B
100
AcDbEntity
  8
1
 62
     7
100
AcDbLine
 10
504.4061149676141
 20
796.5767472715056
 30
0.0
 11
504.4061149676141
 21
773.0767472715056
 31
0.0
  0
LINE
  5
2410
330
1D9B
100
AcDbEntity
  8
1
 62
     7
100
AcDbLine
 10
506.9061149676141
 20
796.5767472715056
 30
0.0
 11
506.9061149676141
 21
773.0767472715056
 31
0.0
  0
LINE
  5
2411
330
1D9B
100
AcDbEntity
  8
1
 62
     7
100
AcDbLine
 10
511.7736149676141
 20
796.5767472715056
 30
0.0
 11
511.7736149676141
 21
785.0667472715056
 31
0.0
  0
LINE
  5
2412
330
1D9B
100
AcDbEntity
  8
1
 62
     7
100
AcDbLine
 10
511.7736149676141
 20
796.5767472715056
 30
0.0
 11
511.7736149676141
 21
823.0767472715056
 31
0.0
  0
LINE
  5
2413
330
1D9B
100
AcDbEntity
  8
1
 62
     7
100
AcDbLine
 10
511.7736149676141
 20
823.0767472715056
 30
0.0
 11
511.7736149676141
 21
823.3267472715056
 31
0.0
  0
LINE
  5
2414
330
1D9B
100
AcDbEntity
  8
1
 62
     7
100
AcDbLine
 10
511.7736149676141
 20
823.3267472715056
 30
0.0
 11
521.506114967614
 21
823.3267472715056
 31
0.0
  0
LINE
  5
2415
330
1D9B
100
AcDbEntity
  8
1
 62
     7
100
AcDbLine
 10
511.7736149676141
 20
823.0767472715056
 30
0.0
 11
511.306114967614
 21
823.0767472715056
 31
0.0
  0
LINE
  5
2416
330
1D9B
100
AcDbEntity
  8
1
 62
     7
100
AcDbLine
 10
537.2061149676141
 20
834.9267472715055
 30
0.0
 11
535.1736149676141
 21
834.9267472715055
 31
0.0
  0
LINE
  5
2417
330
1D9B
100
AcDbEntity
  8
1
 62
     7
100
AcDbLine
 10
535.1736149676141
 20
834.9267472715055
 30
0.0
 11
535.1736149676141
 21
830.0767472715056
 31
0.0
  0
LINE
  5
2418
330
1D9B
100
AcDbEntity
  8
1
 62
     7
100
AcDbLine
 10
537.2061149676141
 20
834.9267472715055
 30
0.0
 11
537.2061149676141
 21
830.0767472715056
 31
0.0
  0
LINE
  5
2419
330
1D9B
100
AcDbEntity
  8
1
 62
     7
100
AcDbLine
 10
537.2061149676141
 20
830.0767472715056
 30
0.0
 11
535.1736149676141
 21
830.0767472715056
 31
0.0
  0
LINE
  5
241A
330
1D9B
100
AcDbEntity
  8
1
 62
     7
100
AcDbLine
 10
535.1736149676141
 20
830.0767472715056
 30
0.0
 11
535.1736149676141
 21
797.5692472715056
 31
0.0
  0
LINE
  5
241B
330
1D9B
100
AcDbEntity
  8
1
 62
     7
100
AcDbLine
 10
537.2061149676141
 20
835.0767472715055
 30
0.0
 11
506.7736149676141
 21
835.0767472715055
 31
0.0
  0
LINE
  5
241C
330
1D9B
100
AcDbEntity
  8
1
 62
     7
100
AcDbLine
 10
506.7736149676141
 20
835.0767472715055
 30
0.0
 11
535.1736149676141
 21
835.0767472715055
 31
0.0
  0
LINE
  5
241D
330
1D9B
100
AcDbEntity
  8
1
 62
     7
100
AcDbLine
 10
504.2736149676141
 20
832.5767472715053
 30
0.0
 11
504.2736149676141
 21
823.0767472715056
 31
0.0
  0
LINE
  5
241E
330
1D9B
100
AcDbEntity
  8
1
 62
     7
100
AcDbLine
 10
504.7736149676141
 20
834.0767472715054
 30
0.0
 11
504.7736149676141
 21
832.3267472715052
 31
0.0
  0
LINE
  5
241F
330
1D9B
100
AcDbEntity
  8
1
 62
     7
100
AcDbLine
 10
537.2061149676141
 20
836.5767472715054
 30
0.0
 11
537.2061149676141
 21
835.0767472715055
 31
0.0
  0
LINE
  5
2420
330
1D9B
100
AcDbEntity
  8
1
 62
     7
100
AcDbLine
 10
539.3736149676141
 20
836.5767472715054
 30
0.0
 11
537.2061149676141
 21
836.5767472715054
 31
0.0
  0
LINE
  5
2421
330
1D9B
100
AcDbEntity
  8
1
 62
     7
100
AcDbLine
 10
539.3736149676141
 20
831.0767472715054
 30
0.0
 11
539.3736149676141
 21
835.0767472715055
 31
0.0
  0
LINE
  5
2422
330
1D9B
100
AcDbEntity
  8
1
 62
     7
100
AcDbLine
 10
539.3736149676141
 20
831.0767472715054
 30
0.0
 11
537.2061149676141
 21
831.0767472715054
 31
0.0
  0
LINE
  5
2423
330
1D9B
100
AcDbEntity
  8
1
 62
     7
100
AcDbLine
 10
542.6736149676141
 20
835.0767472715055
 30
0.0
 11
539.3736149676141
 21
835.0767472715055
 31
0.0
  0
LINE
  5
2424
330
1D9B
100
AcDbEntity
  8
1
 62
     7
100
AcDbLine
 10
539.3736149676141
 20
835.0767472715055
 30
0.0
 11
539.3736149676141
 21
836.5767472715054
 31
0.0
  0
LINE
  5
2425
330
1D9B
100
AcDbEntity
  8
1
 62
     7
100
AcDbLine
 10
542.6736149676141
 20
749.8287472715055
 30
0.0
 11
542.6736149676141
 21
749.9307472715055
 31
0.0
  0
LINE
  5
2426
330
1D9B
100
AcDbEntity
  8
1
 62
     7
100
AcDbLine
 10
501.6736149676141
 20
737.0767472715056
 30
0.0
 11
542.6736149676141
 21
737.0767472715056
 31
0.0
  0
LINE
  5
2427
330
1D9B
100
AcDbEntity
  8
1
 62
     7
100
AcDbLine
 10
501.6736149676141
 20
737.0767472715056
 30
0.0
 11
501.6736149676141
 21
742.2767472715056
 31
0.0
  0
LINE
  5
2428
330
1D9B
100
AcDbEntity
  8
1
 62
     7
100
AcDbLine
 10
535.1736149676141
 20
797.5692472715056
 30
0.0
 11
535.1736149676141
 21
785.0667472715056
 31
0.0
  0
CIRCLE
  5
2429
330
1D9B
100
AcDbEntity
  8
1
 62
     7
100
AcDbCircle
 10
286.0581555321711
 20
865.0767472715056
 30
0.0
 40
7.0
  0
CIRCLE
  5
242A
330
1D9B
100
AcDbEntity
  8
1
 62
     7
100
AcDbCircle
 10
206.0581555321713
 20
865.0767472715054
 30
0.0
 40
11.0
  0
CIRCLE
  5
242B
330
1D9B
100
AcDbEntity
  8
1
 62
     7
100
AcDbCircle
 10
275.7818924211948
 20
916.7390106407927
 30
0.0
 40
7.000000000000031
  0
LINE
  5
242C
330
1D9B
100
AcDbEntity
  8
1
  6
DASHDOT
 62
     3
100
AcDbLine
 10
285.4826275125635
 20
920.757186680626
 30
0.0
 11
266.0811573298265
 21
912.7208346009593
 31
0.0
  0
CIRCLE
  5
242D
330
1D9B
100
AcDbEntity
  8
1
 62
     7
100
AcDbCircle
 10
246.5175709923552
 20
960.5361627316895
 30
0.0
 40
6.999999999999888
  0
CIRCLE
  5
242E
330
1D9B
100
AcDbEntity
  8
1
 62
     7
100
AcDbCircle
 10
202.7204189014581
 20
989.8004841605294
 30
0.0
 40
7.000000000000071
  0
LINE
  5
242F
330
1D9B
100
AcDbEntity
  8
1
  6
DASHDOT
 62
     3
100
AcDbLine
 10
253.9421921948138
 20
967.960783934148
 30
0.0
 11
239.0929497898963
 21
953.1115415292306
 31
0.0
  0
LINE
  5
2430
330
1D9B
100
AcDbEntity
  8
1
  6
DASHDOT
 62
     3
100
AcDbLine
 10
206.7385949412914
 20
999.5012192518979
 30
0.0
 11
198.7022428616247
 21
980.0997490691607
 31
0.0
  0
LINE
  5
2431
330
1D9B
100
AcDbEntity
  8
1
 62
     7
100
AcDbLine
 10
512.3461149676143
 20
946.2737472715057
 30
0.0
 11
512.3461149676143
 21
949.5887472715056
 31
0.0
  0
LINE
  5
2432
330
1D9B
100
AcDbEntity
  8
1
 62
     7
100
AcDbLine
 10
535.2061149676139
 20
949.5887472715056
 30
0.0
 11
535.2061149676139
 21
946.2737472715057
 31
0.0
  0
LINE
  5
2433
330
1D9B
100
AcDbEntity
  8
1
 62
     7
100
AcDbLine
 10
437.8186149676142
 20
937.9767472715057
 30
0.0
 11
437.8186149676142
 21
970.3327472715054
 31
0.0
  0
LINE
  5
2434
330
1D9B
100
AcDbEntity
  8
1
 62
     7
100
AcDbLine
 10
439.173614967614
 20
927.0767472715053
 30
0.0
 11
439.173614967614
 21
969.8777472715052
 31
0.0
  0
LINE
  5
2435
330
1D9B
100
AcDbEntity
  8
1
 62
     7
100
AcDbLine
 10
542.6736149676141
 20
976.2031454597417
 30
0.0
 11
542.6736149676141
 21
945.7894704999969
 31
0.0
  0
LINE
  5
2436
330
1D9B
100
AcDbEntity
  8
1
 62
     7
100
AcDbLine
 10
506.9061149676141
 20
957.0767472715054
 30
0.0
 11
506.9061149676141
 21
933.5767472715057
 31
0.0
  0
LINE
  5
2437
330
1D9B
100
AcDbEntity
  8
1
 62
     7
100
AcDbLine
 10
504.4061149676141
 20
957.0767472715054
 30
0.0
 11
504.4061149676141
 21
933.5767472715057
 31
0.0
  0
LINE
  5
2438
330
1D9B
100
AcDbEntity
  8
1
  6
CENTER
 62
     3
100
AcDbLine
 10
424.574977365434
 20
865.0767472715054
 30
0.0
 11
553.9493642864151
 21
865.0767472715054
 31
0.0
  0
LINE
  5
2439
330
1D9B
100
AcDbEntity
  8
1
 62
     7
100
AcDbLine
 10
494.4736149676141
 20
933.5767472715057
 30
0.0
 11
504.2736149676141
 21
933.5767472715057
 31
0.0
  0
LINE
  5
243A
330
1D9B
100
AcDbEntity
  8
1
 62
     7
100
AcDbLine
 10
494.4736149676141
 20
882.3767472715056
 30
0.0
 11
542.6736149676141
 21
882.3767472715056
 31
0.0
  0
LINE
  5
243B
330
1D9B
100
AcDbEntity
  8
1
 62
     7
100
AcDbLine
 10
494.4736149676141
 20
878.4931551365041
 30
0.0
 11
542.6736149676141
 21
878.4931551365041
 31
0.0
  0
LINE
  5
243C
330
1D9B
100
AcDbEntity
  8
1
 62
     7
100
AcDbLine
 10
494.4736149676141
 20
851.0767472715052
 30
0.0
 11
542.6736149676141
 21
851.0767472715052
 31
0.0
  0
ARC
  5
243D
330
1D9B
100
AcDbEntity
  8
1
 62
     7
100
AcDbCircle
 10
436.918614967614
 20
937.9767472715057
 30
0.0
 40
0.9000000000000126
100
AcDbArc
 50
270.0
 51
0.0
  0
LINE
  5
243E
330
1D9B
100
AcDbEntity
  8
1
 62
     7
100
AcDbLine
 10
430.173614967614
 20
913.0767472715055
 30
0.0
 11
430.173614967614
 21
927.0767472715053
 31
0.0
  0
LINE
  5
243F
330
1D9B
100
AcDbEntity
  8
1
 62
     7
100
AcDbLine
 10
439.173614967614
 20
913.0767472715055
 30
0.0
 11
439.173614967614
 21
927.0767472715053
 31
0.0
  0
LINE
  5
2440
330
1D9B
100
AcDbEntity
  8
1
 62
     7
100
AcDbLine
 10
439.173614967614
 20
913.0767472715055
 30
0.0
 11
430.173614967614
 21
913.0767472715055
 31
0.0
  0
LINE
  5
2441
330
1D9B
100
AcDbEntity
  8
1
 62
     7
100
AcDbLine
 10
430.173614967614
 20
927.0767472715053
 30
0.0
 11
430.173614967614
 21
936.5767472715054
 31
0.0
  0
LINE
  5
2442
330
1D9B
100
AcDbEntity
  8
1
 62
     7
100
AcDbLine
 10
439.173614967614
 20
927.0767472715053
 30
0.0
 11
430.173614967614
 21
927.0767472715053
 31
0.0
  0
LINE
  5
2443
330
1D9B
100
AcDbEntity
  8
1
  6
CENTER
 62
     3
100
AcDbLine
 10
440.0736149676141
 20
920.0767472715055
 30
0.0
 11
429.2736149676141
 21
920.0767472715055
 31
0.0
  0
LINE
  5
2444
330
1D9B
100
AcDbEntity
  8
1
 62
     7
100
AcDbLine
 10
430.673614967614
 20
937.0767472715053
 30
0.0
 11
436.918614967614
 21
937.0767472715053
 31
0.0
  0
LINE
  5
2445
330
1D9B
100
AcDbEntity
  8
1
 62
     7
100
AcDbLine
 10
439.173614967614
 20
901.0767472715055
 30
0.0
 11
430.173614967614
 21
901.0767472715055
 31
0.0
  0
LINE
  5
2446
330
1D9B
100
AcDbEntity
  8
1
 62
     7
100
AcDbLine
 10
439.173614967614
 20
865.0767472715054
 30
0.0
 11
439.173614967614
 21
913.0767472715055
 31
0.0
  0
LINE
  5
2447
330
1D9B
100
AcDbEntity
  8
1
 62
     7
100
AcDbLine
 10
430.173614967614
 20
865.0767472715054
 30
0.0
 11
430.173614967614
 21
913.0767472715055
 31
0.0
  0
LINE
  5
2448
330
1D9B
100
AcDbEntity
  8
1
 62
     7
100
AcDbLine
 10
430.173614967614
 20
936.5767472715054
 30
0.0
 11
430.673614967614
 21
937.0767472715053
 31
0.0
  0
LINE
  5
2449
330
1D9B
100
AcDbEntity
  8
1
 62
     7
100
AcDbLine
 10
494.4736149676141
 20
865.0767472715054
 30
0.0
 11
494.4736149676141
 21
878.4931551365041
 31
0.0
  0
LINE
  5
244A
330
1D9B
100
AcDbEntity
  8
1
 62
     7
100
AcDbLine
 10
494.4736149676141
 20
882.3767472715056
 30
0.0
 11
494.4736149676141
 21
933.5767472715057
 31
0.0
  0
LINE
  5
244B
330
1D9B
100
AcDbEntity
  8
1
 62
     7
100
AcDbLine
 10
494.4736149676141
 20
878.4931551365041
 30
0.0
 11
494.4736149676141
 21
882.3767472715056
 31
0.0
  0
LINE
  5
244C
330
1D9B
100
AcDbEntity
  8
1
 62
     7
100
AcDbLine
 10
494.4736149676141
 20
851.0767472715052
 30
0.0
 11
494.4736149676141
 21
865.0767472715054
 31
0.0
  0
ARC
  5
244D
330
1D9B
100
AcDbEntity
  8
1
 62
     7
100
AcDbCircle
 10
506.7736149676141
 20
897.5767472715055
 30
0.0
 40
2.5
100
AcDbArc
 50
180.0
 51
270.0
  0
LINE
  5
244E
330
1D9B
100
AcDbEntity
  8
1
 62
     7
100
AcDbLine
 10
513.5461149676141
 20
945.0737472715056
 30
0.0
 11
523.7761149676141
 21
945.0737472715056
 31
0.0
  0
LINE
  5
244F
330
1D9B
100
AcDbEntity
  8
1
 62
     7
100
AcDbLine
 10
512.3461149676143
 20
946.2737472715057
 30
0.0
 11
513.5461149676141
 21
945.0737472715056
 31
0.0
  0
LINE
  5
2450
330
1D9B
100
AcDbEntity
  8
1
 62
     7
100
AcDbLine
 10
534.0061149676142
 20
945.0737472715056
 30
0.0
 11
535.2061149676139
 21
946.2737472715057
 31
0.0
  0
LINE
  5
2451
330
1D9B
100
AcDbEntity
  8
1
 62
     7
100
AcDbLine
 10
523.7761149676141
 20
945.0737472715056
 30
0.0
 11
534.0061149676142
 21
945.0737472715056
 31
0.0
  0
LINE
  5
2452
330
1D9B
100
AcDbEntity
  8
1
 62
     7
100
AcDbLine
 10
511.7736149676141
 20
933.5767472715057
 30
0.0
 11
511.7736149676141
 21
906.8267472715055
 31
0.0
  0
LINE
  5
2453
330
1D9B
100
AcDbEntity
  8
1
 62
     7
100
AcDbLine
 10
513.5461149676139
 20
945.0867472715053
 30
0.0
 11
512.3461149676139
 21
945.0867472715053
 31
0.0
  0
LINE
  5
2454
330
1D9B
100
AcDbEntity
  8
1
 62
     7
100
AcDbLine
 10
534.006114967614
 20
945.0867472715053
 30
0.0
 11
535.1736149676141
 21
945.0867472715053
 31
0.0
  0
LINE
  5
2455
330
1D9B
100
AcDbEntity
  8
1
 62
     7
100
AcDbLine
 10
512.3461149676139
 20
946.2867472715057
 30
0.0
 11
512.3461149676139
 21
945.0867472715053
 31
0.0
  0
LINE
  5
2456
330
1D9B
100
AcDbEntity
  8
1
 62
     7
100
AcDbLine
 10
512.3461149676139
 20
945.0867472715053
 30
0.0
 11
511.7736149676141
 21
945.0867472715053
 31
0.0
  0
LINE
  5
2457
330
1D9B
100
AcDbEntity
  8
1
 62
     7
100
AcDbLine
 10
535.1736149676141
 20
946.2867472715057
 30
0.0
 11
535.1736149676141
 21
945.0867472715053
 31
0.0
  0
LINE
  5
2458
330
1D9B
100
AcDbEntity
  8
1
 62
     7
100
AcDbLine
 10
511.7736149676141
 20
896.0767472715057
 30
0.0
 11
535.1736149676141
 21
896.0767472715057
 31
0.0
  0
LINE
  5
2459
330
1D9B
100
AcDbEntity
  8
1
 62
     7
100
AcDbLine
 10
535.1736149676141
 20
945.0867472715053
 30
0.0
 11
535.1736149676141
 21
900.0767472715056
 31
0.0
  0
LINE
  5
245A
330
1D9B
100
AcDbEntity
  8
1
 62
     7
100
AcDbLine
 10
521.506114967614
 20
945.0867472715053
 30
0.0
 11
521.506114967614
 21
906.8267472715055
 31
0.0
  0
LINE
  5
245B
330
1D9B
100
AcDbEntity
  8
1
 62
     7
100
AcDbLine
 10
521.506114967614
 20
906.8267472715055
 30
0.0
 11
511.7736149676141
 21
906.8267472715055
 31
0.0
  0
LINE
  5
245C
330
1D9B
100
AcDbEntity
  8
1
 62
     7
100
AcDbLine
 10
521.506114967614
 20
906.8267472715055
 30
0.0
 11
521.506114967614
 21
895.0767472715055
 31
0.0
  0
LINE
  5
245D
330
1D9B
100
AcDbEntity
  8
1
 62
     7
100
AcDbLine
 10
511.7736149676141
 20
933.5767472715057
 30
0.0
 11
521.306114967614
 21
933.5767472715057
 31
0.0
  0
LINE
  5
245E
330
1D9B
100
AcDbEntity
  8
1
 62
     7
100
AcDbLine
 10
511.7736149676141
 20
907.0767472715054
 30
0.0
 11
521.306114967614
 21
907.0767472715054
 31
0.0
  0
LINE
  5
245F
330
1D9B
100
AcDbEntity
  8
1
 62
     7
100
AcDbLine
 10
521.306114967614
 20
933.5767472715057
 30
0.0
 11
521.306114967614
 21
907.0767472715054
 31
0.0
  0
LINE
  5
2460
330
1D9B
100
AcDbEntity
  8
1
 62
     7
100
AcDbLine
 10
511.7736149676141
 20
906.8267472715055
 30
0.0
 11
511.7736149676141
 21
895.0767472715055
 31
0.0
  0
LINE
  5
2461
330
1D9B
100
AcDbEntity
  8
1
 62
     7
100
AcDbLine
 10
511.306114967614
 20
907.0767472715054
 30
0.0
 11
511.306114967614
 21
895.3267472715056
 31
0.0
  0
LINE
  5
2462
330
1D9B
100
AcDbEntity
  8
1
 62
     7
100
AcDbLine
 10
511.306114967614
 20
907.0767472715054
 30
0.0
 11
511.7736149676141
 21
907.0767472715054
 31
0.0
  0
LINE
  5
2463
330
1D9B
100
AcDbEntity
  8
1
 62
     7
100
AcDbLine
 10
511.306114967614
 20
895.3267472715056
 30
0.0
 11
507.2736149676141
 21
895.3267472715056
 31
0.0
  0
LINE
  5
2464
330
1D9B
100
AcDbEntity
  8
1
 62
     7
100
AcDbLine
 10
511.306114967614
 20
895.3267472715056
 30
0.0
 11
511.306114967614
 21
895.0767472715055
 31
0.0
  0
LINE
  5
2465
330
1D9B
100
AcDbEntity
  8
1
 62
     7
100
AcDbLine
 10
504.7736149676141
 20
897.8267472715057
 30
0.0
 11
504.7736149676141
 21
902.0767472715055
 31
0.0
  0
LINE
  5
2466
330
1D9B
100
AcDbEntity
  8
1
 62
     7
100
AcDbLine
 10
504.7736149676141
 20
902.0767472715055
 30
0.0
 11
504.2736149676141
 21
902.0767472715055
 31
0.0
  0
LINE
  5
2467
330
1D9B
100
AcDbEntity
  8
1
 62
     7
100
AcDbLine
 10
504.7736149676141
 20
897.8267472715057
 30
0.0
 11
507.2190070299905
 21
895.3813552091293
 31
0.0
  0
LINE
  5
2468
330
1D9B
100
AcDbEntity
  8
1
 62
     7
100
AcDbLine
 10
504.7736149676141
 20
897.8267472715057
 30
0.0
 11
504.7736149676141
 21
896.0767472715057
 31
0.0
  0
LINE
  5
2469
330
1D9B
100
AcDbEntity
  8
1
 62
     7
100
AcDbLine
 10
507.2190070299905
 20
895.3813552091293
 30
0.0
 11
507.2190070299905
 21
895.0767472715055
 31
0.0
  0
LINE
  5
246A
330
1D9B
100
AcDbEntity
  8
1
 62
     7
100
AcDbLine
 10
507.2190070299905
 20
895.3813552091293
 30
0.0
 11
507.2736149676141
 21
895.3267472715056
 31
0.0
  0
LINE
  5
246B
330
1D9B
100
AcDbEntity
  8
1
 62
     7
100
AcDbLine
 10
506.9061149676141
 20
933.5767472715057
 30
0.0
 11
511.7736149676141
 21
933.5767472715057
 31
0.0
  0
LINE
  5
246C
330
1D9B
100
AcDbEntity
  8
1
 62
     7
100
AcDbLine
 10
511.7736149676141
 20
945.0867472715053
 30
0.0
 11
511.7736149676141
 21
933.5767472715057
 31
0.0
  0
LINE
  5
246D
330
1D9B
100
AcDbEntity
  8
1
 62
     7
100
AcDbLine
 10
504.4061149676141
 20
933.5767472715057
 30
0.0
 11
504.2736149676141
 21
933.5767472715057
 31
0.0
  0
LINE
  5
246E
330
1D9B
100
AcDbEntity
  8
1
 62
     7
100
AcDbLine
 10
504.2736149676141
 20
933.5767472715057
 30
0.0
 11
504.2736149676141
 21
897.5767472715055
 31
0.0
  0
LINE
  5
246F
330
1D9B
100
AcDbEntity
  8
1
 62
     7
100
AcDbLine
 10
537.2061149676141
 20
900.0767472715056
 30
0.0
 11
535.1736149676141
 21
900.0767472715056
 31
0.0
  0
LINE
  5
2470
330
1D9B
100
AcDbEntity
  8
1
 62
     7
100
AcDbLine
 10
535.1736149676141
 20
900.0767472715056
 30
0.0
 11
535.1736149676141
 21
895.2267472715051
 31
0.0
  0
LINE
  5
2471
330
1D9B
100
AcDbEntity
  8
1
 62
     7
100
AcDbLine
 10
537.2061149676141
 20
900.0767472715056
 30
0.0
 11
537.2061149676141
 21
899.0767472715056
 31
0.0
  0
LINE
  5
2472
330
1D9B
100
AcDbEntity
  8
1
 62
     7
100
AcDbLine
 10
537.2061149676141
 20
895.2267472715051
 30
0.0
 11
535.1736149676141
 21
895.2267472715051
 31
0.0
  0
LINE
  5
2473
330
1D9B
100
AcDbEntity
  8
1
 62
     7
100
AcDbLine
 10
537.2061149676141
 20
895.2267472715051
 30
0.0
 11
537.2061149676141
 21
895.0767472715055
 31
0.0
  0
LINE
  5
2474
330
1D9B
100
AcDbEntity
  8
1
 62
     7
100
AcDbLine
 10
535.1736149676141
 20
895.2267472715051
 30
0.0
 11
535.1736149676141
 21
895.0767472715055
 31
0.0
  0
LINE
  5
2475
330
1D9B
100
AcDbEntity
  8
1
 62
     7
100
AcDbLine
 10
537.2061149676141
 20
899.0767472715056
 30
0.0
 11
539.3736149676141
 21
899.0767472715056
 31
0.0
  0
LINE
  5
2476
330
1D9B
100
AcDbEntity
  8
1
 62
     7
100
AcDbLine
 10
537.2061149676141
 20
899.0767472715056
 30
0.0
 11
537.2061149676141
 21
895.2267472715051
 31
0.0
  0
LINE
  5
2477
330
1D9B
100
AcDbEntity
  8
1
 62
     7
100
AcDbLine
 10
537.2061149676141
 20
895.0767472715055
 30
0.0
 11
537.2061149676141
 21
893.5767472715056
 31
0.0
  0
LINE
  5
2478
330
1D9B
100
AcDbEntity
  8
1
 62
     7
100
AcDbLine
 10
539.3736149676141
 20
893.5767472715056
 30
0.0
 11
539.3736149676141
 21
895.0767472715055
 31
0.0
  0
LINE
  5
2479
330
1D9B
100
AcDbEntity
  8
1
 62
     7
100
AcDbLine
 10
537.2061149676141
 20
893.5767472715056
 30
0.0
 11
539.3736149676141
 21
893.5767472715056
 31
0.0
  0
LINE
  5
247A
330
1D9B
100
AcDbEntity
  8
1
 62
     7
100
AcDbLine
 10
506.7736149676141
 20
895.0767472715055
 30
0.0
 11
537.2061149676141
 21
895.0767472715055
 31
0.0
  0
LINE
  5
247B
330
1D9B
100
AcDbEntity
  8
1
 62
     7
100
AcDbLine
 10
542.6736149676141
 20
895.0767472715055
 30
0.0
 11
539.3736149676141
 21
895.0767472715055
 31
0.0
  0
LINE
  5
247C
330
1D9B
100
AcDbEntity
  8
1
 62
     7
100
AcDbLine
 10
539.3736149676141
 20
895.0767472715055
 30
0.0
 11
539.3736149676141
 21
899.0767472715056
 31
0.0
  0
LINE
  5
247D
330
1D9B
100
AcDbEntity
  8
1
 62
     7
100
AcDbLine
 10
542.6736149676141
 20
895.0767472715055
 30
0.0
 11
542.6736149676141
 21
882.3767472715056
 31
0.0
  0
LINE
  5
247E
330
1D9B
100
AcDbEntity
  8
1
 62
     7
100
AcDbLine
 10
542.6736149676141
 20
882.3767472715056
 30
0.0
 11
542.6736149676141
 21
878.4931551365041
 31
0.0
  0
LINE
  5
247F
330
1D9B
100
AcDbEntity
  8
1
 62
     7
100
AcDbLine
 10
542.6736149676141
 20
878.4931551365041
 30
0.0
 11
542.6736149676141
 21
851.0767472715052
 31
0.0
  0
ARC
  5
2480
330
1D9B
100
AcDbEntity
  8
1
 62
     7
100
AcDbCircle
 10
478.269614967614
 20
1066.857747271505
 30
0.0
 40
90.0
100
AcDbArc
 50
270.0
 51
285.4389296381725
  0
LINE
  5
2481
330
1D9B
100
AcDbEntity
  8
1
 62
     7
100
AcDbLine
 10
540.1736149676142
 20
975.5027472715052
 30
0.0
 11
444.7986149676141
 21
975.5027472715052
 31
0.0
  0
LINE
  5
2482
330
1D9B
100
AcDbEntity
  8
1
 62
     7
100
AcDbLine
 10
501.3736149676141
 20
987.5767472715052
 30
0.0
 11
496.4736149676141
 21
987.5767472715052
 31
0.0
  0
LINE
  5
2483
330
1D9B
100
AcDbEntity
  8
1
 62
     7
100
AcDbLine
 10
495.6736149676141
 20
980.3247472715053
 30
0.0
 11
542.6736149676141
 21
980.3247472715053
 31
0.0
  0
LINE
  5
2484
330
1D9B
100
AcDbEntity
  8
1
 62
     7
100
AcDbLine
 10
495.6736149676141
 20
980.2227472715056
 30
0.0
 11
497.6736149676141
 21
978.2227472715053
 31
0.0
  0
ARC
  5
2485
330
1D9B
100
AcDbEntity
  8
1
 62
     7
100
AcDbCircle
 10
444.3436149676143
 20
970.3327472715054
 30
0.0
 40
6.525000000000008
100
AcDbArc
 50
90.0
 51
180.0
  0
ARC
  5
2486
330
1D9B
100
AcDbEntity
  8
1
 62
     7
100
AcDbCircle
 10
444.7986149676141
 20
969.8777472715052
 30
0.0
 40
5.625
100
AcDbArc
 50
90.0
 51
180.0
  0
LINE
  5
2487
330
1D9B
100
AcDbEntity
  8
1
 62
     7
100
AcDbLine
 10
444.3436149676143
 20
976.8577472715055
 30
0.0
 11
478.269614967614
 21
976.8577472715055
 31
0.0
  0
LINE
  5
2488
330
1D9B
100
AcDbEntity
  8
1
 62
     7
100
AcDbLine
 10
495.6736149676141
 20
986.7767472715055
 30
0.0
 11
495.6736149676141
 21
980.3247472715053
 31
0.0
  0
LINE
  5
2489
330
1D9B
100
AcDbEntity
  8
1
 62
     7
100
AcDbLine
 10
496.4736149676141
 20
987.5767472715052
 30
0.0
 11
495.6736149676141
 21
986.7767472715055
 31
0.0
  0
LINE
  5
248A
330
1D9B
100
AcDbEntity
  8
1
 62
     7
100
AcDbLine
 10
495.6736149676141
 20
980.3247472715053
 30
0.0
 11
495.6736149676141
 21
980.2227472715056
 31
0.0
  0
LINE
  5
248B
330
1D9B
100
AcDbEntity
  8
1
  6
DIVIDE
 62
     7
100
AcDbLine
 10
433.1736149676141
 20
984.5767472715053
 30
0.0
 11
454.3456512942554
 21
984.5767472715053
 31
0.0
  0
LINE
  5
248C
330
1D9B
100
AcDbEntity
  8
1
  6
DIVIDE
 62
     7
100
AcDbLine
 10
433.1736149676141
 20
965.941078622564
 30
0.0
 11
433.1736149676141
 21
984.5767472715053
 31
0.0
  0
ARC
  5
248D
330
1D9B
100
AcDbEntity
  8
1
 62
     7
100
AcDbCircle
 10
509.690489967614
 20
966.7787472715057
 30
0.0
 40
0.8999999999999984
100
AcDbArc
 50
90.0
 51
180.0
  0
ARC
  5
248E
330
1D9B
100
AcDbEntity
  8
1
 62
     7
100
AcDbCircle
 10
508.9077549153396
 20
953.5437472715054
 30
0.0
 40
0.8999999999999133
100
AcDbArc
 50
173.0000000000005
 51
270.0
  0
ARC
  5
248F
330
1D9B
100
AcDbEntity
  8
1
 62
     7
100
AcDbCircle
 10
542.0736149676143
 20
976.8782191340816
 30
0.0
 40
0.5999999999999091
100
AcDbArc
 50
0.0
 51
44.99999999999908
  0
ARC
  5
2490
330
1D9B
100
AcDbEntity
  8
1
 62
     7
100
AcDbCircle
 10
542.0736149676143
 20
976.2031454597417
 30
0.0
 40
0.6000000000000582
100
AcDbArc
 50
272.9999999999793
 51
0.0
  0
ARC
  5
2491
330
1D9B
100
AcDbEntity
  8
1
 62
     7
100
AcDbCircle
 10
501.3736149676141
 20
987.8767472715052
 30
0.0
 40
0.2999999999999972
100
AcDbArc
 50
270.0
 51
0.0
  0
ARC
  5
2492
330
1D9B
100
AcDbEntity
  8
1
 62
     7
100
AcDbCircle
 10
523.7761149676141
 20
960.3087472715053
 30
0.0
 40
10.71562499999999
100
AcDbArc
 50
90.0
 51
115.3476220319612
  0
ARC
  5
2493
330
1D9B
100
AcDbEntity
  8
1
 62
     7
100
AcDbCircle
 10
523.7761149676141
 20
960.3087472715053
 30
0.0
 40
10.71562500000001
100
AcDbArc
 50
115.3476220319612
 51
242.6756560591205
  0
ARC
  5
2494
330
1D9B
100
AcDbEntity
  8
1
 62
     7
100
AcDbCircle
 10
523.7761149676141
 20
960.3087472715053
 30
0.0
 40
10.71562499999999
100
AcDbArc
 50
242.6756560591205
 51
270.0
  0
ARC
  5
2495
330
1D9B
100
AcDbEntity
  8
1
 62
     7
100
AcDbCircle
 10
523.7761149676141
 20
960.3087472715053
 30
0.0
 40
10.71562500000001
100
AcDbArc
 50
270.0
 51
297.3243439408794
  0
ARC
  5
2496
330
1D9B
100
AcDbEntity
  8
1
 62
     7
100
AcDbCircle
 10
523.7761149676141
 20
960.3087472715053
 30
0.0
 40
10.71562499999997
100
AcDbArc
 50
297.3243439408794
 51
64.65237796803878
  0
ARC
  5
2497
330
1D9B
100
AcDbEntity
  8
1
 62
     7
100
AcDbCircle
 10
523.7761149676141
 20
960.3087472715053
 30
0.0
 40
10.71562499999995
100
AcDbArc
 50
64.65237796803878
 51
90.0
  0
LINE
  5
2498
330
1D9B
100
AcDbEntity
  8
1
 62
     7
100
AcDbLine
 10
512.7604899676141
 20
967.6787472715055
 30
0.0
 11
515.9198856132179
 21
967.5960155849237
 31
0.0
  0
LINE
  5
2499
330
1D9B
100
AcDbEntity
  8
1
 62
     7
100
AcDbLine
 10
509.690489967614
 20
967.6787472715055
 30
0.0
 11
512.7604899676141
 21
967.6787472715055
 31
0.0
  0
LINE
  5
249A
330
1D9B
100
AcDbEntity
  8
1
 62
     7
100
AcDbLine
 10
508.790489967614
 20
966.7787472715057
 30
0.0
 11
508.790489967614
 21
959.9736590566829
 31
0.0
  0
LINE
  5
249B
330
1D9B
100
AcDbEntity
  8
1
 62
     7
100
AcDbLine
 10
508.0144633788624
 20
953.6534296805701
 30
0.0
 11
508.790489967614
 21
959.9736590566829
 31
0.0
  0
LINE
  5
249C
330
1D9B
100
AcDbEntity
  8
1
 62
     7
100
AcDbLine
 10
508.9077549153396
 20
952.6437472715056
 30
0.0
 11
512.7604899676141
 21
952.6437472715056
 31
0.0
  0
LINE
  5
249D
330
1D9B
100
AcDbEntity
  8
1
 62
     7
100
AcDbLine
 10
512.7604899676141
 20
952.6437472715056
 30
0.0
 11
512.7604899676141
 21
967.6787472715055
 31
0.0
  0
LINE
  5
249E
330
1D9B
100
AcDbEntity
  8
1
 62
     7
100
AcDbLine
 10
516.2879647193469
 20
952.6437472715056
 30
0.0
 11
512.7604899676141
 21
952.6437472715056
 31
0.0
  0
LINE
  5
249F
330
1D9B
100
AcDbEntity
  8
1
 62
     7
100
AcDbLine
 10
508.7886149676141
 20
975.5027472715052
 30
0.0
 11
523.7761149676141
 21
975.5027472715052
 31
0.0
  0
LINE
  5
24A0
330
1D9B
100
AcDbEntity
  8
1
 62
     7
100
AcDbLine
 10
507.4886149676142
 20
974.7521919215589
 30
0.0
 11
507.4886149676142
 21
970.4927472715056
 31
0.0
  0
LINE
  5
24A1
330
1D9B
100
AcDbEntity
  8
1
 62
     7
100
AcDbLine
 10
507.9886149676142
 20
969.9927472715051
 30
0.0
 11
519.1886578135227
 21
969.9927472715051
 31
0.0
  0
LINE
  5
24A2
330
1D9B
100
AcDbEntity
  8
1
 62
     7
100
AcDbLine
 10
513.5461149676141
 20
950.7887472715053
 30
0.0
 11
518.8573530155956
 21
950.7887472715053
 31
0.0
  0
LINE
  5
24A3
330
1D9B
100
AcDbEntity
  8
1
 62
     7
100
AcDbLine
 10
513.5461149676141
 20
950.7887472715053
 30
0.0
 11
512.3461149676143
 21
949.5887472715056
 31
0.0
  0
LINE
  5
24A4
330
1D9B
100
AcDbEntity
  8
1
 62
     7
100
AcDbLine
 10
507.4886149676142
 20
970.4927472715056
 30
0.0
 11
507.9886149676142
 21
969.9927472715051
 31
0.0
  0
LINE
  5
24A5
330
1D9B
100
AcDbEntity
  8
1
 62
     7
100
AcDbLine
 10
507.4886149676142
 20
974.7521919215589
 30
0.0
 11
508.7886149676141
 21
975.5027472715052
 31
0.0
  0
LINE
  5
24A6
330
1D9B
100
AcDbEntity
  8
1
 62
     7
100
AcDbLine
 10
507.4886149676142
 20
954.0206726909969
 30
0.0
 11
507.4886149676142
 21
970.4927472715056
 31
0.0
  0
LINE
  5
24A7
330
1D9B
100
AcDbEntity
  8
1
 62
     7
100
AcDbLine
 10
540.063614967614
 20
970.4927472715056
 30
0.0
 11
540.063614967614
 21
954.0206726909969
 31
0.0
  0
LINE
  5
24A8
330
1D9B
100
AcDbEntity
  8
1
 62
     7
100
AcDbLine
 10
538.7636149676141
 20
975.5027472715052
 30
0.0
 11
540.063614967614
 21
974.7521919215589
 31
0.0
  0
LINE
  5
24A9
330
1D9B
100
AcDbEntity
  8
1
 62
     7
100
AcDbLine
 10
539.563614967614
 20
969.9927472715051
 30
0.0
 11
540.063614967614
 21
970.4927472715056
 31
0.0
  0
LINE
  5
24AA
330
1D9B
100
AcDbEntity
  8
1
 62
     7
100
AcDbLine
 10
535.2061149676139
 20
949.5887472715056
 30
0.0
 11
534.0061149676142
 21
950.7887472715053
 31
0.0
  0
LINE
  5
24AB
330
1D9B
100
AcDbEntity
  8
1
 62
     7
100
AcDbLine
 10
528.6948769196325
 20
950.7887472715053
 30
0.0
 11
534.0061149676142
 21
950.7887472715053
 31
0.0
  0
LINE
  5
24AC
330
1D9B
100
AcDbEntity
  8
1
 62
     7
100
AcDbLine
 10
528.3635721217056
 20
969.9927472715051
 30
0.0
 11
539.563614967614
 21
969.9927472715051
 31
0.0
  0
LINE
  5
24AD
330
1D9B
100
AcDbEntity
  8
1
 62
     7
100
AcDbLine
 10
540.063614967614
 20
970.4927472715056
 30
0.0
 11
540.063614967614
 21
974.7521919215589
 31
0.0
  0
LINE
  5
24AE
330
1D9B
100
AcDbEntity
  8
1
 62
     7
100
AcDbLine
 10
523.7761149676141
 20
975.5027472715052
 30
0.0
 11
538.7636149676141
 21
975.5027472715052
 31
0.0
  0
LINE
  5
24AF
330
1D9B
100
AcDbEntity
  8
1
 62
     7
100
AcDbLine
 10
519.0962646984245
 20
1006.076747271505
 30
0.0
 11
519.6736149676142
 21
1007.076747271505
 31
0.0
  0
LINE
  5
24B0
330
1D9B
100
AcDbEntity
  8
1
 62
     7
100
AcDbLine
 10
501.6736149676141
 20
1006.076747271505
 30
0.0
 11
501.6736149676141
 21
1004.876747271505
 31
0.0
  0
LINE
  5
24B1
330
1D9B
100
AcDbEntity
  8
1
 62
     3
100
AcDbLine
 10
501.6736149676141
 20
1006.076747271505
 30
0.0
 11
519.0962646984245
 21
1006.076747271505
 31
0.0
  0
LINE
  5
24B2
330
1D9B
100
AcDbEntity
  8
1
 62
     7
100
AcDbLine
 10
519.0962646984245
 20
994.0767472715055
 30
0.0
 11
518.4034443753969
 21
995.2767472715056
 31
0.0
  0
LINE
  5
24B3
330
1D9B
100
AcDbEntity
  8
1
 62
     7
100
AcDbLine
 10
501.6736149676141
 20
994.0767472715055
 30
0.0
 11
501.6736149676141
 21
987.8767472715052
 31
0.0
  0
LINE
  5
24B4
330
1D9B
100
AcDbEntity
  8
1
 62
     3
100
AcDbLine
 10
501.6736149676141
 20
994.0767472715055
 30
0.0
 11
519.0962646984245
 21
994.0767472715055
 31
0.0
  0
LINE
  5
24B5
330
1D9B
100
AcDbEntity
  8
1
 62
     7
100
AcDbLine
 10
501.6736149676141
 20
1004.876747271505
 30
0.0
 11
501.6736149676141
 21
995.2767472715056
 31
0.0
  0
LINE
  5
24B6
330
1D9B
100
AcDbEntity
  8
1
 62
     7
100
AcDbLine
 10
501.6736149676141
 20
1004.876747271505
 30
0.0
 11
518.4034443753969
 21
1004.876747271505
 31
0.0
  0
LINE
  5
24B7
330
1D9B
100
AcDbEntity
  8
1
 62
     7
100
AcDbLine
 10
501.6736149676141
 20
995.2767472715056
 30
0.0
 11
501.6736149676141
 21
994.0767472715055
 31
0.0
  0
LINE
  5
24B8
330
1D9B
100
AcDbEntity
  8
1
 62
     7
100
AcDbLine
 10
501.6736149676141
 20
995.2767472715056
 30
0.0
 11
518.4034443753969
 21
995.2767472715056
 31
0.0
  0
LINE
  5
24B9
330
1D9B
100
AcDbEntity
  8
1
 62
     7
100
AcDbLine
 10
518.4034443753969
 20
1004.876747271505
 30
0.0
 11
519.0962646984245
 21
1006.076747271505
 31
0.0
  0
LINE
  5
24BA
330
1D9B
100
AcDbEntity
  8
1
 62
     7
100
AcDbLine
 10
518.4034443753969
 20
995.2767472715056
 30
0.0
 11
518.4034443753969
 21
1004.876747271505
 31
0.0
  0
LINE
  5
24BB
330
1D9B
100
AcDbEntity
  8
1
 62
     7
100
AcDbLine
 10
519.6736149676142
 20
993.0767472715054
 30
0.0
 11
519.0962646984245
 21
994.0767472715055
 31
0.0
  0
LINE
  5
24BC
330
1D9B
100
AcDbEntity
  8
1
 62
     7
100
AcDbLine
 10
542.6736149676141
 20
993.0767472715054
 30
0.0
 11
542.6736149676141
 21
1007.076747271505
 31
0.0
  0
LINE
  5
24BD
330
1D9B
100
AcDbEntity
  8
1
 62
     7
100
AcDbLine
 10
519.6736149676142
 20
993.0767472715054
 30
0.0
 11
542.6736149676141
 21
993.0767472715054
 31
0.0
  0
LINE
  5
24BE
330
1D9B
100
AcDbEntity
  8
1
 62
     7
100
AcDbLine
 10
519.6736149676142
 20
1007.076747271505
 30
0.0
 11
519.6736149676142
 21
993.0767472715054
 31
0.0
  0
LINE
  5
24BF
330
1D9B
100
AcDbEntity
  8
1
 62
     7
100
AcDbLine
 10
542.6736149676141
 20
1007.076747271505
 30
0.0
 11
542.6736149676141
 21
1014.676747271505
 31
0.0
  0
LINE
  5
24C0
330
1D9B
100
AcDbEntity
  8
1
 62
     7
100
AcDbLine
 10
542.6736149676141
 20
1007.076747271505
 30
0.0
 11
519.6736149676142
 21
1007.076747271505
 31
0.0
  0
LINE
  5
24C1
330
1D9B
100
AcDbEntity
  8
1
  6
CENTER
 62
     3
100
AcDbLine
 10
497.5736149676142
 20
1000.076747271505
 30
0.0
 11
497.4095248051735
 21
1000.076747271505
 31
0.0
  0
LINE
  5
24C2
330
1D9B
100
AcDbEntity
  8
1
  6
CENTER
 62
     3
100
AcDbLine
 10
546.7736149676142
 20
1000.076747271505
 30
0.0
 11
497.5736149676142
 21
1000.076747271505
 31
0.0
  0
LINE
  5
24C3
330
1D9B
100
AcDbEntity
  8
1
 62
     7
100
AcDbLine
 10
520.1736149676142
 20
980.3247472715053
 30
0.0
 11
530.9736149676141
 21
980.3247472715053
 31
0.0
  0
LINE
  5
24C4
330
1D9B
100
AcDbEntity
  8
1
 62
     7
100
AcDbLine
 10
530.9736149676141
 20
980.3247472715053
 30
0.0
 11
539.5731781022425
 21
980.2271841368773
 31
0.0
  0
LINE
  5
24C5
330
1D9B
100
AcDbEntity
  8
1
 62
     7
100
AcDbLine
 10
520.1736149676142
 20
980.3247472715053
 30
0.0
 11
502.228614967614
 21
980.1054198156959
 31
0.0
  0
LINE
  5
24C6
330
1D9B
100
AcDbEntity
  8
1
 62
     7
100
AcDbLine
 10
539.5731781022425
 20
980.2271841368773
 30
0.0
 11
542.4978790363261
 21
977.3024832027935
 31
0.0
  0
LINE
  5
24C7
330
1D9B
100
AcDbEntity
  8
1
 62
     7
100
AcDbLine
 10
542.6736149676141
 20
976.8782191340816
 30
0.0
 11
542.6736149676141
 21
976.2031454597417
 31
0.0
  0
LINE
  5
24C8
330
1D9B
100
AcDbEntity
  8
1
 62
     7
100
AcDbLine
 10
540.1736149676142
 20
975.5027472715052
 30
0.0
 11
542.1050165413598
 21
975.6039677388892
 31
0.0
  0
LINE
  5
24C9
330
1D9B
100
AcDbEntity
  8
1
 62
     7
100
AcDbLine
 10
497.6736149676141
 20
978.2227472715053
 30
0.0
 11
540.6736149676142
 21
978.2227472715057
 31
0.0
  0
LINE
  5
24CA
330
1D9B
100
AcDbEntity
  8
1
 62
     7
100
AcDbLine
 10
501.6736149676141
 20
1014.676747271505
 30
0.0
 11
501.6736149676141
 21
1006.076747271505
 31
0.0
  0
LINE
  5
24CB
330
1D9B
100
AcDbEntity
  8
1
 62
     7
100
AcDbLine
 10
542.2736149676142
 20
1015.076747271505
 30
0.0
 11
502.0736149676142
 21
1015.076747271505
 31
0.0
  0
LINE
  5
24CC
330
1D9B
100
AcDbEntity
  8
1
 62
     7
100
AcDbLine
 10
542.6736149676141
 20
980.2227472715056
 30
0.0
 11
542.6736149676141
 21
980.3247472715053
 31
0.0
  0
LINE
  5
24CD
330
1D9B
100
AcDbEntity
  8
1
 62
     7
100
AcDbLine
 10
542.6736149676141
 20
980.2227472715056
 30
0.0
 11
540.6736149676142
 21
978.2227472715057
 31
0.0
  0
LINE
  5
24CE
330
1D9B
100
AcDbEntity
  8
1
 62
     7
100
AcDbLine
 10
502.0736149676142
 20
1015.076747271505
 30
0.0
 11
501.6736149676141
 21
1014.676747271505
 31
0.0
  0
LINE
  5
24CF
330
1D9B
100
AcDbEntity
  8
1
 62
     7
100
AcDbLine
 10
542.2736149676142
 20
1015.076747271505
 30
0.0
 11
542.6736149676141
 21
1014.676747271505
 31
0.0
  0
LINE
  5
24D0
330
1D9B
100
AcDbEntity
  8
1
  6
CENTER
 62
     3
100
AcDbLine
 10
546.3752568738205
 20
1000.076747271505
 30
0.0
 11
497.5736149676142
 21
1000.076747271505
 31
0.0
  0
LINE
  5
24D1
330
1D9B
100
AcDbEntity
  8
1
 62
     7
100
AcDbLine
 10
506.9061149676141
 20
957.0767472715054
 30
0.0
 11
504.4061149676141
 21
957.0767472715054
 31
0.0
  0
LINE
  5
24D2
330
1D9B
100
AcDbEntity
  8
1
 62
     7
100
AcDbLine
 10
542.6736149676141
 20
980.3247472715053
 30
0.0
 11
542.6736149676141
 21
993.0767472715054
 31
0.0
  0
LINE
  5
24D3
330
1D9B
100
AcDbEntity
  8
1
  6
DIVIDE
 62
     7
100
AcDbLine
 10
545.6736149676141
 20
961.6839726135443
 30
0.0
 11
545.6736149676141
 21
984.5767472715053
 31
0.0
  0
LINE
  5
24D4
330
1D9B
100
AcDbEntity
  8
1
  6
DIVIDE
 62
     7
100
AcDbLine
 10
545.6736149676141
 20
984.5767472715053
 30
0.0
 11
542.6736149676141
 21
984.5767472715053
 31
0.0
  0
LINE
  5
24D5
330
1D9B
100
AcDbEntity
  8
1
  6
DIVIDE
 62
     7
100
AcDbLine
 10
545.6736149676141
 20
961.6839726135443
 30
0.0
 11
545.6736149676141
 21
984.5767472715053
 31
0.0
  0
CIRCLE
  5
24D6
330
1D9B
100
AcDbEntity
  8
1
 62
     7
100
AcDbCircle
 10
822.6736149676138
 20
865.0767472715054
 30
0.0
 40
30.00000000000001
  0
ARC
  5
24D7
330
1D9B
100
AcDbEntity
  8
0
 62
     7
100
AcDbCircle
 10
823.2011388225874
 20
866.2661455069887
 30
0.0
 40
32.81484221457191
100
AcDbArc
 50
290.1907523264135
 51
90.92111344843722
  0
ARC
  5
24D8
330
1D9B
100
AcDbEntity
  8
0
 62
     7
100
AcDbCircle
 10
822.1460911126404
 20
866.2661455069887
 30
0.0
 40
32.81484221457193
100
AcDbArc
 50
89.07888655156275
 51
249.8092476735864
  0
ARC
  5
24D9
330
1D9B
100
AcDbEntity
  8
1
 62
     7
100
AcDbCircle
 10
732.9279734404067
 20
833.1811386102801
 30
0.0
 40
10.71562500000007
100
AcDbArc
 50
45.37096498820169
 51
172.8710516458633
  0
ARC
  5
24DA
330
1D9B
100
AcDbEntity
  8
1
 62
     7
100
AcDbCircle
 10
822.6736149676138
 20
865.0767472715054
 30
0.0
 40
110.4389999999996
100
AcDbArc
 50
124.2132305829661
 51
235.7867694170339
  0
ARC
  5
24DB
330
1D9B
100
AcDbEntity
  8
1
 62
     7
100
AcDbCircle
 10
822.6736149676138
 20
865.0767472715054
 30
0.0
 40
104.929
100
AcDbArc
 50
126.2848695071525
 51
233.4990090938724
  0
ARC
  5
24DC
330
1D9B
100
AcDbEntity
  8
1
 62
     7
100
AcDbCircle
 10
822.6736149676138
 20
865.0767472715054
 30
0.0
 40
85.72499999999996
100
AcDbArc
 50
136.4168509883276
 51
223.5831490116718
  0
ARC
  5
24DD
330
1D9B
100
AcDbEntity
  8
1
 62
     7
100
AcDbCircle
 10
822.6736149676138
 20
865.0767472715054
 30
0.0
 40
80.00999999999994
100
AcDbArc
 50
140.9062953219628
 51
219.0937046780371
  0
ARC
  5
24DE
330
1D9B
100
AcDbEntity
  8
1
 62
     7
100
AcDbCircle
 10
912.4192564948211
 20
833.1811386102801
 30
0.0
 40
10.71562500000001
100
AcDbArc
 50
7.128948354136686
 51
134.6290350117983
  0
ARC
  5
24DF
330
1D9B
100
AcDbEntity
  8
1
 62
     7
100
AcDbCircle
 10
822.6736149676138
 20
865.0767472715054
 30
0.0
 40
110.4389999999996
100
AcDbArc
 50
235.7867694170339
 51
0.0
  0
ARC
  5
24E0
330
1D9B
100
AcDbEntity
  8
1
 62
     7
100
AcDbCircle
 10
822.6736149676138
 20
865.0767472715054
 30
0.0
 40
104.9289999999996
100
AcDbArc
 50
233.4990090938724
 51
0.0
  0
ARC
  5
24E1
330
1D9B
100
AcDbEntity
  8
1
 62
     7
100
AcDbCircle
 10
822.6736149676138
 20
865.0767472715054
 30
0.0
 40
85.72499999999998
100
AcDbArc
 50
223.5831490116718
 51
0.0
  0
ARC
  5
24E2
330
1D9B
100
AcDbEntity
  8
1
 62
     7
100
AcDbCircle
 10
822.6736149676138
 20
865.0767472715054
 30
0.0
 40
80.00999999999994
100
AcDbArc
 50
219.0937046780371
 51
0.0
  0
ARC
  5
24E3
330
1D9B
100
AcDbEntity
  8
1
 62
     7
100
AcDbCircle
 10
822.6736149676138
 20
865.0767472715054
 30
0.0
 40
113.146
100
AcDbArc
 50
236.7137634973481
 51
90.0
  0
ARC
  5
24E4
330
1D9B
100
AcDbEntity
  8
1
 62
     7
100
AcDbCircle
 10
822.6736149676138
 20
865.0767472715054
 30
0.0
 40
115.2479999999999
100
AcDbArc
 50
237.3971900697473
 51
90.0
  0
ARC
  5
24E5
330
1D9B
100
AcDbEntity
  8
1
  6
CENTER
 62
     3
100
AcDbCircle
 10
822.6736149676138
 20
865.0767472715054
 30
0.0
 40
134.9999999999998
100
AcDbArc
 50
242.6143183492368
 51
0.0
  0
ARC
  5
24E6
330
1D9B
100
AcDbEntity
  8
1
 62
     7
100
AcDbCircle
 10
822.6736149676138
 20
865.0767472715054
 30
0.0
 40
150.0
100
AcDbArc
 50
245.5448942544688
 51
90.0
  0
ARC
  5
24E7
330
1D9B
100
AcDbEntity
  8
1
 62
     7
100
AcDbCircle
 10
822.6736149676138
 20
865.0767472715054
 30
0.0
 40
34.99999999999996
100
AcDbArc
 50
287.2888199358433
 51
90.0
  0
ARC
  5
24E8
330
1D9B
100
AcDbEntity
  8
1
 62
     7
100
AcDbCircle
 10
822.6736149676138
 20
865.0767472715054
 30
0.0
 40
35.0
100
AcDbArc
 50
90.0
 51
252.7111800642244
  0
ARC
  5
24E9
330
1D9B
100
AcDbEntity
  8
1
 62
     7
100
AcDbCircle
 10
822.6736149676138
 20
865.0767472715054
 30
0.0
 40
149.9999999999998
100
AcDbArc
 50
114.4551057455311
 51
245.5448942544688
  0
ARC
  5
24EA
330
1D9B
100
AcDbEntity
  8
1
 62
     7
100
AcDbCircle
 10
822.6736149676138
 20
865.0767472715054
 30
0.0
 40
115.2479999999999
100
AcDbArc
 50
122.6028099302526
 51
237.3971900697473
  0
ARC
  5
24EB
330
1D9B
100
AcDbEntity
  8
1
 62
     7
100
AcDbCircle
 10
822.6736149676138
 20
865.0767472715054
 30
0.0
 40
113.146
100
AcDbArc
 50
123.2862365026518
 51
236.7137634973481
  0
ARC
  5
24EC
330
1D9B
100
AcDbEntity
  8
1
  6
CENTER
 62
     3
100
AcDbCircle
 10
822.6736149676138
 20
865.0767472715054
 30
0.0
 40
134.9999999999998
100
AcDbArc
 50
117.3856816507631
 51
242.6143183492368
  0
LINE
  5
24ED
330
1D9B
100
AcDbEntity
  8
1
  6
CENTER
 62
     3
100
AcDbLine
 10
822.673614967614
 20
693.0670598629827
 30
0.0
 11
822.6736149676138
 21
851.0767472715052
 31
0.0
  0
ARC
  5
24EE
330
1D9B
100
AcDbEntity
  8
0
 62
     7
100
AcDbCircle
 10
810.1050151564207
 20
833.4222207390276
 30
0.0
 40
2.166999967480518
100
AcDbArc
 50
0.0000000005471572
 51
70.73036112249335
  0
LINE
  5
24EF
330
1D9B
100
AcDbEntity
  8
1
  6
DASHDOT
 62
     3
100
AcDbLine
 10
707.6506131699588
 20
817.4326599420519
 30
0.0
 11
688.2491429872217
 21
809.3963078623851
 31
0.0
  0
CIRCLE
  5
24F0
330
1D9B
100
AcDbEntity
  8
1
 62
     7
100
AcDbCircle
 10
697.9498780785903
 20
813.4144839022185
 30
0.0
 40
7.000000000000023
  0
CIRCLE
  5
24F1
330
1D9B
100
AcDbEntity
  8
1
 62
     7
100
AcDbCircle
 10
771.011351598327
 20
740.3530103824818
 30
0.0
 40
7.000000000000023
  0
CIRCLE
  5
24F2
330
1D9B
100
AcDbEntity
  8
1
 62
     7
100
AcDbCircle
 10
727.2141995074301
 20
769.6173318113217
 30
0.0
 40
6.999999999999898
  0
ARC
  5
24F3
330
1D9B
100
AcDbEntity
  8
1
 62
     7
100
AcDbCircle
 10
762.5656437102792
 20
791.1941253883632
 30
0.0
 40
11.62000000000014
100
AcDbArc
 50
284.1578050029082
 51
4.82481894708425
  0
ARC
  5
24F4
330
1D9B
100
AcDbEntity
  8
1
 62
     7
100
AcDbCircle
 10
762.5656437102792
 20
791.1941253883632
 30
0.0
 40
11.61999999999997
100
AcDbArc
 50
96.91431148770197
 51
177.5813254318708
  0
ARC
  5
24F5
330
1D9B
100
AcDbEntity
  8
1
 62
     7
100
AcDbCircle
 10
822.6736149676138
 20
865.0767472715054
 30
0.0
 40
87.58000000000004
100
AcDbArc
 50
220.6982389881902
 51
225.3887175335453
  0
ARC
  5
24F6
330
1D9B
100
AcDbEntity
  8
1
 62
     7
100
AcDbCircle
 10
744.8613175078344
 20
810.1508299916751
 30
0.0
 40
11.61999999999994
100
AcDbArc
 50
268.5056310898643
 51
349.1726450340335
  0
ARC
  5
24F7
330
1D9B
100
AcDbEntity
  8
1
 62
     7
100
AcDbCircle
 10
822.6736149676138
 20
865.0767472715054
 30
0.0
 40
102.6149999999999
100
AcDbArc
 50
220.4257706009149
 51
225.6611859208218
  0
ARC
  5
24F8
330
1D9B
100
AcDbEntity
  8
1
 62
     7
100
AcDbCircle
 10
744.8613175078344
 20
810.1508299916751
 30
0.0
 40
11.62000000000001
100
AcDbArc
 50
81.26213757465874
 51
161.929151518832
  0
ARC
  5
24F9
330
1D9B
100
AcDbEntity
  8
1
 62
     7
100
AcDbCircle
 10
822.6736149676138
 20
865.0767472715054
 30
0.0
 40
102.6149999999999
100
AcDbArc
 50
204.7735966878736
 51
210.0090120077771
  0
ARC
  5
24FA
330
1D9B
100
AcDbEntity
  8
1
 62
     7
100
AcDbCircle
 10
744.8613175078344
 20
810.1508299916751
 30
0.0
 40
11.61999999999994
100
AcDbArc
 50
268.5056310898643
 51
349.1726450340335
  0
ARC
  5
24FB
330
1D9B
100
AcDbEntity
  8
1
 62
     7
100
AcDbCircle
 10
822.6736149676138
 20
865.0767472715054
 30
0.0
 40
102.6149999999999
100
AcDbArc
 50
220.4257706009149
 51
225.6611859208218
  0
ARC
  5
24FC
330
1D9B
100
AcDbEntity
  8
1
 62
     7
100
AcDbCircle
 10
744.8613175078344
 20
810.1508299916751
 30
0.0
 40
11.62000000000001
100
AcDbArc
 50
81.26213757465874
 51
161.929151518832
  0
ARC
  5
24FD
330
1D9B
100
AcDbEntity
  8
1
 62
     7
100
AcDbCircle
 10
822.6736149676138
 20
865.0767472715054
 30
0.0
 40
87.58
100
AcDbArc
 50
205.0460650751458
 51
209.7365436205018
  0
ARC
  5
24FE
330
1D9B
100
AcDbEntity
  8
1
 62
     7
100
AcDbCircle
 10
732.9279734404067
 20
833.1811386102801
 30
0.0
 40
11.62000000000001
100
AcDbArc
 50
252.8534571768214
 51
333.5204711209921
  0
ARC
  5
24FF
330
1D9B
100
AcDbEntity
  8
1
 62
     7
100
AcDbCircle
 10
822.6736149676138
 20
865.0767472715054
 30
0.0
 40
102.6149999999999
100
AcDbArc
 50
204.7735966878736
 51
210.0090120077771
  0
ARC
  5
2500
330
1D9B
100
AcDbEntity
  8
1
 62
     7
100
AcDbCircle
 10
822.6736149676138
 20
865.0767472715054
 30
0.0
 40
102.6149999999999
100
AcDbArc
 50
251.7301184270044
 51
256.9655337469105
  0
ARC
  5
2501
330
1D9B
100
AcDbEntity
  8
1
 62
     7
100
AcDbCircle
 10
809.7044224744418
 20
770.7188643412753
 30
0.0
 40
11.61999999999999
100
AcDbArc
 50
128.2186593137856
 51
208.8856732579569
  0
ARC
  5
2502
330
1D9B
100
AcDbEntity
  8
1
 62
     7
100
AcDbCircle
 10
822.6736149676138
 20
865.0767472715054
 30
0.0
 40
87.57999999999995
100
AcDbArc
 50
252.00258681428
 51
256.693065359636
  0
ARC
  5
2503
330
1D9B
100
AcDbEntity
  8
1
 62
     7
100
AcDbCircle
 10
784.7279031652089
 20
777.7169568596187
 30
0.0
 40
11.6200000000001
100
AcDbArc
 50
299.8099789159508
 51
20.47699286012601
  0
ARC
  5
2504
330
1D9B
100
AcDbEntity
  8
1
 62
     7
100
AcDbCircle
 10
822.6736149676138
 20
865.0767472715054
 30
0.0
 40
102.6149999999999
100
AcDbArc
 50
236.0779445139596
 51
241.3133598338678
  0
ARC
  5
2505
330
1D9B
100
AcDbEntity
  8
1
 62
     7
100
AcDbCircle
 10
784.7279031652089
 20
777.7169568596187
 30
0.0
 40
11.61999999999999
100
AcDbArc
 50
112.5664854007426
 51
193.2334993449172
  0
ARC
  5
2506
330
1D9B
100
AcDbEntity
  8
1
 62
     7
100
AcDbCircle
 10
822.6736149676138
 20
865.0767472715054
 30
0.0
 40
87.57999999999986
100
AcDbArc
 50
236.3504129012355
 51
241.0408914465896
  0
ARC
  5
2507
330
1D9B
100
AcDbEntity
  8
1
 62
     7
100
AcDbCircle
 10
762.5656437102792
 20
791.1941253883632
 30
0.0
 40
11.62000000000014
100
AcDbArc
 50
284.1578050029082
 51
4.82481894708425
  0
ARC
  5
2508
330
1D9B
100
AcDbEntity
  8
1
 62
     7
100
AcDbCircle
 10
822.6736149676138
 20
865.0767472715054
 30
0.0
 40
87.58
100
AcDbArc
 50
224.8437945407924
 51
225.3887175335453
  0
ARC
  5
2509
330
1D9B
100
AcDbEntity
  8
1
 62
     7
100
AcDbCircle
 10
762.5656437102792
 20
791.1941253883632
 30
0.0
 40
11.61999999999997
100
AcDbArc
 50
96.91431148770197
 51
99.85610394713601
  0
ARC
  5
250A
330
1D9B
100
AcDbEntity
  8
1
 62
     7
100
AcDbCircle
 10
732.9279734404067
 20
833.1811386102801
 30
0.0
 40
10.71562499999999
100
AcDbArc
 50
226.2593831367485
 51
353.7594697944048
  0
ARC
  5
250B
330
1D9B
100
AcDbEntity
  8
1
 62
     7
100
AcDbCircle
 10
744.8613175078344
 20
810.1508299916751
 30
0.0
 40
10.71562499999993
100
AcDbArc
 50
241.9115570497932
 51
9.411643707445367
  0
ARC
  5
250C
330
1D9B
100
AcDbEntity
  8
1
 62
     7
100
AcDbCircle
 10
744.8613175078344
 20
810.1508299916751
 30
0.0
 40
10.7156250000001
100
AcDbArc
 50
61.02313890124954
 51
188.5232255589045
  0
ARC
  5
250D
330
1D9B
100
AcDbEntity
  8
1
 62
     7
100
AcDbCircle
 10
762.5656437102792
 20
791.1941253883632
 30
0.0
 40
10.71562500000001
100
AcDbArc
 50
76.67531281429019
 51
204.1753994719486
  0
ARC
  5
250E
330
1D9B
100
AcDbEntity
  8
1
 62
     7
100
AcDbCircle
 10
762.5656437102792
 20
791.1941253883632
 30
0.0
 40
10.71562500000001
100
AcDbArc
 50
257.5637309628359
 51
25.0638176204894
  0
ARC
  5
250F
330
1D9B
100
AcDbEntity
  8
1
 62
     7
100
AcDbCircle
 10
784.7279031652089
 20
777.7169568596187
 30
0.0
 40
10.71562500000005
100
AcDbArc
 50
273.2159048758795
 51
40.71599153353904
  0
ARC
  5
2510
330
1D9B
100
AcDbEntity
  8
1
 62
     7
100
AcDbCircle
 10
784.7279031652089
 20
777.7169568596187
 30
0.0
 40
10.71562499999999
100
AcDbArc
 50
92.32748672733272
 51
219.8275733849937
  0
ARC
  5
2511
330
1D9B
100
AcDbEntity
  8
1
 62
     7
100
AcDbCircle
 10
809.7044224744418
 20
770.7188643412753
 30
0.0
 40
10.71562500000001
100
AcDbArc
 50
107.979660640379
 51
235.4797472980387
  0
ARC
  5
2512
330
1D9B
100
AcDbEntity
  8
1
 62
     7
100
AcDbCircle
 10
762.5656437102792
 20
791.1941253883632
 30
0.0
 40
10.71562500000001
100
AcDbArc
 50
76.67531281429019
 51
100.6973437698231
  0
LINE
  5
2513
330
1D9B
100
AcDbEntity
  8
1
  6
DASHDOT
 62
     3
100
AcDbLine
 10
766.9931755584936
 20
730.6522752911135
 30
0.0
 11
775.02952763816
 21
750.0537454738504
 31
0.0
  0
LINE
  5
2514
330
1D9B
100
AcDbEntity
  8
1
  6
DASHDOT
 62
     3
100
AcDbLine
 10
734.6388207098889
 20
777.0419530137806
 30
0.0
 11
719.7895783049713
 21
762.192710608863
 31
0.0
  0
CIRCLE
  5
2515
330
1D9B
100
AcDbEntity
  8
1
 62
     7
100
AcDbCircle
 10
849.0108084397913
 20
732.6707344170695
 30
0.0
 40
6.999999999999801
  0
CIRCLE
  5
2516
330
1D9B
100
AcDbEntity
  8
1
 62
     3
100
AcDbCircle
 10
849.0108084397913
 20
732.6707344170695
 30
0.0
 40
6.0
  0
CIRCLE
  5
2517
330
1D9B
100
AcDbEntity
  8
1
 62
     7
100
AcDbCircle
 10
822.673614967614
 20
730.0767472715055
 30
0.0
 40
7.0
  0
LINE
  5
2518
330
1D9B
100
AcDbEntity
  8
1
  6
DASHDOT
 62
     3
100
AcDbLine
 10
846.9623600586219
 20
742.9689798613034
 30
0.0
 11
851.0592568209606
 21
722.3724889728355
 31
0.0
  0
CIRCLE
  5
2519
330
1D9B
100
AcDbEntity
  8
1
 62
     7
100
AcDbCircle
 10
918.1330304277977
 20
769.6173318113217
 30
0.0
 40
6.999999999999895
  0
ARC
  5
251A
330
1D9B
100
AcDbEntity
  8
1
 62
     7
100
AcDbCircle
 10
822.6736149676138
 20
865.0767472715054
 30
0.0
 40
102.6149999999999
100
AcDbArc
 50
329.9909879922228
 51
335.2264033121262
  0
ARC
  5
251B
330
1D9B
100
AcDbEntity
  8
1
 62
     7
100
AcDbCircle
 10
912.4192564948211
 20
833.1811386102801
 30
0.0
 40
10.71562499999997
100
AcDbArc
 50
186.2405302055952
 51
313.7406168632514
  0
LINE
  5
251C
330
1D9B
100
AcDbEntity
  8
1
  6
DASHDOT
 62
     3
100
AcDbLine
 10
925.5576516302566
 20
762.192710608863
 30
0.0
 11
910.7084092253389
 21
777.0419530137806
 31
0.0
  0
CIRCLE
  5
251D
330
1D9B
100
AcDbEntity
  8
0
 62
     7
100
AcDbCircle
 10
828.4161648813467
 20
832.0469937635268
 30
0.0
 40
2.166999967445661
  0
CIRCLE
  5
251E
330
1D9B
100
AcDbEntity
  8
0
 62
     7
100
AcDbCircle
 10
816.9310650538973
 20
832.0469937635268
 30
0.0
 40
2.166999967434648
  0
CIRCLE
  5
251F
330
1D9B
100
AcDbEntity
  8
1
 62
     7
100
AcDbCircle
 10
849.0108084397913
 20
732.6707344170695
 30
0.0
 40
4.799999999999808
  0
CIRCLE
  5
2520
330
1D9B
100
AcDbEntity
  8
1
 62
     7
100
AcDbCircle
 10
874.3358783369012
 20
740.3530103824818
 30
0.0
 40
6.999999999999968
  0
ARC
  5
2521
330
1D9B
100
AcDbEntity
  8
0
 62
     7
100
AcDbCircle
 10
830.9082148439221
 20
830.0437472389981
 30
0.0
 40
2.1669999674925
100
AcDbArc
 50
270.0000000008011
 51
0.0000000000716515
  0
ARC
  5
2522
330
1D9B
100
AcDbEntity
  8
0
 62
     7
100
AcDbCircle
 10
835.2422147788219
 20
833.4222207390482
 30
0.0
 40
2.166999967458683
100
AcDbArc
 50
109.2696388775006
 51
180.0
  0
ARC
  5
2523
330
1D9B
100
AcDbEntity
  8
0
 62
     7
100
AcDbCircle
 10
814.4390150913411
 20
830.0437472390008
 30
0.0
 40
2.1669999674952
100
AcDbArc
 50
180.0
 51
269.9999999985408
  0
ARC
  5
2524
330
1D9B
100
AcDbEntity
  8
1
 62
     7
100
AcDbCircle
 10
912.4192564948211
 20
833.1811386102801
 30
0.0
 40
11.61999999999999
100
AcDbArc
 50
206.4795288790014
 51
287.1465428231785
  0
ARC
  5
2525
330
1D9B
100
AcDbEntity
  8
1
 62
     7
100
AcDbCircle
 10
822.6736149676138
 20
865.0767472715054
 30
0.0
 40
87.58000000000008
100
AcDbArc
 50
330.2634563794981
 51
334.9539349248542
  0
ARC
  5
2526
330
1D9B
100
AcDbEntity
  8
1
 62
     7
100
AcDbCircle
 10
900.4859124273934
 20
810.1508299916751
 30
0.0
 40
11.61999999999999
100
AcDbArc
 50
18.07084848116796
 51
98.73786242534123
  0
ARC
  5
2527
330
1D9B
100
AcDbEntity
  8
1
 62
     7
100
AcDbCircle
 10
822.6736149676138
 20
865.0767472715054
 30
0.0
 40
102.6149999999999
100
AcDbArc
 50
314.3388140791776
 51
319.574229399085
  0
ARC
  5
2528
330
1D9B
100
AcDbEntity
  8
1
 62
     7
100
AcDbCircle
 10
900.4859124273934
 20
810.1508299916751
 30
0.0
 40
11.61999999999999
100
AcDbArc
 50
190.8273549659664
 51
271.4943689101356
  0
ARC
  5
2529
330
1D9B
100
AcDbEntity
  8
1
 62
     7
100
AcDbCircle
 10
822.6736149676138
 20
865.0767472715054
 30
0.0
 40
87.57999999999993
100
AcDbArc
 50
314.6112824664546
 51
319.3017610118098
  0
ARC
  5
252A
330
1D9B
100
AcDbEntity
  8
1
 62
     7
100
AcDbCircle
 10
882.7815862249488
 20
791.1941253883632
 30
0.0
 40
11.62000000000005
100
AcDbArc
 50
2.418674568129171
 51
83.08568851229804
  0
ARC
  5
252B
330
1D9B
100
AcDbEntity
  8
1
 62
     7
100
AcDbCircle
 10
822.6736149676138
 20
865.0767472715054
 30
0.0
 40
102.6149999999999
100
AcDbArc
 50
298.6866401661322
 51
303.9220554860403
  0
ARC
  5
252C
330
1D9B
100
AcDbEntity
  8
1
 62
     7
100
AcDbCircle
 10
882.7815862249488
 20
791.1941253883632
 30
0.0
 40
11.61999999999989
100
AcDbArc
 50
175.1751810529157
 51
255.8421949970917
  0
ARC
  5
252D
330
1D9B
100
AcDbEntity
  8
1
 62
     7
100
AcDbCircle
 10
822.6736149676138
 20
865.0767472715054
 30
0.0
 40
87.58
100
AcDbArc
 50
298.9591085534103
 51
303.6495870987644
  0
ARC
  5
252E
330
1D9B
100
AcDbEntity
  8
1
 62
     7
100
AcDbCircle
 10
860.6193267700191
 20
777.7169568596187
 30
0.0
 40
11.61999999999998
100
AcDbArc
 50
346.7665006550827
 51
67.4335145992573
  0
ARC
  5
252F
330
1D9B
100
AcDbEntity
  8
1
 62
     7
100
AcDbCircle
 10
822.6736149676138
 20
865.0767472715054
 30
0.0
 40
102.6149999999999
100
AcDbArc
 50
283.0344662530894
 51
288.2698815729956
  0
ARC
  5
2530
330
1D9B
100
AcDbEntity
  8
1
 62
     7
100
AcDbCircle
 10
860.6193267700191
 20
777.7169568596187
 30
0.0
 40
11.62000000000001
100
AcDbArc
 50
159.523007139874
 51
240.1900210840491
  0
ARC
  5
2531
330
1D9B
100
AcDbEntity
  8
1
 62
     7
100
AcDbCircle
 10
822.6736149676138
 20
865.0767472715054
 30
0.0
 40
87.57999999999995
100
AcDbArc
 50
283.3069346403639
 51
287.9974131857199
  0
ARC
  5
2532
330
1D9B
100
AcDbEntity
  8
1
 62
     7
100
AcDbCircle
 10
835.642807460786
 20
770.7188643412753
 30
0.0
 40
11.61999999999996
100
AcDbArc
 50
331.114326742043
 51
51.7813406862071
  0
ARC
  5
2533
330
1D9B
100
AcDbEntity
  8
1
 62
     7
100
AcDbCircle
 10
822.6736149676138
 20
865.0767472715054
 30
0.0
 40
102.6149999999999
100
AcDbArc
 50
267.3822923400439
 51
272.6177076599494
  0
ARC
  5
2534
330
1D9B
100
AcDbEntity
  8
1
 62
     7
100
AcDbCircle
 10
835.642807460786
 20
770.7188643412753
 30
0.0
 40
11.61999999999999
100
AcDbArc
 50
143.8708332268289
 51
224.5378471710027
  0
ARC
  5
2535
330
1D9B
100
AcDbEntity
  8
1
 62
     7
100
AcDbCircle
 10
822.6736149676138
 20
865.0767472715054
 30
0.0
 40
87.57999999999993
100
AcDbArc
 50
267.6547607273194
 51
272.3452392726805
  0
ARC
  5
2536
330
1D9B
100
AcDbEntity
  8
1
 62
     7
100
AcDbCircle
 10
809.7044224744418
 20
770.7188643412753
 30
0.0
 40
11.62000000000009
100
AcDbArc
 50
315.4621528289966
 51
36.12916677317101
  0
ARC
  5
2537
330
1D9B
100
AcDbEntity
  8
1
 62
     7
100
AcDbCircle
 10
809.7044224744418
 20
770.7188643412753
 30
0.0
 40
10.71562499999995
100
AcDbArc
 50
288.8680787889214
 51
56.36816544657907
  0
ARC
  5
2538
330
1D9B
100
AcDbEntity
  8
1
 62
     7
100
AcDbCircle
 10
835.642807460786
 20
770.7188643412753
 30
0.0
 40
10.71562500000001
100
AcDbArc
 50
304.5202527019612
 51
72.02033935962146
  0
ARC
  5
2539
330
1D9B
100
AcDbEntity
  8
1
 62
     7
100
AcDbCircle
 10
860.6193267700191
 20
777.7169568596187
 30
0.0
 40
10.71562499999991
100
AcDbArc
 50
320.1724266150058
 51
87.67251327266729
  0
ARC
  5
253A
330
1D9B
100
AcDbEntity
  8
1
 62
     7
100
AcDbCircle
 10
882.7815862249488
 20
791.1941253883632
 30
0.0
 40
10.71562500000001
100
AcDbArc
 50
335.8246005280513
 51
103.3246871857098
  0
ARC
  5
253B
330
1D9B
100
AcDbEntity
  8
1
 62
     7
100
AcDbCircle
 10
900.4859124273934
 20
810.1508299916751
 30
0.0
 40
10.71562499999987
100
AcDbArc
 50
351.4767744410954
 51
118.9768610987504
  0
ARC
  5
253C
330
1D9B
100
AcDbEntity
  8
1
 62
     7
100
AcDbCircle
 10
835.642807460786
 20
770.7188643412753
 30
0.0
 40
10.71562500000001
100
AcDbArc
 50
123.6318345534209
 51
251.1319212110784
  0
ARC
  5
253D
330
1D9B
100
AcDbEntity
  8
1
 62
     7
100
AcDbCircle
 10
860.6193267700191
 20
777.7169568596187
 30
0.0
 40
10.71562499999998
100
AcDbArc
 50
139.2840084664609
 51
266.7840951241204
  0
ARC
  5
253E
330
1D9B
100
AcDbEntity
  8
1
 62
     7
100
AcDbCircle
 10
882.7815862249488
 20
791.1941253883632
 30
0.0
 40
10.71562499999995
100
AcDbArc
 50
154.9361823795105
 51
282.436269037164
  0
ARC
  5
253F
330
1D9B
100
AcDbEntity
  8
1
 62
     7
100
AcDbCircle
 10
900.4859124273934
 20
810.1508299916751
 30
0.0
 40
10.7156250000001
100
AcDbArc
 50
170.5883562925546
 51
298.0884429502068
  0
ARC
  5
2540
330
1D9B
100
AcDbEntity
  8
1
 62
     7
100
AcDbCircle
 10
822.6736149676138
 20
865.0767472715054
 30
0.0
 40
34.99999999999996
100
AcDbArc
 50
268.2260029680766
 51
271.7739970319299
  0
LINE
  5
2541
330
1D9B
100
AcDbEntity
  8
0
 62
     7
100
AcDbLine
 10
823.7571149513378
 20
835.1002175207206
 30
0.0
 11
823.7571149513378
 21
827.8767472715056
 31
0.0
  0
LINE
  5
2542
330
1D9B
100
AcDbEntity
  8
0
 62
     7
100
AcDbLine
 10
823.7571149513378
 20
827.8767472715056
 30
0.0
 11
830.9082148439525
 21
827.8767472715056
 31
0.0
  0
LINE
  5
2543
330
1D9B
100
AcDbEntity
  8
0
 62
     7
100
AcDbLine
 10
833.0752148113651
 20
830.0437472390008
 30
0.0
 11
833.0752148113651
 21
833.4222207390482
 31
0.0
  0
LINE
  5
2544
330
1D9B
100
AcDbEntity
  8
0
 62
     7
100
AcDbLine
 10
821.590114983894
 20
835.1002175207206
 30
0.0
 11
821.590114983894
 21
827.8767472715056
 31
0.0
  0
LINE
  5
2545
330
1D9B
100
AcDbEntity
  8
0
 62
     7
100
AcDbLine
 10
821.590114983894
 20
827.8767472715056
 30
0.0
 11
814.4390150912862
 21
827.8767472715056
 31
0.0
  0
LINE
  5
2546
330
1D9B
100
AcDbEntity
  8
0
 62
     7
100
AcDbLine
 10
812.2720151239011
 20
830.0437472390008
 30
0.0
 11
812.2720151239011
 21
833.4222207390482
 31
0.0
  0
LINE
  5
2547
330
1D9B
100
AcDbEntity
  8
1
  6
DASHDOT
 62
     3
100
AcDbLine
 10
878.3540543767346
 20
730.6522752911135
 30
0.0
 11
870.3177022970676
 21
750.0537454738504
 31
0.0
  0
CIRCLE
  5
2548
330
1D9B
100
AcDbEntity
  8
1
 62
     7
100
AcDbCircle
 10
947.3973518566376
 20
813.4144839022185
 30
0.0
 40
7.000000000000023
  0
LINE
  5
2549
330
1D9B
100
AcDbEntity
  8
1
  6
DASHDOT
 62
     3
100
AcDbLine
 10
957.0980869480061
 20
809.3963078623851
 30
0.0
 11
937.6966167652692
 21
817.4326599420519
 31
0.0
  0
ARC
  5
254A
330
1D9B
100
AcDbEntity
  8
1
 62
     7
100
AcDbCircle
 10
822.6736149676138
 20
960.3217472715053
 30
0.0
 40
11.62000000000005
100
AcDbArc
 50
143.2882397855207
 51
223.9552537296931
  0
ARC
  5
254B
330
1D9B
100
AcDbEntity
  8
1
 62
     7
100
AcDbCircle
 10
822.6736149676138
 20
865.0767472715054
 30
0.0
 40
87.58
100
AcDbArc
 50
95.4808476838432
 51
100.1713262292
  0
ARC
  5
254C
330
1D9B
100
AcDbEntity
  8
1
 62
     7
100
AcDbCircle
 10
822.6736149676138
 20
865.0767472715054
 30
0.0
 40
102.6149999999999
100
AcDbArc
 50
95.2083792965702
 51
100.4437946164767
  0
ARC
  5
254D
330
1D9B
100
AcDbEntity
  8
1
 62
     7
100
AcDbCircle
 10
822.6736149676138
 20
865.0767472715054
 30
0.0
 40
110.4389999999996
100
AcDbArc
 50
0.0
 51
124.2132305829661
  0
ARC
  5
254E
330
1D9B
100
AcDbEntity
  8
1
 62
     7
100
AcDbCircle
 10
822.6736149676138
 20
865.0767472715054
 30
0.0
 40
104.929
100
AcDbArc
 50
0.0
 51
126.2848695071525
  0
ARC
  5
254F
330
1D9B
100
AcDbEntity
  8
1
 62
     7
100
AcDbCircle
 10
822.6736149676138
 20
865.0767472715054
 30
0.0
 40
85.72500000000012
100
AcDbArc
 50
0.0
 51
136.4168509883276
  0
ARC
  5
2550
330
1D9B
100
AcDbEntity
  8
1
 62
     7
100
AcDbCircle
 10
822.6736149676138
 20
865.0767472715054
 30
0.0
 40
80.01000000000002
100
AcDbArc
 50
0.0
 51
140.9062953219628
  0
ARC
  5
2551
330
1D9B
100
AcDbEntity
  8
1
 62
     7
100
AcDbCircle
 10
822.6736149676138
 20
865.0767472715054
 30
0.0
 40
113.1460000000001
100
AcDbArc
 50
90.0
 51
123.2862365026518
  0
ARC
  5
2552
330
1D9B
100
AcDbEntity
  8
1
 62
     7
100
AcDbCircle
 10
822.6736149676138
 20
865.0767472715054
 30
0.0
 40
115.2479999999999
100
AcDbArc
 50
90.0
 51
122.6028099302526
  0
ARC
  5
2553
330
1D9B
100
AcDbEntity
  8
1
  6
CENTER
 62
     3
100
AcDbCircle
 10
822.6736149676138
 20
865.0767472715054
 30
0.0
 40
135.0
100
AcDbArc
 50
0.0
 51
117.3856816507631
  0
ARC
  5
2554
330
1D9B
100
AcDbEntity
  8
1
 62
     7
100
AcDbCircle
 10
822.6736149676138
 20
865.0767472715054
 30
0.0
 40
150.0
100
AcDbArc
 50
90.0
 51
114.4551057455311
  0
ARC
  5
2555
330
1D9B
100
AcDbEntity
  8
1
 62
     7
100
AcDbCircle
 10
822.6736149676138
 20
865.0767472715054
 30
0.0
 40
13.99999999999997
100
AcDbArc
 50
106.6015495990175
 51
270.0
  0
LINE
  5
2556
330
1D9B
100
AcDbEntity
  8
1
  6
CENTER
 62
     3
100
AcDbLine
 10
655.5255795806498
 20
865.0767472715054
 30
0.0
 11
992.8113255060571
 21
865.0767472715054
 31
0.0
  0
ARC
  5
2557
330
1D9B
100
AcDbEntity
  8
1
 62
     7
100
AcDbCircle
 10
773.185841646489
 20
946.4559234575359
 30
0.0
 40
11.6200000000001
100
AcDbArc
 50
174.5925876116021
 51
255.2596015557775
  0
ARC
  5
2558
330
1D9B
100
AcDbEntity
  8
1
 62
     7
100
AcDbCircle
 10
822.6736149676138
 20
865.0767472715054
 30
0.0
 40
102.6149999999999
100
AcDbArc
 50
126.512727122653
 51
131.7481424425611
  0
ARC
  5
2559
330
1D9B
100
AcDbEntity
  8
1
 62
     7
100
AcDbCircle
 10
773.185841646489
 20
946.4559234575359
 30
0.0
 40
11.62000000000014
100
AcDbArc
 50
347.3490940964016
 51
68.01610804056462
  0
ARC
  5
255A
330
1D9B
100
AcDbEntity
  8
1
 62
     7
100
AcDbCircle
 10
773.185841646489
 20
946.4559234575359
 30
0.0
 40
11.6200000000001
100
AcDbArc
 50
174.5925876116021
 51
255.2596015557775
  0
ARC
  5
255B
330
1D9B
100
AcDbEntity
  8
1
 62
     7
100
AcDbCircle
 10
773.185841646489
 20
946.4559234575359
 30
0.0
 40
11.62000000000014
100
AcDbArc
 50
347.3490940964016
 51
68.01610804056462
  0
ARC
  5
255C
330
1D9B
100
AcDbEntity
  8
1
 62
     7
100
AcDbCircle
 10
822.6736149676138
 20
865.0767472715054
 30
0.0
 40
87.57999999999999
100
AcDbArc
 50
111.1330215968835
 51
115.8235001422444
  0
ARC
  5
255D
330
1D9B
100
AcDbEntity
  8
1
 62
     7
100
AcDbCircle
 10
796.9768214987632
 20
956.7898043049465
 30
0.0
 40
11.62000000000013
100
AcDbArc
 50
158.9404136985571
 51
239.6074276427342
  0
ARC
  5
255E
330
1D9B
100
AcDbEntity
  8
1
 62
     7
100
AcDbCircle
 10
796.9768214987632
 20
956.7898043049465
 30
0.0
 40
10.71562499999999
100
AcDbArc
 50
132.3463396584842
 51
259.8464263161423
  0
ARC
  5
255F
330
1D9B
100
AcDbEntity
  8
1
 62
     7
100
AcDbCircle
 10
773.185841646489
 20
946.4559234575359
 30
0.0
 40
10.71562499999987
100
AcDbArc
 50
147.9985135715291
 51
275.4986002291843
  0
ARC
  5
2560
330
1D9B
100
AcDbEntity
  8
1
 62
     7
100
AcDbCircle
 10
773.185841646489
 20
946.4559234575359
 30
0.0
 40
10.71562500000013
100
AcDbArc
 50
327.1100954229901
 51
94.61018208064761
  0
LINE
  5
2561
330
1D9B
100
AcDbEntity
  8
1
  6
DASHDOT
 62
     3
100
AcDbLine
 10
707.6506131699588
 20
912.7208346009592
 30
0.0
 11
688.2491429872218
 21
920.757186680626
 31
0.0
  0
CIRCLE
  5
2562
330
1D9B
100
AcDbEntity
  8
1
 62
     7
100
AcDbCircle
 10
687.6736149676137
 20
865.0767472715054
 30
0.0
 40
7.0
  0
CIRCLE
  5
2563
330
1D9B
100
AcDbEntity
  8
1
 62
     7
100
AcDbCircle
 10
697.9498780785903
 20
916.7390106407927
 30
0.0
 40
7.000000000000071
  0
ARC
  5
2564
330
1D9B
100
AcDbEntity
  8
1
 62
     7
100
AcDbCircle
 10
738.1069873408799
 20
908.8956417902091
 30
0.0
 40
11.6200000000003
100
AcDbArc
 50
205.8969354376911
 51
286.5639493818609
  0
ARC
  5
2565
330
1D9B
100
AcDbEntity
  8
1
 62
     7
100
AcDbCircle
 10
738.1069873408799
 20
908.8956417902091
 30
0.0
 40
11.61999999999969
100
AcDbArc
 50
18.65344192248774
 51
99.32045586666045
  0
ARC
  5
2566
330
1D9B
100
AcDbEntity
  8
1
 62
     7
100
AcDbCircle
 10
822.6736149676138
 20
865.0767472715054
 30
0.0
 40
87.58000000000008
100
AcDbArc
 50
142.4373694229782
 51
147.1278479683256
  0
ARC
  5
2567
330
1D9B
100
AcDbEntity
  8
1
 62
     7
100
AcDbCircle
 10
753.0651435499439
 20
930.086521397366
 30
0.0
 40
11.61999999999996
100
AcDbArc
 50
190.2447615246443
 51
270.9117754688205
  0
ARC
  5
2568
330
1D9B
100
AcDbEntity
  8
1
 62
     7
100
AcDbCircle
 10
822.6736149676138
 20
865.0767472715054
 30
0.0
 40
102.6149999999999
100
AcDbArc
 50
142.1649010357
 51
147.4003163556
  0
ARC
  5
2569
330
1D9B
100
AcDbEntity
  8
1
 62
     7
100
AcDbCircle
 10
753.0651435499439
 20
930.086521397366
 30
0.0
 40
11.62000000000022
100
AcDbArc
 50
3.001268009441852
 51
83.66828195361149
  0
ARC
  5
256A
330
1D9B
100
AcDbEntity
  8
1
 62
     7
100
AcDbCircle
 10
822.6736149676138
 20
865.0767472715054
 30
0.0
 40
87.57999999999995
100
AcDbArc
 50
126.7851955099349
 51
131.4756740552877
  0
ARC
  5
256B
330
1D9B
100
AcDbEntity
  8
1
 62
     7
100
AcDbCircle
 10
732.9279734404067
 20
833.1811386102801
 30
0.0
 40
11.61999999999989
100
AcDbArc
 50
65.60996366161852
 51
146.2769776057896
  0
ARC
  5
256C
330
1D9B
100
AcDbEntity
  8
1
 62
     7
100
AcDbCircle
 10
822.6736149676138
 20
865.0767472715054
 30
0.0
 40
87.58000000000008
100
AcDbArc
 50
189.3938911621073
 51
194.0843697074604
  0
ARC
  5
256D
330
1D9B
100
AcDbEntity
  8
1
 62
     7
100
AcDbCircle
 10
727.6506530460612
 20
858.5769986105875
 30
0.0
 40
11.62000000000022
100
AcDbArc
 50
237.2012832637796
 51
317.8682972079469
  0
ARC
  5
256E
330
1D9B
100
AcDbEntity
  8
1
 62
     7
100
AcDbCircle
 10
822.6736149676138
 20
865.0767472715054
 30
0.0
 40
102.6149999999999
100
AcDbArc
 50
189.1214227748309
 51
194.3568380947315
  0
ARC
  5
256F
330
1D9B
100
AcDbEntity
  8
1
 62
     7
100
AcDbCircle
 10
727.6506530460612
 20
858.5769986105875
 30
0.0
 40
11.61999999999972
100
AcDbArc
 50
49.95778974857138
 51
130.6248036927469
  0
ARC
  5
2570
330
1D9B
100
AcDbEntity
  8
1
 62
     7
100
AcDbCircle
 10
822.6736149676138
 20
865.0767472715054
 30
0.0
 40
87.58000000000015
100
AcDbArc
 50
173.7417172490588
 51
178.4321957944127
  0
ARC
  5
2571
330
1D9B
100
AcDbEntity
  8
1
 62
     7
100
AcDbCircle
 10
729.4207510363112
 20
884.4549152347036
 30
0.0
 40
11.62000000000015
100
AcDbArc
 50
221.5491093507342
 51
302.216123294908
  0
ARC
  5
2572
330
1D9B
100
AcDbEntity
  8
1
 62
     7
100
AcDbCircle
 10
822.6736149676138
 20
865.0767472715054
 30
0.0
 40
102.6149999999999
100
AcDbArc
 50
173.4692488617852
 51
178.7046641816937
  0
ARC
  5
2573
330
1D9B
100
AcDbEntity
  8
1
 62
     7
100
AcDbCircle
 10
729.4207510363112
 20
884.4549152347036
 30
0.0
 40
11.61999999999984
100
AcDbArc
 50
34.30561583552916
 51
114.9726297797015
  0
ARC
  5
2574
330
1D9B
100
AcDbEntity
  8
1
 62
     7
100
AcDbCircle
 10
822.6736149676138
 20
865.0767472715054
 30
0.0
 40
87.58000000000004
100
AcDbArc
 50
158.0895433360188
 51
162.7800218813762
  0
ARC
  5
2575
330
1D9B
100
AcDbEntity
  8
1
 62
     7
100
AcDbCircle
 10
738.1069873408799
 20
908.8956417902091
 30
0.0
 40
11.6200000000003
100
AcDbArc
 50
205.8969354376911
 51
286.5639493818609
  0
ARC
  5
2576
330
1D9B
100
AcDbEntity
  8
1
 62
     7
100
AcDbCircle
 10
822.6736149676138
 20
865.0767472715054
 30
0.0
 40
102.6149999999999
100
AcDbArc
 50
157.8170749487429
 51
163.0524902686443
  0
ARC
  5
2577
330
1D9B
100
AcDbEntity
  8
1
 62
     7
100
AcDbCircle
 10
738.1069873408799
 20
908.8956417902091
 30
0.0
 40
11.61999999999969
100
AcDbArc
 50
18.65344192248774
 51
99.32045586666045
  0
ARC
  5
2578
330
1D9B
100
AcDbEntity
  8
1
 62
     7
100
AcDbCircle
 10
822.6736149676138
 20
865.0767472715054
 30
0.0
 40
87.58000000000008
100
AcDbArc
 50
142.4373694229782
 51
147.1278479683256
  0
ARC
  5
2579
330
1D9B
100
AcDbEntity
  8
1
 62
     7
100
AcDbCircle
 10
753.0651435499439
 20
930.086521397366
 30
0.0
 40
11.61999999999996
100
AcDbArc
 50
190.2447615246443
 51
270.9117754688205
  0
ARC
  5
257A
330
1D9B
100
AcDbEntity
  8
1
 62
     7
100
AcDbCircle
 10
822.6736149676138
 20
865.0767472715054
 30
0.0
 40
102.6149999999999
100
AcDbArc
 50
142.1649010357
 51
147.4003163556
  0
ARC
  5
257B
330
1D9B
100
AcDbEntity
  8
1
 62
     7
100
AcDbCircle
 10
822.6736149676138
 20
865.0767472715054
 30
0.0
 40
87.57999999999995
100
AcDbArc
 50
126.7851955099349
 51
131.4756740552877
  0
ARC
  5
257C
330
1D9B
100
AcDbEntity
  8
1
 62
     7
100
AcDbCircle
 10
753.0651435499439
 20
930.086521397366
 30
0.0
 40
11.62000000000022
100
AcDbArc
 50
3.001268009441852
 51
49.7274246689603
  0
ARC
  5
257D
330
1D9B
100
AcDbEntity
  8
1
 62
     7
100
AcDbCircle
 10
753.0651435499439
 20
930.086521397366
 30
0.0
 40
10.71562499999971
100
AcDbArc
 50
163.650687484571
 51
291.1507741422289
  0
ARC
  5
257E
330
1D9B
100
AcDbEntity
  8
1
 62
     7
100
AcDbCircle
 10
738.1069873408799
 20
908.8956417902091
 30
0.0
 40
10.71562500000005
100
AcDbArc
 50
179.302861397612
 51
306.8029480552734
  0
ARC
  5
257F
330
1D9B
100
AcDbEntity
  8
1
 62
     7
100
AcDbCircle
 10
729.4207510363112
 20
884.4549152347036
 30
0.0
 40
10.71562499999991
100
AcDbArc
 50
194.9550353106598
 51
322.4551219683172
  0
ARC
  5
2580
330
1D9B
100
AcDbEntity
  8
1
 62
     7
100
AcDbCircle
 10
727.6506530460612
 20
858.5769986105875
 30
0.0
 40
10.71562500000007
100
AcDbArc
 50
210.6072092237038
 51
338.1072958813621
  0
ARC
  5
2581
330
1D9B
100
AcDbEntity
  8
1
 62
     7
100
AcDbCircle
 10
753.0651435499439
 20
930.086521397366
 30
0.0
 40
10.71562500000018
100
AcDbArc
 50
342.7622693360359
 51
110.2623559936857
  0
ARC
  5
2582
330
1D9B
100
AcDbEntity
  8
1
 62
     7
100
AcDbCircle
 10
738.1069873408799
 20
908.8956417902091
 30
0.0
 40
10.71562499999997
100
AcDbArc
 50
358.4144432490796
 51
125.9145299067296
  0
ARC
  5
2583
330
1D9B
100
AcDbEntity
  8
1
 62
     7
100
AcDbCircle
 10
729.4207510363112
 20
884.4549152347036
 30
0.0
 40
10.71562499999997
100
AcDbArc
 50
14.06661716212221
 51
141.5667038197776
  0
ARC
  5
2584
330
1D9B
100
AcDbEntity
  8
1
 62
     7
100
AcDbCircle
 10
727.6506530460612
 20
858.5769986105875
 30
0.0
 40
10.71562499999995
100
AcDbArc
 50
29.71879107516086
 51
157.218877732815
  0
ARC
  5
2585
330
1D9B
100
AcDbEntity
  8
1
 62
     7
100
AcDbCircle
 10
753.0651435499439
 20
930.086521397366
 30
0.0
 40
10.71562500000018
100
AcDbArc
 50
342.7622693360359
 51
45.49420005772129
  0
CIRCLE
  5
2586
330
1D9B
100
AcDbEntity
  8
1
 62
     7
100
AcDbCircle
 10
796.3364214954367
 20
997.4827601259416
 30
0.0
 40
7.0
  0
CIRCLE
  5
2587
330
1D9B
100
AcDbEntity
  8
1
 62
     3
100
AcDbCircle
 10
796.3364214954367
 20
997.4827601259416
 30
0.0
 40
6.0
  0
CIRCLE
  5
2588
330
1D9B
100
AcDbEntity
  8
1
 62
     7
100
AcDbCircle
 10
796.3364214954367
 20
997.4827601259416
 30
0.0
 40
4.800000000000236
  0
CIRCLE
  5
2589
330
1D9B
100
AcDbEntity
  8
1
 62
     7
100
AcDbCircle
 10
771.0113515983265
 20
989.8004841605294
 30
0.0
 40
7.000000000000076
  0
CIRCLE
  5
258A
330
1D9B
100
AcDbEntity
  8
1
 62
     7
100
AcDbCircle
 10
727.2141995074301
 20
960.5361627316893
 30
0.0
 40
7.000000000000039
  0
ARC
  5
258B
330
1D9B
100
AcDbEntity
  8
1
 62
     7
100
AcDbCircle
 10
822.6736149676138
 20
865.0767472715054
 30
0.0
 40
102.6149999999999
100
AcDbArc
 50
110.8605532096144
 51
116.0959685295219
  0
ARC
  5
258C
330
1D9B
100
AcDbEntity
  8
1
 62
     7
100
AcDbCircle
 10
796.9768214987632
 20
956.7898043049465
 30
0.0
 40
11.61999999999997
100
AcDbArc
 50
331.6969201833582
 51
52.36393412752616
  0
ARC
  5
258D
330
1D9B
100
AcDbEntity
  8
1
 62
     7
100
AcDbCircle
 10
822.6736149676138
 20
865.0767472715054
 30
0.0
 40
102.6149999999999
100
AcDbArc
 50
126.512727122653
 51
127.2393207088259
  0
ARC
  5
258E
330
1D9B
100
AcDbEntity
  8
1
 62
     7
100
AcDbCircle
 10
796.9768214987632
 20
956.7898043049465
 30
0.0
 40
10.71562500000005
100
AcDbArc
 50
311.4579215099426
 51
78.95800816760338
  0
LINE
  5
258F
330
1D9B
100
AcDbEntity
  8
1
  6
DASHDOT
 62
     3
100
AcDbLine
 10
798.3848698766061
 20
987.1845146817078
 30
0.0
 11
794.2879731142673
 21
1007.781005570175
 31
0.0
  0
LINE
  5
2590
330
1D9B
100
AcDbEntity
  8
1
  6
DASHDOT
 62
     3
100
AcDbLine
 10
766.9931755584933
 20
999.5012192518979
 30
0.0
 11
775.02952763816
 21
980.0997490691607
 31
0.0
  0
LINE
  5
2591
330
1D9B
100
AcDbEntity
  8
1
  6
DASHDOT
 62
     3
100
AcDbLine
 10
734.6388207098889
 20
953.1115415292306
 30
0.0
 11
719.7895783049713
 21
967.960783934148
 31
0.0
  0
ARC
  5
2592
330
1D9B
100
AcDbEntity
  8
1
 62
     7
100
AcDbCircle
 10
848.3704084364644
 20
956.7898043049465
 30
0.0
 40
11.61999999999989
100
AcDbArc
 50
300.3925723572657
 51
21.05958630144283
  0
ARC
  5
2593
330
1D9B
100
AcDbEntity
  8
1
 62
     7
100
AcDbCircle
 10
822.6736149676138
 20
865.0767472715054
 30
0.0
 40
87.57999999999993
100
AcDbArc
 50
64.17649985775558
 51
68.86697840311113
  0
ARC
  5
2594
330
1D9B
100
AcDbEntity
  8
1
 62
     7
100
AcDbCircle
 10
872.1613882887389
 20
946.4559234575357
 30
0.0
 40
11.62000000000001
100
AcDbArc
 50
111.9838919594277
 51
192.6509059035983
  0
ARC
  5
2595
330
1D9B
100
AcDbEntity
  8
1
 62
     7
100
AcDbCircle
 10
822.6736149676138
 20
865.0767472715054
 30
0.0
 40
102.6149999999999
100
AcDbArc
 50
48.25185755743891
 51
53.48727287734689
  0
ARC
  5
2596
330
1D9B
100
AcDbEntity
  8
1
 62
     7
100
AcDbCircle
 10
872.1613882887389
 20
946.4559234575357
 30
0.0
 40
11.62000000000001
100
AcDbArc
 50
284.7403984442224
 51
5.407412388391382
  0
ARC
  5
2597
330
1D9B
100
AcDbEntity
  8
1
 62
     7
100
AcDbCircle
 10
872.1613882887389
 20
946.4559234575357
 30
0.0
 40
10.71562499999997
100
AcDbArc
 50
85.3898179193524
 51
212.8899045770106
  0
ARC
  5
2598
330
1D9B
100
AcDbEntity
  8
1
 62
     7
100
AcDbCircle
 10
872.1613882887389
 20
946.4559234575357
 30
0.0
 40
10.71562500000001
100
AcDbArc
 50
264.5013997708155
 51
32.00148642847087
  0
ARC
  5
2599
330
1D9B
100
AcDbEntity
  8
1
 62
     7
100
AcDbCircle
 10
848.3704084364644
 20
956.7898043049465
 30
0.0
 40
10.71562499999998
100
AcDbArc
 50
280.1535736838579
 51
47.65366034151576
  0
LINE
  5
259A
330
1D9B
100
AcDbEntity
  8
1
  6
CENTER
 62
     3
100
AcDbLine
 10
822.6736149676138
 20
1035.708461064021
 30
0.0
 11
822.6736149676138
 21
851.0767472715052
 31
0.0
  0
ARC
  5
259B
330
1D9B
100
AcDbEntity
  8
1
 62
     7
100
AcDbCircle
 10
907.2402425943481
 20
908.8956417902091
 30
0.0
 40
11.61999999999997
100
AcDbArc
 50
253.436050618139
 51
334.1030645623088
  0
ARC
  5
259C
330
1D9B
100
AcDbEntity
  8
1
 62
     7
100
AcDbCircle
 10
915.9264788989164
 20
884.4549152347036
 30
0.0
 40
11.62000000000005
100
AcDbArc
 50
65.02737022029847
 51
145.6943841644708
  0
ARC
  5
259D
330
1D9B
100
AcDbEntity
  8
1
 62
     7
100
AcDbCircle
 10
915.9264788989164
 20
884.4549152347036
 30
0.0
 40
11.61999999999989
100
AcDbArc
 50
237.7838767050919
 51
318.4508906492657
  0
ARC
  5
259E
330
1D9B
100
AcDbEntity
  8
1
 62
     7
100
AcDbCircle
 10
917.6965768891669
 20
858.5769986105875
 30
0.0
 40
11.62000000000001
100
AcDbArc
 50
49.37519630726072
 51
130.0422102514285
  0
ARC
  5
259F
330
1D9B
100
AcDbEntity
  8
1
 62
     7
100
AcDbCircle
 10
917.6965768891669
 20
858.5769986105875
 30
0.0
 40
11.61999999999999
100
AcDbArc
 50
222.1317027920456
 51
302.7987167362203
  0
ARC
  5
25A0
330
1D9B
100
AcDbEntity
  8
1
 62
     7
100
AcDbCircle
 10
912.4192564948211
 20
833.1811386102801
 30
0.0
 40
11.62000000000013
100
AcDbArc
 50
33.72302239421033
 51
114.3900363383814
  0
ARC
  5
25A1
330
1D9B
100
AcDbEntity
  8
1
 62
     7
100
AcDbCircle
 10
917.6965768891669
 20
858.5769986105875
 30
0.0
 40
10.71562500000001
100
AcDbArc
 50
22.78112226718497
 51
150.2812089248391
  0
ARC
  5
25A2
330
1D9B
100
AcDbEntity
  8
1
 62
     7
100
AcDbCircle
 10
915.9264788989164
 20
884.4549152347036
 30
0.0
 40
10.71562499999997
100
AcDbArc
 50
38.43329618022235
 51
165.9333828378778
  0
ARC
  5
25A3
330
1D9B
100
AcDbEntity
  8
1
 62
     7
100
AcDbCircle
 10
917.6965768891669
 20
858.5769986105875
 30
0.0
 40
10.71562499999999
100
AcDbArc
 50
201.8927041186378
 51
329.3927907762961
  0
ARC
  5
25A4
330
1D9B
100
AcDbEntity
  8
1
 62
     7
100
AcDbCircle
 10
915.9264788989164
 20
884.4549152347036
 30
0.0
 40
10.71562500000009
100
AcDbArc
 50
217.5448780316827
 51
345.0449646893401
  0
ARC
  5
25A5
330
1D9B
100
AcDbEntity
  8
1
 62
     7
100
AcDbCircle
 10
907.2402425943481
 20
908.8956417902091
 30
0.0
 40
10.71562499999993
100
AcDbArc
 50
233.1970519447265
 51
0.6971386023814014
  0
ARC
  5
25A6
330
1D9B
100
AcDbEntity
  8
1
 62
     7
100
AcDbCircle
 10
822.6736149676138
 20
865.0767472715054
 30
0.0
 40
87.57999999999993
100
AcDbArc
 50
48.52432594471228
 51
53.21480449006501
  0
ARC
  5
25A7
330
1D9B
100
AcDbEntity
  8
1
 62
     7
100
AcDbCircle
 10
892.2820863852839
 20
930.086521397366
 30
0.0
 40
11.62000000000008
100
AcDbArc
 50
96.33171804638852
 51
176.9987319905581
  0
ARC
  5
25A8
330
1D9B
100
AcDbEntity
  8
1
 62
     7
100
AcDbCircle
 10
822.6736149676138
 20
865.0767472715054
 30
0.0
 40
102.6149999999999
100
AcDbArc
 50
32.59968364439997
 51
37.83509896429998
  0
ARC
  5
25A9
330
1D9B
100
AcDbEntity
  8
1
 62
     7
100
AcDbCircle
 10
892.2820863852839
 20
930.086521397366
 30
0.0
 40
11.61999999999994
100
AcDbArc
 50
269.0882245311793
 51
349.7552384753557
  0
ARC
  5
25AA
330
1D9B
100
AcDbEntity
  8
1
 62
     7
100
AcDbCircle
 10
822.6736149676138
 20
865.0767472715054
 30
0.0
 40
87.58000000000004
100
AcDbArc
 50
32.87215203167437
 51
37.56263057702173
  0
ARC
  5
25AB
330
1D9B
100
AcDbEntity
  8
1
 62
     7
100
AcDbCircle
 10
907.2402425943481
 20
908.8956417902091
 30
0.0
 40
11.62000000000001
100
AcDbArc
 50
80.67954413334687
 51
161.3465580775122
  0
ARC
  5
25AC
330
1D9B
100
AcDbEntity
  8
1
 62
     7
100
AcDbCircle
 10
822.6736149676138
 20
865.0767472715054
 30
0.0
 40
87.57999999999995
100
AcDbArc
 50
17.21997811862379
 51
21.91045666398118
  0
ARC
  5
25AD
330
1D9B
100
AcDbEntity
  8
1
 62
     7
100
AcDbCircle
 10
822.6736149676138
 20
865.0767472715054
 30
0.0
 40
87.58000000000004
100
AcDbArc
 50
1.567804205587202
 51
6.258282750941147
  0
ARC
  5
25AE
330
1D9B
100
AcDbEntity
  8
1
 62
     7
100
AcDbCircle
 10
822.6736149676138
 20
865.0767472715054
 30
0.0
 40
87.58000000000004
100
AcDbArc
 50
345.9156302925395
 51
350.6061088378925
  0
ARC
  5
25AF
330
1D9B
100
AcDbEntity
  8
1
 62
     7
100
AcDbCircle
 10
907.2402425943481
 20
908.8956417902091
 30
0.0
 40
10.71562499999999
100
AcDbArc
 50
54.08547009327038
 51
181.5855567509203
  0
ARC
  5
25B0
330
1D9B
100
AcDbEntity
  8
1
 62
     7
100
AcDbCircle
 10
892.2820863852839
 20
930.086521397366
 30
0.0
 40
10.71562499999999
100
AcDbArc
 50
69.73764400631374
 51
197.237730663964
  0
ARC
  5
25B1
330
1D9B
100
AcDbEntity
  8
1
 62
     7
100
AcDbCircle
 10
892.2820863852839
 20
930.086521397366
 30
0.0
 40
10.71562500000001
100
AcDbArc
 50
248.849225857771
 51
16.34931251542899
  0
ARC
  5
25B2
330
1D9B
100
AcDbEntity
  8
1
 62
     7
100
AcDbCircle
 10
822.6736149676138
 20
865.0767472715054
 30
0.0
 40
14.0
100
AcDbArc
 50
270.0
 51
0.0
  0
ARC
  5
25B3
330
1D9B
100
AcDbEntity
  8
1
 62
     7
100
AcDbCircle
 10
822.6736149676138
 20
865.0767472715054
 30
0.0
 40
14.0
100
AcDbArc
 50
0.0
 51
73.39845040098246
  0
LINE
  5
25B4
330
1D9B
100
AcDbEntity
  8
1
 62
     7
100
AcDbLine
 10
818.6736149676139
 20
882.3767472715056
 30
0.0
 11
826.6736149676139
 21
882.3767472715056
 31
0.0
  0
LINE
  5
25B5
330
1D9B
100
AcDbEntity
  8
1
 62
     7
100
AcDbLine
 10
818.6736149676139
 20
882.3767472715056
 30
0.0
 11
818.6736149676139
 21
878.4931551365041
 31
0.0
  0
LINE
  5
25B6
330
1D9B
100
AcDbEntity
  8
1
 62
     7
100
AcDbLine
 10
826.6736149676139
 20
882.3767472715056
 30
0.0
 11
826.6736149676139
 21
878.4931551365041
 31
0.0
  0
CIRCLE
  5
25B7
330
1D9B
100
AcDbEntity
  8
1
 62
     7
100
AcDbCircle
 10
947.3973518566376
 20
916.7390106407927
 30
0.0
 40
7.000000000000068
  0
CIRCLE
  5
25B8
330
1D9B
100
AcDbEntity
  8
1
 62
     7
100
AcDbCircle
 10
957.673614967614
 20
865.0767472715054
 30
0.0
 40
7.0
  0
ARC
  5
25B9
330
1D9B
100
AcDbEntity
  8
1
 62
     7
100
AcDbCircle
 10
822.6736149676138
 20
865.0767472715054
 30
0.0
 40
102.6149999999999
100
AcDbArc
 50
16.9475097313557
 51
22.18292505125704
  0
ARC
  5
25BA
330
1D9B
100
AcDbEntity
  8
1
 62
     7
100
AcDbCircle
 10
822.6736149676138
 20
865.0767472715054
 30
0.0
 40
102.6149999999999
100
AcDbArc
 50
1.295335818306232
 51
6.530751138214797
  0
ARC
  5
25BB
330
1D9B
100
AcDbEntity
  8
1
 62
     7
100
AcDbCircle
 10
822.6736149676138
 20
865.0767472715054
 30
0.0
 40
102.6149999999999
100
AcDbArc
 50
345.6431619052684
 51
350.878577225169
  0
LINE
  5
25BC
330
1D9B
100
AcDbEntity
  8
1
  6
DASHDOT
 62
     3
100
AcDbLine
 10
957.0980869480061
 20
920.757186680626
 30
0.0
 11
937.6966167652692
 21
912.7208346009592
 31
0.0
  0
CIRCLE
  5
25BD
330
1D9B
100
AcDbEntity
  8
1
 62
     7
100
AcDbCircle
 10
918.1330304277977
 20
960.5361627316893
 30
0.0
 40
7.000000000000039
  0
LINE
  5
25BE
330
1D9B
100
AcDbEntity
  8
1
  6
DASHDOT
 62
     3
100
AcDbLine
 10
925.5576516302566
 20
967.960783934148
 30
0.0
 11
910.7084092253389
 21
953.1115415292306
 31
0.0
  0
CIRCLE
  5
25BF
330
1D9B
100
AcDbEntity
  8
1
 62
     7
100
AcDbCircle
 10
874.3358783369011
 20
989.800484160529
 30
0.0
 40
7.000000000000071
  0
CIRCLE
  5
25C0
330
1D9B
100
AcDbEntity
  8
1
 62
     7
100
AcDbCircle
 10
822.6736149676138
 20
1000.076747271505
 30
0.0
 40
7.0
  0
ARC
  5
25C1
330
1D9B
100
AcDbEntity
  8
1
 62
     7
100
AcDbCircle
 10
822.6736149676138
 20
865.0767472715054
 30
0.0
 40
102.6149999999999
100
AcDbArc
 50
79.5562053835232
 51
84.79162070342978
  0
ARC
  5
25C2
330
1D9B
100
AcDbEntity
  8
1
 62
     7
100
AcDbCircle
 10
822.6736149676138
 20
960.3217472715053
 30
0.0
 40
11.62000000000012
100
AcDbArc
 50
316.0447462703067
 51
36.71176021447924
  0
ARC
  5
25C3
330
1D9B
100
AcDbEntity
  8
1
 62
     7
100
AcDbCircle
 10
822.6736149676138
 20
865.0767472715054
 30
0.0
 40
87.5799999999999
100
AcDbArc
 50
79.82867377079997
 51
84.51915231615677
  0
ARC
  5
25C4
330
1D9B
100
AcDbEntity
  8
1
 62
     7
100
AcDbCircle
 10
848.3704084364644
 20
956.7898043049465
 30
0.0
 40
11.62000000000012
100
AcDbArc
 50
127.6360658724738
 51
208.3030798166418
  0
ARC
  5
25C5
330
1D9B
100
AcDbEntity
  8
1
 62
     7
100
AcDbCircle
 10
822.6736149676138
 20
865.0767472715054
 30
0.0
 40
102.6149999999999
100
AcDbArc
 50
63.90403147047805
 51
69.1394467903855
  0
ARC
  5
25C6
330
1D9B
100
AcDbEntity
  8
1
 62
     7
100
AcDbCircle
 10
822.6736149676138
 20
960.3217472715053
 30
0.0
 40
10.71562500000007
100
AcDbArc
 50
295.8057475968999
 51
63.30583425455499
  0
ARC
  5
25C7
330
1D9B
100
AcDbEntity
  8
1
 62
     7
100
AcDbCircle
 10
822.6736149676138
 20
960.3217472715053
 30
0.0
 40
10.71562499999997
100
AcDbArc
 50
116.694165745445
 51
244.1942524030999
  0
ARC
  5
25C8
330
1D9B
100
AcDbEntity
  8
1
 62
     7
100
AcDbCircle
 10
848.3704084364644
 20
956.7898043049465
 30
0.0
 40
10.71562500000007
100
AcDbArc
 50
101.0419918323966
 51
228.5420784900573
  0
LINE
  5
25C9
330
1D9B
100
AcDbEntity
  8
1
  6
DASHDOT
 62
     3
100
AcDbLine
 10
878.3540543767346
 20
999.5012192518977
 30
0.0
 11
870.3177022970676
 21
980.0997490691607
 31
0.0
  0
INSERT
  5
25D3
330
1D9B
100
AcDbEntity
  8
AM_0
100
AcDbBlockReference
  2
HD LLC
 10
896.8649369441493
 20
356.5392304852719
 30
0.0
 41
3.479546157697132
 42
3.479546157697132
 43
3.479546157697132
  0
INSERT
  5
25DF
330
1D9B
100
AcDbEntity
  8
AM_0
100
AcDbBlockReference
  2
HD logo-new
 10
618.9112436826187
 20
370.3412299896319
 30
0.0
 41
2.970212027979094
 42
2.970212027979094
 43
2.970212027979094
  0
INSERT
  5
25EC
330
1D9B
100
AcDbEntity
  8
AM_0
100
AcDbBlockReference
  2
NTC
 10
-67.67390190901932
 20
478.24983641553
 30
0.0
 41
1.7
 42
1.7
 43
1.7
  0
ENDSEC
  0
SECTION
  2
OBJECTS
  0
DICTIONARY
  5
1D89
330
0
100
AcDbDictionary
281
     1
  3
ACAD_GROUP
350
1D8A
  3
ACAD_LAYOUT
350
1D96
  3
ACAD_MLINESTYLE
350
1D93
  3
ACAD_PLOTSETTINGS
350
1D95
  3
ACAD_PLOTSTYLENAME
350
1D8B
  3
AcDbVariableDictionary
350
20C9
  0
DICTIONARY
  5
1D8A
102
{ACAD_REACTORS
330
1D89
102
}
330
1D89
100
AcDbDictionary
281
     1
  0
DICTIONARY
  5
1D96
102
{ACAD_REACTORS
330
1D89
102
}
330
1D89
100
AcDbDictionary
281
     1
  3
Layout1
350
1D9A
  3
Model
350
1D9E
  0
DICTIONARY
  5
1D93
102
{ACAD_REACTORS
330
1D89
102
}
330
1D89
100
AcDbDictionary
281
     1
  3
Standard
350
1D94
  0
DICTIONARY
  5
1D95
102
{ACAD_REACTORS
330
1D89
102
}
330
1D89
100
AcDbDictionary
281
     1
  0
ACDBDICTIONARYWDFLT
  5
1D8B
102
{ACAD_REACTORS
330
1D89
102
}
330
1D89
100
AcDbDictionary
281
     1
  3
Normal
350
1D8C
100
AcDbDictionaryWithDefault
340
1D8C
  0
DICTIONARY
  5
20C9
102
{ACAD_REACTORS
330
1D89
102
}
330
1D89
100
AcDbDictionary
281
     1
  3
DIMASSOC
350
20CA
  0
LAYOUT
  5
1D9A
102
{ACAD_REACTORS
330
1D96
102
}
330
1D96
100
AcDbPlotSettings
  1

  2
\\SERVER9\HP LaserJet 5100 PCL 5e
  4

  6

 40
0.0
 41
0.0
 42
0.0
 43
0.0
 44
0.0
 45
0.0
 46
0.0
 47
0.0
 48
0.0
 49
0.0
140
0.0
141
0.0
142
1.0
143
1.0
 70
   688
 72
     0
 73
     0
 74
     5
  7

 75
    16
147
1.0
148
0.0
149
0.0
100
AcDbLayout
  1
Layout1
 70
     1
 71
     1
 10
0.0
 20
0.0
 11
420.0
 21
297.0
 12
0.0
 22
0.0
 32
0.0
 14
1.000000000000000E+20
 24
1.000000000000000E+20
 34
1.000000000000000E+20
 15
-1.000000000000000E+20
 25
-1.000000000000000E+20
 35
-1.000000000000000E+20
146
0.0
 13
0.0
 23
0.0
 33
0.0
 16
1.0
 26
0.0
 36
0.0
 17
0.0
 27
1.0
 37
0.0
 76
     0
330
1D97
  0
LAYOUT
  5
1D9E
102
{ACAD_REACTORS
330
1D96
102
}
330
1D96
100
AcDbPlotSettings
  1

  2
\\SERVER9\HP LaserJet 5100 PCL 5e
  4

  6

 40
0.0
 41
0.0
 42
0.0
 43
0.0
 44
0.0
 45
0.0
 46
0.0
 47
0.0
 48
0.0
 49
0.0
140
0.0
141
0.0
142
1.0
143
1.0
 70
  1712
 72
     0
 73
     0
 74
     0
  7

 75
     0
147
1.0
148
0.0
149
0.0
100
AcDbLayout
  1
Model
 70
     1
 71
     0
 10
0.0
 20
0.0
 11
12.0
 21
9.0
 12
0.0
 22
0.0
 32
0.0
 14
0.0
 24
0.0
 34
0.0
 15
0.0
 25
0.0
 35
0.0
146
0.0
 13
0.0
 23
0.0
 33
0.0
 16
1.0
 26
0.0
 36
0.0
 17
0.0
 27
1.0
 37
0.0
 76
     0
330
1D9B
  0
MLINESTYLE
  5
1D94
102
{ACAD_REACTORS
330
1D93
102
}
330
1D93
100
AcDbMlineStyle
  2
STANDARD
 70
     0
  3

 62
   256
 51
90.0
 52
90.0
 71
     2
 49
0.5
 62
   256
  6
BYLAYER
 49
-0.5
 62
   256
  6
BYLAYER
  0
ACDBPLACEHOLDER
  5
1D8C
102
{ACAD_REACTORS
330
1D8B
102
}
330
1D8B
  0
DICTIONARYVAR
  5
20CA
102
{ACAD_REACTORS
330
20C9
102
}
330
20C9
100
DictionaryVariables
280
     0
  1
1
  0
ENDSEC
  0
EOF
