  0
SECTION
  2
HEADER
  9
$ACADVER
  1
AC1015
  9
$ACADMAINTVER
 70
    13
  9
$DWGCODEPAGE
  3
ANSI_1252
  9
$INSBASE
 10
0.0
 20
0.0
 30
0.0
  9
$EXTMIN
 10
-1413.881737812639
 20
-449.252861594929
 30
0.0
  9
$EXTMAX
 10
1350.886432154517
 20
997.4317542904882
 30
0.0
  9
$LIMMIN
 10
-106.4134565189452
 20
-94.35005415207092
  9
$LIMMAX
 10
108.9513008200239
 20
40.075
  9
$ORTHOMODE
 70
     0
  9
$REGENMODE
 70
     1
  9
$FILLMODE
 70
     1
  9
$QTEXTMODE
 70
     0
  9
$MIRRTEXT
 70
     1
  9
$LTSCALE
 40
1.0
  9
$ATTMODE
 70
     1
  9
$TEXTSIZE
 40
3.5
  9
$TRACEWID
 40
0.5
  9
$TEXTSTYLE
  7
STANDARD
  9
$CLAYER
  8
0
  9
$CELTYPE
  6
ByLayer
  9
$CECOLOR
 62
   256
  9
$CELTSCALE
 40
1.0
  9
$DISPSILH
 70
     0
  9
$DIMSCALE
 40
1.0
  9
$DIMASZ
 40
0.18
  9
$DIMEXO
 40
0.0625
  9
$DIMDLI
 40
0.38
  9
$DIMRND
 40
0.0
  9
$DIMDLE
 40
0.0
  9
$DIMEXE
 40
0.18
  9
$DIMTP
 40
0.0
  9
$DIMTM
 40
0.0
  9
$DIMTXT
 40
0.18
  9
$DIMCEN
 40
0.09
  9
$DIMTSZ
 40
0.0
  9
$DIMTOL
 70
     0
  9
$DIMLIM
 70
     0
  9
$DIMTIH
 70
     1
  9
$DIMTOH
 70
     1
  9
$DIMSE1
 70
     0
  9
$DIMSE2
 70
     0
  9
$DIMTAD
 70
     0
  9
$DIMZIN
 70
     0
  9
$DIMBLK
  1

  9
$DIMASO
 70
     1
  9
$DIMSHO
 70
     1
  9
$DIMPOST
  1

  9
$DIMAPOST
  1

  9
$DIMALT
 70
     0
  9
$DIMALTD
 70
     2
  9
$DIMALTF
 40
25.4
  9
$DIMLFAC
 40
1.0
  9
$DIMTOFL
 70
     0
  9
$DIMTVP
 40
0.0
  9
$DIMTIX
 70
     0
  9
$DIMSOXD
 70
     0
  9
$DIMSAH
 70
     0
  9
$DIMBLK1
  1

  9
$DIMBLK2
  1

  9
$DIMSTYLE
  2
Standard
  9
$DIMCLRD
 70
     0
  9
$DIMCLRE
 70
     0
  9
$DIMCLRT
 70
     0
  9
$DIMTFAC
 40
1.0
  9
$DIMGAP
 40
0.09
  9
$DIMJUST
 70
     0
  9
$DIMSD1
 70
     0
  9
$DIMSD2
 70
     0
  9
$DIMTOLJ
 70
     1
  9
$DIMTZIN
 70
     0
  9
$DIMALTZ
 70
     0
  9
$DIMALTTZ
 70
     0
  9
$DIMUPT
 70
     0
  9
$DIMDEC
 70
     4
  9
$DIMTDEC
 70
     4
  9
$DIMALTU
 70
     2
  9
$DIMALTTD
 70
     2
  9
$DIMTXSTY
  7
STANDARD
  9
$DIMAUNIT
 70
     0
  9
$DIMADEC
 70
     0
  9
$DIMALTRND
 40
0.0
  9
$DIMAZIN
 70
     0
  9
$DIMDSEP
 70
    46
  9
$DIMATFIT
 70
     3
  9
$DIMFRAC
 70
     0
  9
$DIMLDRBLK
  1

  9
$DIMLUNIT
 70
     2
  9
$DIMLWD
 70
    -2
  9
$DIMLWE
 70
    -2
  9
$DIMTMOVE
 70
     0
  9
$LUNITS
 70
     2
  9
$LUPREC
 70
     4
  9
$SKETCHINC
 40
0.1
  9
$FILLETRAD
 40
2.0
  9
$AUNITS
 70
     0
  9
$AUPREC
 70
     0
  9
$MENU
  1
ACAD
  9
$ELEVATION
 40
0.0
  9
$PELEVATION
 40
0.0
  9
$THICKNESS
 40
0.0
  9
$LIMCHECK
 70
     0
  9
$CHAMFERA
 40
0.0
  9
$CHAMFERB
 40
0.0
  9
$CHAMFERC
 40
0.0
  9
$CHAMFERD
 40
0.0
  9
$SKPOLY
 70
     0
  9
$TDCREATE
 40
2453838.511477500
  9
$TDUCREATE
 40
2453838.678144166
  9
$TDUPDATE
 40
2453860.610131111
  9
$TDUUPDATE
 40
2453860.776797778
  9
$TDINDWG
 40
0.0057499537
  9
$TDUSRTIMER
 40
0.0057497801
  9
$USRTIMER
 70
     1
  9
$ANGBASE
 50
0.0
  9
$ANGDIR
 70
     0
  9
$PDMODE
 70
     0
  9
$PDSIZE
 40
0.0
  9
$PLINEWID
 40
0.0
  9
$SPLFRAME
 70
     0
  9
$SPLINETYPE
 70
     6
  9
$SPLINESEGS
 70
     8
  9
$HANDSEED
  5
475
  9
$SURFTAB1
 70
     6
  9
$SURFTAB2
 70
     6
  9
$SURFTYPE
 70
     6
  9
$SURFU
 70
     6
  9
$SURFV
 70
     6
  9
$UCSBASE
  2

  9
$UCSNAME
  2

  9
$UCSORG
 10
0.0
 20
0.0
 30
0.0
  9
$UCSXDIR
 10
1.0
 20
0.0
 30
0.0
  9
$UCSYDIR
 10
0.0
 20
1.0
 30
0.0
  9
$UCSORTHOREF
  2

  9
$UCSORTHOVIEW
 70
     0
  9
$UCSORGTOP
 10
0.0
 20
0.0
 30
0.0
  9
$UCSORGBOTTOM
 10
0.0
 20
0.0
 30
0.0
  9
$UCSORGLEFT
 10
0.0
 20
0.0
 30
0.0
  9
$UCSORGRIGHT
 10
0.0
 20
0.0
 30
0.0
  9
$UCSORGFRONT
 10
0.0
 20
0.0
 30
0.0
  9
$UCSORGBACK
 10
0.0
 20
0.0
 30
0.0
  9
$PUCSBASE
  2

  9
$PUCSNAME
  2

  9
$PUCSORG
 10
0.0
 20
0.0
 30
0.0
  9
$PUCSXDIR
 10
1.0
 20
0.0
 30
0.0
  9
$PUCSYDIR
 10
0.0
 20
1.0
 30
0.0
  9
$PUCSORTHOREF
  2

  9
$PUCSORTHOVIEW
 70
     0
  9
$PUCSORGTOP
 10
0.0
 20
0.0
 30
0.0
  9
$PUCSORGBOTTOM
 10
0.0
 20
0.0
 30
0.0
  9
$PUCSORGLEFT
 10
0.0
 20
0.0
 30
0.0
  9
$PUCSORGRIGHT
 10
0.0
 20
0.0
 30
0.0
  9
$PUCSORGFRONT
 10
0.0
 20
0.0
 30
0.0
  9
$PUCSORGBACK
 10
0.0
 20
0.0
 30
0.0
  9
$USERI1
 70
     0
  9
$USERI2
 70
     0
  9
$USERI3
 70
     0
  9
$USERI4
 70
     0
  9
$USERI5
 70
     0
  9
$USERR1
 40
0.0
  9
$USERR2
 40
0.0
  9
$USERR3
 40
0.0
  9
$USERR4
 40
0.0
  9
$USERR5
 40
0.0
  9
$WORLDVIEW
 70
     1
  9
$SHADEDGE
 70
     3
  9
$SHADEDIF
 70
    70
  9
$TILEMODE
 70
     1
  9
$MAXACTVP
 70
    64
  9
$PINSBASE
 10
0.0
 20
0.0
 30
0.0
  9
$PLIMCHECK
 70
     0
  9
$PEXTMIN
 10
1.000000000000000E+20
 20
1.000000000000000E+20
 30
1.000000000000000E+20
  9
$PEXTMAX
 10
-1.000000000000000E+20
 20
-1.000000000000000E+20
 30
-1.000000000000000E+20
  9
$PLIMMIN
 10
0.0
 20
0.0
  9
$PLIMMAX
 10
12.0
 20
9.0
  9
$UNITMODE
 70
     0
  9
$VISRETAIN
 70
     1
  9
$PLINEGEN
 70
     0
  9
$PSLTSCALE
 70
     1
  9
$TREEDEPTH
 70
  3020
  9
$CMLSTYLE
  2
Standard
  9
$CMLJUST
 70
     0
  9
$CMLSCALE
 40
1.0
  9
$PROXYGRAPHICS
 70
     1
  9
$MEASUREMENT
 70
     0
  9
$CELWEIGHT
370
    -1
  9
$ENDCAPS
280
     0
  9
$JOINSTYLE
280
     0
  9
$LWDISPLAY
290
     0
  9
$INSUNITS
 70
     0
  9
$HYPERLINKBASE
  1

  9
$STYLESHEET
  1

  9
$XEDIT
290
     1
  9
$CEPSNTYPE
380
     0
  9
$PSTYLEMODE
290
     1
  9
$FINGERPRINTGUID
  2
{45F50FE1-85D3-445B-9514-5E2DDAC70390}
  9
$VERSIONGUID
  2
{E250DB76-51A3-4421-953A-2F629DABDEFC}
  9
$EXTNAMES
290
     1
  9
$PSVPSCALE
 40
0.0
  9
$OLESTARTUP
290
     0
  0
ENDSEC
  0
SECTION
  2
CLASSES
  0
CLASS
  1
ACDBDICTIONARYWDFLT
  2
AcDbDictionaryWithDefault
  3
AutoCAD 2000
 90
        0
280
     0
281
     0
  0
CLASS
  1
ACDBPLACEHOLDER
  2
AcDbPlaceHolder
  3
AutoCAD 2000
 90
        0
280
     0
281
     0
  0
CLASS
  1
LAYOUT
  2
AcDbLayout
  3
AutoCAD 2000
 90
        0
280
     0
281
     0
  0
CLASS
  1
DICTIONARYVAR
  2
AcDbDictionaryVar
  3
AutoCAD 2000
 90
        0
280
     0
281
     0
  0
ENDSEC
  0
SECTION
  2
TABLES
  0
TABLE
  2
VPORT
  5
8
330
0
100
AcDbSymbolTable
 70
     2
  0
VPORT
  5
474
330
8
100
AcDbSymbolTableRecord
100
AcDbViewportTableRecord
  2
*Active
 70
     0
 10
0.0
 20
0.0
 11
1.0
 21
1.0
 12
-10.91187615153282
 22
-43.75607363909944
 13
0.0
 23
0.0
 14
1.0
 24
1.0
 15
0.0
 25
0.0
 16
0.0
 26
0.0
 36
1.0
 17
0.0
 27
0.0
 37
0.0
 40
218.074463399891
 41
1.182835820895522
 42
50.0
 43
0.0
 44
0.0
 50
0.0
 51
0.0
 71
     0
 72
   100
 73
     1
 74
     1
 75
     0
 76
     0
 77
     0
 78
     0
281
     0
 65
     1
110
0.0
120
0.0
130
0.0
111
1.0
121
0.0
131
0.0
112
0.0
122
1.0
132
0.0
 79
     0
146
0.0
  0
ENDTAB
  0
TABLE
  2
LTYPE
  5
5
330
0
100
AcDbSymbolTable
 70
     9
  0
LTYPE
  5
13
330
5
100
AcDbSymbolTableRecord
100
AcDbLinetypeTableRecord
  2
ByBlock
 70
     0
  3

 72
    65
 73
     0
 40
0.0
  0
LTYPE
  5
14
330
5
100
AcDbSymbolTableRecord
100
AcDbLinetypeTableRecord
  2
ByLayer
 70
     0
  3

 72
    65
 73
     0
 40
0.0
  0
LTYPE
  5
15
330
5
100
AcDbSymbolTableRecord
100
AcDbLinetypeTableRecord
  2
CONTINUOUS
 70
     0
  3
Solid line
 72
    65
 73
     0
 40
0.0
  0
LTYPE
  5
22
330
5
100
AcDbSymbolTableRecord
100
AcDbLinetypeTableRecord
  2
BORDER
 70
     0
  3
__ __ . __ __ .
 72
    65
 73
     6
 40
9.918113824820956
 49
2.833746807091701
 74
     0
 49
-1.41687340354585
 74
     0
 49
2.833746807091701
 74
     0
 49
-1.41687340354585
 74
     0
 49
0.0
 74
     0
 49
-1.41687340354585
 74
     0
  0
LTYPE
  5
23
330
5
100
AcDbSymbolTableRecord
100
AcDbLinetypeTableRecord
  2
CENTER
 70
     0
  3
____ _ ____ _
 72
    65
 73
     4
 40
11.3349872283668
 49
7.084367017729252
 74
     0
 49
-1.41687340354585
 74
     0
 49
1.41687340354585
 74
     0
 49
-1.41687340354585
 74
     0
  0
LTYPE
  5
24
330
5
100
AcDbSymbolTableRecord
100
AcDbLinetypeTableRecord
  2
DASHDOT
 70
     0
  3
__ . __ . __ .
 72
    65
 73
     4
 40
5.667493614183402
 49
2.833746807091701
 74
     0
 49
-1.41687340354585
 74
     0
 49
0.0
 74
     0
 49
-1.41687340354585
 74
     0
  0
LTYPE
  5
25
330
5
100
AcDbSymbolTableRecord
100
AcDbLinetypeTableRecord
  2
DASHED
 70
     0
  3
__ __ __ __ __
 72
    65
 73
     2
 40
4.250620210637551
 49
2.833746807091701
 74
     0
 49
-1.41687340354585
 74
     0
  0
LTYPE
  5
26
330
5
100
AcDbSymbolTableRecord
100
AcDbLinetypeTableRecord
  2
DIVIDE
 70
     0
  3
__ . . __ . . 
 72
    65
 73
     6
 40
7.084367017729252
 49
2.833746807091701
 74
     0
 49
-1.41687340354585
 74
     0
 49
0.0
 74
     0
 49
-1.41687340354585
 74
     0
 49
0.0
 74
     0
 49
-1.41687340354585
 74
     0
  0
LTYPE
  5
27
330
5
100
AcDbSymbolTableRecord
100
AcDbLinetypeTableRecord
  2
DOT
 70
     0
  3
..............
 72
    65
 73
     4
 40
2.833746807091701
 49
0.0
 74
     0
 49
-1.41687340354585
 74
     0
 49
0.0
 74
     0
 49
-1.41687340354585
 74
     0
  0
LTYPE
  5
28
330
5
100
AcDbSymbolTableRecord
100
AcDbLinetypeTableRecord
  2
HIDDEN
 70
     0
  3
_ _ _ _ _ _ _
 72
    65
 73
     2
 40
2.125310105318774
 49
1.41687340354585
 74
     0
 49
-0.7084367017729253
 74
     0
  0
LTYPE
  5
29
330
5
100
AcDbSymbolTableRecord
100
AcDbLinetypeTableRecord
  2
PHANTOM
 70
     0
  3
_____ _ _ _____ _ _ 
 72
    65
 73
     6
 40
14.1687340354585
 49
7.084367017729252
 74
     0
 49
-1.41687340354585
 74
     0
 49
1.41687340354585
 74
     0
 49
-1.41687340354585
 74
     0
 49
1.41687340354585
 74
     0
 49
-1.41687340354585
 74
     0
  0
ENDTAB
  0
TABLE
  2
LAYER
  5
2
330
0
100
AcDbSymbolTable
 70
     3
  0
LAYER
  5
10
330
2
100
AcDbSymbolTableRecord
100
AcDbLayerTableRecord
  2
0
 70
     0
 62
     7
  6
CONTINUOUS
370
    -3
390
F
  0
LAYER
  5
2A
330
2
100
AcDbSymbolTableRecord
100
AcDbLayerTableRecord
  2
1
 70
     0
 62
     7
  6
CONTINUOUS
370
    -3
390
F
  0
LAYER
  5
459
330
2
100
AcDbSymbolTableRecord
100
AcDbLayerTableRecord
  2
LAYER_1
 70
     0
 62
     5
  6
CONTINUOUS
370
    -3
390
F
  0
ENDTAB
  0
TABLE
  2
STYLE
  5
3
330
0
100
AcDbSymbolTable
 70
     4
  0
STYLE
  5
11
330
3
100
AcDbSymbolTableRecord
100
AcDbTextStyleTableRecord
  2
STANDARD
 70
     0
 40
0.0
 41
1.0
 50
0.0
 71
     0
 42
3.5
  3
txt
  4

  0
STYLE
  5
2B
330
3
100
AcDbSymbolTableRecord
100
AcDbTextStyleTableRecord
  2
SIMPLEX
 70
     0
 40
0.0
 41
1.0
 50
0.0
 71
     0
 42
3.5
  3
simplex
  4

  0
STYLE
  5
2C
330
3
100
AcDbSymbolTableRecord
100
AcDbTextStyleTableRecord
  2
COMPLEX
 70
     0
 40
0.0
 41
1.0
 50
0.0
 71
     0
 42
3.5
  3
complex
  4

  0
STYLE
  5
2D
330
3
100
AcDbSymbolTableRecord
100
AcDbTextStyleTableRecord
  2
ITALIC
 70
     0
 40
0.0
 41
1.0
 50
0.0
 71
     0
 42
3.5
  3
italic
  4

  0
ENDTAB
  0
TABLE
  2
VIEW
  5
6
330
0
100
AcDbSymbolTable
 70
     0
  0
ENDTAB
  0
TABLE
  2
UCS
  5
7
330
0
100
AcDbSymbolTable
 70
     0
  0
ENDTAB
  0
TABLE
  2
APPID
  5
9
330
0
100
AcDbSymbolTable
 70
     1
  0
APPID
  5
12
330
9
100
AcDbSymbolTableRecord
100
AcDbRegAppTableRecord
  2
ACAD
 70
     0
  0
ENDTAB
  0
TABLE
  2
DIMSTYLE
  5
A
330
0
100
AcDbSymbolTable
 70
     1
100
AcDbDimStyleTable
 71
     0
  0
DIMSTYLE
105
3D9
330
A
100
AcDbSymbolTableRecord
100
AcDbDimStyleTableRecord
  2
Standard
 70
     0
340
11
  0
ENDTAB
  0
TABLE
  2
BLOCK_RECORD
  5
1
330
0
100
AcDbSymbolTable
 70
    19
  0
BLOCK_RECORD
  5
1E
330
1
100
AcDbSymbolTableRecord
100
AcDbBlockTableRecord
  2
*Model_Space
340
21
  0
BLOCK_RECORD
  5
1A
330
1
100
AcDbSymbolTableRecord
100
AcDbBlockTableRecord
  2
*Paper_Space
340
1D
  0
BLOCK_RECORD
  5
3DA
330
1
100
AcDbSymbolTableRecord
100
AcDbBlockTableRecord
  2
Harmonic Drive LLC
340
0
310
2800000020000000200000000100080000000000000400000000000000000000000000000000000000000000000080000080000000808000800000008000800080800000C0C0C000C0DCC000F0CAA6000020400000206000002080000020A0000020C0000020E00000400000004020000040400000406000004080000040A0
310
000040C0000040E00000600000006020000060400000606000006080000060A0000060C0000060E00000800000008020000080400000806000008080000080A0000080C0000080E00000A0000000A0200000A0400000A0600000A0800000A0A00000A0C00000A0E00000C0000000C0200000C0400000C0600000C0800000C0
310
A00000C0C00000C0E00000E0000000E0200000E0400000E0600000E0800000E0A00000E0C00000E0E00040000000400020004000400040006000400080004000A0004000C0004000E00040200000402020004020400040206000402080004020A0004020C0004020E000404000004040200040404000404060004040800040
310
40A0004040C0004040E00040600000406020004060400040606000406080004060A0004060C0004060E00040800000408020004080400040806000408080004080A0004080C0004080E00040A0000040A0200040A0400040A0600040A0800040A0A00040A0C00040A0E00040C0000040C0200040C0400040C0600040C08000
310
40C0A00040C0C00040C0E00040E0000040E0200040E0400040E0600040E0800040E0A00040E0C00040E0E00080000000800020008000400080006000800080008000A0008000C0008000E00080200000802020008020400080206000802080008020A0008020C0008020E00080400000804020008040400080406000804080
310
008040A0008040C0008040E00080600000806020008060400080606000806080008060A0008060C0008060E00080800000808020008080400080806000808080008080A0008080C0008080E00080A0000080A0200080A0400080A0600080A0800080A0A00080A0C00080A0E00080C0000080C0200080C0400080C0600080C0
310
800080C0A00080C0C00080C0E00080E0000080E0200080E0400080E0600080E0800080E0A00080E0C00080E0E000C0000000C0002000C0004000C0006000C0008000C000A000C000C000C000E000C0200000C0202000C0204000C0206000C0208000C020A000C020C000C020E000C0400000C0402000C0404000C0406000C0
310
408000C040A000C040C000C040E000C0600000C0602000C0604000C0606000C0608000C060A000C060C000C060E000C0800000C0802000C0804000C0806000C0808000C080A000C080C000C080E000C0A00000C0A02000C0A04000C0A06000C0A08000C0A0A000C0A0C000C0A0E000C0C00000C0C02000C0C04000C0C06000
310
C0C08000C0C0A000F0FBFF00A4A0A000808080000000FF0000FF000000FFFF00FF000000FF00FF00FFFF0000FFFFFF00FFFFFFFFFFFFFFFFFFFFFFFFFFFFFFFFFFFFFFFFFFFFFFFFFFFFFFFFFFFFFFFFFFFFFFFFFFFFFFFFFFFFFFFFFFFFFFFFFFFFFFFFFFFFFFFFFFFFFFFFFFFFFFFFFFFFFFFFFFFFFFFFFFFFFFFFFFFFFF
310
FFFFFFFFFFFFFFFFFFFFFFFFFFFFFFFFFFFFFFFFFFFFFFFFFFFFFFFFFFFFFFFFFFFFFFFFFFFFFFFFFFFFFFFFFFFFFFFFFFFFFFFFFFFFFFFFFFFFFFFFFFFFFFFFFFFFFFFFFFFFFFFFFFFFFFFFFFFFFFFFFFFFFFFFFFFFFFFFFFFFFFFFFFFFFFFFFFFFFFFFFFFFFFFFFFFFFFFFFFFFFFFFFFFFFFFFFFFFFFFFFFFFFFFFFFFFFF
310
FFFFFFFFFFFFFFFFFFFFFFFFFFFFFFFFFFFFFFFFFFFFFFFFFFFFFFFFFFFFFFFFFFFFFFFFFFFFFFFFFFFFFFFFFFFFFFFFFFFFFFFFFFFFFFFFFFFFFFFFFFFFFFFFFFFFFFFFFFFFFFFFFFFFFFFFFFFFFFFFFFFFFFFFFFFFFFFFFFFFFFFFFFFFFFFFFFFFFFFFFFFFFFFFFFFFFFFFFFFFFFFFFFFFFFFFFFFFFFFFFFFFFFFFFFFFFF
310
FFFFFFFFFFFFFFFFFFFFFFFFFFFFFFFFFFFFFFFFFFFFFFFFFFFFFFFFFFFFFFFFFFFFFFFFFFFFFFFFFFFFFFFFFFFFFFFFFFFFFFFFFFFFFFFFFFFFFFFFFFFFFFFFFFFFFFFFFFFFFFFFFFFFFFFFFFFFFFFFFFFFFFFFFFFFFF000000000000000000000000000000000000000000000000FFFFFFFFFFFFFFFF0000000000000000
310
00000000000000000000000000000000FFFFFFFFFFFFFFFFFFFFFFFF00000000FF00000000FF000000000000FFFFFFFFFFFFFFFFFFFFFFFFFFFFFFFF00000000000000000000000000000000FFFFFFFFFFFFFFFFFFFFFFFFFF00000000000000000000FF000000000000FF00000000FFFFFFFFFFFFFFFFFFFF000000000000
310
00000000FF000000000000FF00000000FFFFFFFFFFFFFFFFFFFFFFFFFFFFFFFFFFFFFFFFFFFFFFFFFFFFFFFFFFFFFFFFFFFFFFFFFFFFFFFFFFFFFFFFFFFFFFFFFFFFFFFFFFFFFFFFFFFFFFFFFFFFFFFFFFFFFFFFFFFFFFFFFFFFFFFFFFFFFFFFFFFFFFFFFFFFFFFFFFFFFFFFFFFFFFFFFFFFFFFFFFFFFFFFFFFFFFFFFFFFFF
310
FFFFFFFFFFFFFFFFFFFFFFFFFFFFFFFFFFFFFFFFFFFFFFFFFFFFFFFFFFFFFFFFFFFFFFFFFFFFFFFFFFFFFFFFFFFFFFFFFFFFFFFFFFFFFFFFFFFFFFFFFFFFFFFFFFFFFFFFFFFFFFFFFFFFFFFFFFFFFFFFFFFFFFFFFFFFFFFFFFFFFFFFFFFFFFFFFFFFFFFFFFFFFFFFFFFFFFFFFFFFFFFFFFFFFFFFFFFFFFFFFFFFFFFFFFFFFF
310
FFFFFFFFFFFFFFFFFFFFFFFFFFFFFFFFFFFFFFFFFFFFFFFFFFFFFFFFFFFFFFFFFFFFFFFFFFFFFFFFFFFFFFFFFFFFFFFFFFFFFFFFFFFFFFFFFFFFFFFFFFFFFFFFFFFFFFFFFFFFFFFFFFFFFFFFFFFFFFFFFFFFFFFFFFFFFFFFFFFFFFFFFFFFFFFFFFFFFFFFFFFFFFFFFFFFFFFFFFFFFFFFFFFFFFFFFFFFFFFFFFFFFFFFFFFFFF
310
FFFFFFFFFFFFFFFFFFFFFFFFFFFFFFFFFFFFFFFFFFFFFFFFFFFFFFFFFFFFFFFFFFFFFFFFFFFFFFFFFFFFFFFFFFFFFFFFFFFFFFFFFFFFFFFF
102
{BLKREFS
331
3DF
331
3E3
102
}
  0
BLOCK_RECORD
  5
3ED
330
1
100
AcDbSymbolTableRecord
100
AcDbBlockTableRecord
  2
AI9-BLK14
340
0
310
2800000020000000200000000100080000000000000400000000000000000000000000000000000000000000000080000080000000808000800000008000800080800000C0C0C000C0DCC000F0CAA6000020400000206000002080000020A0000020C0000020E00000400000004020000040400000406000004080000040A0
310
000040C0000040E00000600000006020000060400000606000006080000060A0000060C0000060E00000800000008020000080400000806000008080000080A0000080C0000080E00000A0000000A0200000A0400000A0600000A0800000A0A00000A0C00000A0E00000C0000000C0200000C0400000C0600000C0800000C0
310
A00000C0C00000C0E00000E0000000E0200000E0400000E0600000E0800000E0A00000E0C00000E0E00040000000400020004000400040006000400080004000A0004000C0004000E00040200000402020004020400040206000402080004020A0004020C0004020E000404000004040200040404000404060004040800040
310
40A0004040C0004040E00040600000406020004060400040606000406080004060A0004060C0004060E00040800000408020004080400040806000408080004080A0004080C0004080E00040A0000040A0200040A0400040A0600040A0800040A0A00040A0C00040A0E00040C0000040C0200040C0400040C0600040C08000
310
40C0A00040C0C00040C0E00040E0000040E0200040E0400040E0600040E0800040E0A00040E0C00040E0E00080000000800020008000400080006000800080008000A0008000C0008000E00080200000802020008020400080206000802080008020A0008020C0008020E00080400000804020008040400080406000804080
310
008040A0008040C0008040E00080600000806020008060400080606000806080008060A0008060C0008060E00080800000808020008080400080806000808080008080A0008080C0008080E00080A0000080A0200080A0400080A0600080A0800080A0A00080A0C00080A0E00080C0000080C0200080C0400080C0600080C0
310
800080C0A00080C0C00080C0E00080E0000080E0200080E0400080E0600080E0800080E0A00080E0C00080E0E000C0000000C0002000C0004000C0006000C0008000C000A000C000C000C000E000C0200000C0202000C0204000C0206000C0208000C020A000C020C000C020E000C0400000C0402000C0404000C0406000C0
310
408000C040A000C040C000C040E000C0600000C0602000C0604000C0606000C0608000C060A000C060C000C060E000C0800000C0802000C0804000C0806000C0808000C080A000C080C000C080E000C0A00000C0A02000C0A04000C0A06000C0A08000C0A0A000C0A0C000C0A0E000C0C00000C0C02000C0C04000C0C06000
310
C0C08000C0C0A000F0FBFF00A4A0A000808080000000FF0000FF000000FFFF00FF000000FF00FF00FFFF0000FFFFFF00FF00FFFFFFFF00FFFFFFFFFFFFFFFFFFFFFFFFFFFFFFFFFFFFFFFFFFFFFFFFFFFF00FFFFFFFF00FFFFFFFFFFFFFFFFFFFFFFFFFFFFFFFFFFFFFFFFFFFFFFFFFFFF00FFFFFFFF00FFFFFFFFFFFFFFFF
310
FFFFFFFFFFFFFFFFFFFFFFFFFFFFFFFFFFFF00FFFFFFFF00FFFFFFFFFFFFFFFFFFFFFFFFFFFFFFFFFFFFFFFFFFFFFFFFFFFF00FFFFFFFF00FFFFFFFFFFFFFFFFFFFFFFFFFFFFFFFFFFFFFFFFFFFFFFFFFFFF00FFFFFFFF00FFFFFFFFFFFFFFFFFFFFFFFFFFFFFFFFFFFFFFFFFFFFFFFFFFFF00FFFFFFFF00FFFFFFFFFFFFFF
310
FFFFFFFFFFFFFFFFFFFFFFFFFFFFFFFFFFFFFF00FFFFFFFF00FFFFFFFFFFFFFFFFFFFFFFFFFFFFFFFFFFFFFFFFFFFFFFFFFFFF00FFFFFFFF00FFFFFFFFFFFFFFFFFFFFFFFFFFFFFFFFFFFFFFFFFFFFFFFFFFFF00FFFFFFFF00FFFFFFFFFFFFFFFFFFFFFFFFFFFFFFFFFFFFFFFFFFFFFFFFFFFF00FFFFFFFF00FFFFFFFFFFFF
310
FFFFFFFFFFFFFFFFFFFFFFFFFFFFFFFFFFFFFFFF00FFFFFFFF00FFFFFFFFFFFFFFFFFFFFFFFFFFFFFFFFFFFFFFFFFFFFFFFFFFFF00FFFFFFFF00FFFFFFFFFFFFFFFFFFFFFFFFFFFFFFFFFFFFFFFFFFFFFFFFFFFF00FFFFFFFF0000000000000000000000000000000000000000000000000000FF00FFFFFFFFFFFFFFFFFFFF
310
FFFFFFFFFFFFFFFFFFFFFFFFFFFFFFFFFFFFFFFFFF00FFFFFFFFFFFFFFFFFFFFFFFFFFFFFFFFFFFFFFFFFFFFFFFFFFFFFFFFFFFFFF00FFFFFFFFFFFFFFFFFFFFFFFFFFFFFFFFFFFFFFFFFFFFFFFFFFFFFFFFFFFFFF00FFFFFFFFFFFFFFFFFFFFFFFFFFFFFFFFFFFFFFFFFFFFFFFFFFFFFFFFFF00FF00000000000000000000
310
0000000000000000000000000000000000000000FFFFFFFFFFFFFFFFFFFFFFFFFFFFFFFFFFFFFFFFFFFFFFFFFFFFFFFFFFFFFFFFFFFFFFFFFFFFFFFFFFFFFFFFFFFFFFFFFFFFFFFFFFFFFFFFFFFFFFFFFFFFFFFFFFFFFFFFFFFFFFFFFFFFFFFFFFFFFFFFFFFFFFFFFFFFFFFFFFFFFFFFFFFFFFFFFFFFFFFFFFFFFFFFFFFFFF
310
FFFFFFFFFFFFFFFFFFFFFFFFFFFFFFFFFFFFFFFFFFFFFFFFFFFFFFFFFFFFFFFFFFFFFFFFFFFFFFFFFFFFFFFFFFFFFFFFFFFFFFFFFFFFFFFFFFFFFFFFFFFFFFFFFFFFFFFFFFFFFFFFFFFFFFFFFFFFFFFFFFFFFFFFFFFFFFFFFFFFFFFFFFFFFFFFFFFFFFFFFFFFFFFFFFFFFFFFFFFFFFFFFFFFFFFFFFFFFFFFFFFFFFFFFFFFFF
310
FFFFFFFFFFFFFFFFFFFFFFFFFFFFFFFFFFFFFFFFFFFFFFFFFFFFFFFFFFFFFFFFFFFFFFFFFFFFFFFFFFFFFFFFFFFFFFFFFFFFFFFFFFFFFFFFFFFFFFFFFFFFFFFFFFFFFFFFFFFFFFFFFFFFFFFFFFFFFFFFFFFFFFFFFFFFFFFFFFFFFFFFFFFFFFFFFFFFFFFFFFFFFFFFFFFFFFFFFFFFFFFFFFFFFFFFFFFFFFFFFFFFFFFFFFFFFF
310
FFFFFFFFFFFFFFFFFFFFFFFFFFFFFFFFFFFFFFFFFFFFFFFFFFFFFFFFFFFFFFFFFFFFFFFFFFFFFFFFFFFFFFFFFFFFFFFFFFFFFFFFFFFFFFFF
102
{BLKREFS
331
42E
102
}
  0
BLOCK_RECORD
  5
3F2
330
1
100
AcDbSymbolTableRecord
100
AcDbBlockTableRecord
  2
AI9-BLK13
340
0
310
2800000020000000200000000100080000000000000400000000000000000000000000000000000000000000000080000080000000808000800000008000800080800000C0C0C000C0DCC000F0CAA6000020400000206000002080000020A0000020C0000020E00000400000004020000040400000406000004080000040A0
310
000040C0000040E00000600000006020000060400000606000006080000060A0000060C0000060E00000800000008020000080400000806000008080000080A0000080C0000080E00000A0000000A0200000A0400000A0600000A0800000A0A00000A0C00000A0E00000C0000000C0200000C0400000C0600000C0800000C0
310
A00000C0C00000C0E00000E0000000E0200000E0400000E0600000E0800000E0A00000E0C00000E0E00040000000400020004000400040006000400080004000A0004000C0004000E00040200000402020004020400040206000402080004020A0004020C0004020E000404000004040200040404000404060004040800040
310
40A0004040C0004040E00040600000406020004060400040606000406080004060A0004060C0004060E00040800000408020004080400040806000408080004080A0004080C0004080E00040A0000040A0200040A0400040A0600040A0800040A0A00040A0C00040A0E00040C0000040C0200040C0400040C0600040C08000
310
40C0A00040C0C00040C0E00040E0000040E0200040E0400040E0600040E0800040E0A00040E0C00040E0E00080000000800020008000400080006000800080008000A0008000C0008000E00080200000802020008020400080206000802080008020A0008020C0008020E00080400000804020008040400080406000804080
310
008040A0008040C0008040E00080600000806020008060400080606000806080008060A0008060C0008060E00080800000808020008080400080806000808080008080A0008080C0008080E00080A0000080A0200080A0400080A0600080A0800080A0A00080A0C00080A0E00080C0000080C0200080C0400080C0600080C0
310
800080C0A00080C0C00080C0E00080E0000080E0200080E0400080E0600080E0800080E0A00080E0C00080E0E000C0000000C0002000C0004000C0006000C0008000C000A000C000C000C000E000C0200000C0202000C0204000C0206000C0208000C020A000C020C000C020E000C0400000C0402000C0404000C0406000C0
310
408000C040A000C040C000C040E000C0600000C0602000C0604000C0606000C0608000C060A000C060C000C060E000C0800000C0802000C0804000C0806000C0808000C080A000C080C000C080E000C0A00000C0A02000C0A04000C0A06000C0A08000C0A0A000C0A0C000C0A0E000C0C00000C0C02000C0C04000C0C06000
310
C0C08000C0C0A000F0FBFF00A4A0A000808080000000FF0000FF000000FFFF00FF000000FF00FF00FFFF0000FFFFFF00FFFFFFFFFFFFFFFFFFFFFFFFFFFFFFFFFFFFFFFFFFFFFFFFFFFFFFFFFFFFFFFFFFFFFFFFFFFFFFFFFFFFFF0000FFFFFFFFFFFF0000FFFFFFFFFFFFFFFFFFFFFFFFFFFFFFFFFFFFFFFFFFFF0000FFFF
310
FFFFFFFF0000FFFFFFFFFFFFFFFFFFFFFFFFFFFFFFFFFFFFFFFFFFFF0000FFFFFFFFFFFF0000FFFFFFFFFFFFFFFFFFFFFFFFFFFFFFFFFFFFFFFFFFFF0000FFFFFFFFFFFF0000FFFFFFFFFFFFFFFFFFFFFFFFFFFFFFFFFFFFFFFFFFFF0000FFFFFFFFFFFF0000FFFFFFFFFFFFFFFFFFFFFFFFFFFFFFFFFFFFFFFFFFFF0000FF
310
FFFFFFFFFF0000FFFFFFFFFFFFFFFFFFFFFFFFFFFFFFFFFFFFFFFFFFFF0000FFFFFFFFFFFF0000FFFFFFFFFFFFFFFFFFFFFFFFFFFFFFFFFFFFFFFFFFFF0000FFFFFFFFFFFF0000FFFFFFFFFFFFFFFFFFFFFFFFFFFFFFFFFFFFFFFFFFFF0000FFFFFFFFFFFF0000FFFFFFFFFFFFFFFFFFFFFFFFFFFFFFFFFFFFFFFFFFFF0000
310
FFFFFFFFFFFF0000FFFFFFFFFFFFFFFFFFFFFFFFFFFFFFFFFFFFFFFFFFFF0000FFFFFFFFFFFF0000FFFFFFFFFFFFFFFFFFFFFFFFFFFFFFFFFFFFFFFFFFFF0000FFFFFFFFFFFF0000FFFFFFFFFFFFFFFFFFFFFFFFFFFFFFFFFFFFFFFFFFFF0000FFFFFFFFFFFF0000FFFFFFFFFFFFFFFFFFFFFFFFFFFFFFFFFFFFFFFFFFFF00
310
00FFFFFFFFFFFF0000FFFFFFFFFFFFFFFFFFFFFFFFFFFFFFFFFFFFFFFFFFFF00000000000000000000FFFFFFFFFFFFFFFFFFFFFFFFFFFFFFFFFFFFFFFFFFFF00FFFFFFFFFFFFFFFF00FFFFFFFFFFFFFFFFFFFFFFFFFFFFFFFFFFFFFFFFFFFF00FFFFFFFFFFFFFFFF00FFFFFFFFFFFFFFFFFFFFFFFFFFFFFFFFFFFFFFFFFFFF
310
00000000000000000000FFFFFFFFFFFFFFFFFFFFFFFFFFFFFFFFFFFFFFFFFFFF0000FFFFFFFFFFFF0000FFFFFFFFFFFFFFFFFFFFFFFFFFFFFFFFFFFFFFFFFFFF0000FFFFFFFFFFFF0000FFFFFFFFFFFFFFFFFFFFFFFFFFFFFFFFFFFFFFFFFFFF0000FFFFFFFFFFFF0000FFFFFFFFFFFFFFFFFFFFFFFFFFFFFFFFFFFFFFFFFF
310
FF0000FFFFFFFFFFFF0000FFFFFFFFFFFFFFFFFFFFFFFFFFFFFFFFFFFFFFFFFFFF0000FFFFFFFFFFFF0000FFFFFFFFFFFFFFFFFFFFFFFFFFFFFFFFFFFFFFFFFFFF0000FFFFFFFFFFFF0000FFFFFFFFFFFFFFFFFFFFFFFFFFFFFFFFFFFFFFFFFFFF0000FFFFFFFFFFFF0000FFFFFFFFFFFFFFFFFFFFFFFFFFFFFFFFFFFFFFFF
310
FFFF0000FFFFFFFFFFFF0000FFFFFFFFFFFFFFFFFFFFFFFFFFFFFFFFFFFFFFFFFFFF0000FFFFFFFFFFFF0000FFFFFFFFFFFFFFFFFFFFFFFFFFFFFFFFFFFFFFFFFFFF0000FFFFFFFFFFFF0000FFFFFFFFFFFFFFFFFFFFFFFFFFFFFFFFFFFFFFFFFFFF0000FFFFFFFFFFFF0000FFFFFFFFFFFFFFFFFFFFFFFFFFFFFFFFFFFFFF
310
FFFFFF0000FFFFFFFFFFFF0000FFFFFFFFFFFFFFFFFFFFFFFFFFFFFFFFFFFFFFFFFFFFFFFFFFFFFFFFFFFFFFFFFFFFFFFFFFFFFFFFFFFFFF
102
{BLKREFS
331
42F
102
}
  0
BLOCK_RECORD
  5
3F7
330
1
100
AcDbSymbolTableRecord
100
AcDbBlockTableRecord
  2
AI9-BLK11
340
0
310
2800000020000000200000000100080000000000000400000000000000000000000000000000000000000000000080000080000000808000800000008000800080800000C0C0C000C0DCC000F0CAA6000020400000206000002080000020A0000020C0000020E00000400000004020000040400000406000004080000040A0
310
000040C0000040E00000600000006020000060400000606000006080000060A0000060C0000060E00000800000008020000080400000806000008080000080A0000080C0000080E00000A0000000A0200000A0400000A0600000A0800000A0A00000A0C00000A0E00000C0000000C0200000C0400000C0600000C0800000C0
310
A00000C0C00000C0E00000E0000000E0200000E0400000E0600000E0800000E0A00000E0C00000E0E00040000000400020004000400040006000400080004000A0004000C0004000E00040200000402020004020400040206000402080004020A0004020C0004020E000404000004040200040404000404060004040800040
310
40A0004040C0004040E00040600000406020004060400040606000406080004060A0004060C0004060E00040800000408020004080400040806000408080004080A0004080C0004080E00040A0000040A0200040A0400040A0600040A0800040A0A00040A0C00040A0E00040C0000040C0200040C0400040C0600040C08000
310
40C0A00040C0C00040C0E00040E0000040E0200040E0400040E0600040E0800040E0A00040E0C00040E0E00080000000800020008000400080006000800080008000A0008000C0008000E00080200000802020008020400080206000802080008020A0008020C0008020E00080400000804020008040400080406000804080
310
008040A0008040C0008040E00080600000806020008060400080606000806080008060A0008060C0008060E00080800000808020008080400080806000808080008080A0008080C0008080E00080A0000080A0200080A0400080A0600080A0800080A0A00080A0C00080A0E00080C0000080C0200080C0400080C0600080C0
310
800080C0A00080C0C00080C0E00080E0000080E0200080E0400080E0600080E0800080E0A00080E0C00080E0E000C0000000C0002000C0004000C0006000C0008000C000A000C000C000C000E000C0200000C0202000C0204000C0206000C0208000C020A000C020C000C020E000C0400000C0402000C0404000C0406000C0
310
408000C040A000C040C000C040E000C0600000C0602000C0604000C0606000C0608000C060A000C060C000C060E000C0800000C0802000C0804000C0806000C0808000C080A000C080C000C080E000C0A00000C0A02000C0A04000C0A06000C0A08000C0A0A000C0A0C000C0A0E000C0C00000C0C02000C0C04000C0C06000
310
C0C08000C0C0A000F0FBFF00A4A0A000808080000000FF0000FF000000FFFF00FF000000FF00FF00FFFF0000FFFFFF00FFFFFFFFFFFFFFFFFFFFFFFFFFFFFFFFFFFFFFFFFFFFFFFFFFFFFFFFFFFFFFFFFFFFFFFFFFFFFFFFFFFFFFFFFFFF00000000FFFFFFFFFFFFFFFFFFFFFF000000FFFFFFFFFFFFFFFFFFFFFFFFFFFF00
310
FFFF00FFFFFFFFFFFFFFFFFFFFFF00FFFFFFFFFFFFFFFFFFFFFFFFFFFFFFFF00FFFF00FFFFFFFFFFFFFFFFFFFFFF00FFFFFFFFFFFFFFFFFFFFFFFFFFFFFFFF00FFFF00FFFFFFFFFFFFFFFFFFFFFF00FFFFFFFFFFFFFFFFFFFFFFFFFFFFFFFF00FFFF00FFFFFFFFFFFFFFFFFFFFFF00FFFFFFFFFFFFFFFFFFFFFFFFFFFFFFFF
310
00FFFF00FFFFFFFFFFFFFFFFFFFFFF00FFFFFFFFFFFFFFFFFFFFFFFFFFFFFFFF00FFFF00FFFFFFFFFFFFFFFFFFFFFF00FFFFFFFFFFFFFFFFFFFFFFFFFFFFFFFF00FFFF00FFFFFFFFFFFFFFFFFFFFFF00FFFFFFFFFFFFFFFFFFFFFFFFFFFFFFFF00FFFF00FFFFFFFFFFFFFFFFFFFFFF00FFFFFFFFFFFFFFFFFFFFFFFFFFFFFF
310
FF00FFFF00FFFFFFFFFFFFFFFFFFFFFF00FFFFFFFFFFFFFFFFFFFFFFFFFFFFFFFF00FFFF00FFFFFFFFFFFFFFFFFFFFFF00FFFFFFFFFFFFFFFFFFFFFFFFFFFFFFFF00FFFF00FFFFFFFFFFFFFFFFFFFFFF00FFFFFFFFFFFFFFFFFFFFFFFFFFFFFFFF00FFFF00FFFFFFFFFFFFFFFFFFFFFF00FFFFFFFFFFFFFFFFFFFFFFFFFFFF
310
FFFF00FFFF00FFFFFFFFFFFFFFFFFFFFFF00FFFFFFFFFFFFFFFFFFFFFFFFFFFFFFFF00FFFF00FFFFFFFFFFFFFFFFFFFFFF00FFFFFFFFFFFFFFFFFFFFFFFFFFFFFFFF00FFFF00FFFFFFFFFFFFFFFFFFFFFF00FFFFFFFFFFFFFFFFFFFFFFFFFFFFFFFF00FFFF00FFFFFFFFFFFFFFFFFFFF00FFFFFFFFFFFFFFFFFFFFFFFFFFFF
310
FFFFFF00FFFF00FFFFFFFFFFFFFFFFFFFF00FFFFFFFFFFFFFFFFFFFFFFFFFFFFFFFFFF00FFFF00FFFFFFFFFFFFFFFFFFFF00FFFFFFFFFFFFFFFFFFFFFFFFFFFFFFFFFF00FFFF00FFFFFFFFFFFFFFFFFFFF00FFFFFFFFFFFFFFFFFFFFFFFFFFFFFFFFFF00FFFF00FFFFFFFFFFFFFFFFFFFF00FFFFFFFFFFFFFFFFFFFFFFFFFF
310
FFFFFFFF00FFFF00FFFFFFFFFFFFFFFFFF0000FFFF00FFFFFFFFFFFFFFFFFFFFFFFFFFFF00FFFF00FFFFFFFFFFFFFFFF0000FFFFFF00FFFFFFFFFFFFFFFFFFFFFFFFFFFF00FFFF00000000000000000000FFFFFFFF00FFFFFFFFFFFFFFFFFFFFFFFFFFFF00FFFFFFFFFFFFFFFFFFFFFFFFFFFFFF00FFFFFFFFFFFFFFFFFFFF
310
FFFFFFFFFF00FFFFFFFFFFFFFFFFFFFFFFFFFFFF00FFFFFFFFFFFFFFFFFFFFFFFFFFFFFFFF00FFFFFFFFFFFFFFFFFFFFFFFFFFFF00FFFFFFFFFFFFFFFFFFFFFFFFFFFFFFFF00FFFFFFFFFFFFFFFFFFFFFFFFFFFFFF00FFFFFFFFFFFFFFFFFFFFFFFFFFFFFF00FFFFFFFFFFFFFFFFFFFFFFFFFFFFFF00FFFFFFFFFFFFFFFFFF
310
FFFFFFFFFFFF00FFFF00000000000000000000FFFFFFFF00FFFFFFFFFFFFFFFFFFFFFFFFFFFF00FFFF00FFFFFFFFFFFFFFFFFF0000FFFF00
102
{BLKREFS
331
430
102
}
  0
BLOCK_RECORD
  5
3FC
330
1
100
AcDbSymbolTableRecord
100
AcDbBlockTableRecord
  2
AI9-BLK10
340
0
310
2800000020000000200000000100080000000000000400000000000000000000000000000000000000000000000080000080000000808000800000008000800080800000C0C0C000C0DCC000F0CAA6000020400000206000002080000020A0000020C0000020E00000400000004020000040400000406000004080000040A0
310
000040C0000040E00000600000006020000060400000606000006080000060A0000060C0000060E00000800000008020000080400000806000008080000080A0000080C0000080E00000A0000000A0200000A0400000A0600000A0800000A0A00000A0C00000A0E00000C0000000C0200000C0400000C0600000C0800000C0
310
A00000C0C00000C0E00000E0000000E0200000E0400000E0600000E0800000E0A00000E0C00000E0E00040000000400020004000400040006000400080004000A0004000C0004000E00040200000402020004020400040206000402080004020A0004020C0004020E000404000004040200040404000404060004040800040
310
40A0004040C0004040E00040600000406020004060400040606000406080004060A0004060C0004060E00040800000408020004080400040806000408080004080A0004080C0004080E00040A0000040A0200040A0400040A0600040A0800040A0A00040A0C00040A0E00040C0000040C0200040C0400040C0600040C08000
310
40C0A00040C0C00040C0E00040E0000040E0200040E0400040E0600040E0800040E0A00040E0C00040E0E00080000000800020008000400080006000800080008000A0008000C0008000E00080200000802020008020400080206000802080008020A0008020C0008020E00080400000804020008040400080406000804080
310
008040A0008040C0008040E00080600000806020008060400080606000806080008060A0008060C0008060E00080800000808020008080400080806000808080008080A0008080C0008080E00080A0000080A0200080A0400080A0600080A0800080A0A00080A0C00080A0E00080C0000080C0200080C0400080C0600080C0
310
800080C0A00080C0C00080C0E00080E0000080E0200080E0400080E0600080E0800080E0A00080E0C00080E0E000C0000000C0002000C0004000C0006000C0008000C000A000C000C000C000E000C0200000C0202000C0204000C0206000C0208000C020A000C020C000C020E000C0400000C0402000C0404000C0406000C0
310
408000C040A000C040C000C040E000C0600000C0602000C0604000C0606000C0608000C060A000C060C000C060E000C0800000C0802000C0804000C0806000C0808000C080A000C080C000C080E000C0A00000C0A02000C0A04000C0A06000C0A08000C0A0A000C0A0C000C0A0E000C0C00000C0C02000C0C04000C0C06000
310
C0C08000C0C0A000F0FBFF00A4A0A000808080000000FF0000FF000000FFFF00FF000000FF00FF00FFFF0000FFFFFF00FFFFFFFFFFFFFFFFFFFFFFFFFFFFFFFF00FFFFFFFFFFFFFFFFFFFFFFFF00FFFFFFFFFFFFFFFFFFFFFFFFFFFFFFFFFFFF00FFFFFFFFFFFFFFFFFFFFFF00FFFFFFFFFFFFFFFFFFFFFFFFFFFFFFFFFFFF
310
FF00FFFFFFFFFFFFFFFFFFFFFF00FFFFFFFFFFFFFFFFFFFFFFFFFFFFFFFFFFFFFF00FFFFFFFFFFFFFFFFFFFFFF00FFFFFFFFFFFFFFFFFFFFFFFFFFFFFFFFFFFFFF00FFFFFFFFFFFFFFFFFFFFFF00FFFFFFFFFFFFFFFFFFFFFFFFFFFFFFFFFFFFFF00FFFFFFFFFFFFFFFFFFFFFF00FFFFFFFFFFFFFFFFFFFFFFFFFFFFFFFFFF
310
FFFF00FFFFFFFFFFFFFFFFFFFFFF00FFFFFFFFFFFFFFFFFFFFFFFFFFFFFFFFFFFFFF00FFFFFFFFFFFFFFFFFFFF00FFFFFFFFFFFFFFFFFFFFFFFFFFFFFFFFFFFFFFFF00FFFFFFFFFFFFFFFFFFFF00FFFFFFFFFFFFFFFFFFFFFFFFFFFFFFFFFFFFFFFF00FFFFFFFFFFFFFFFFFFFF00FFFFFFFFFFFFFFFFFFFFFFFFFFFFFFFFFF
310
FFFFFF00FFFFFFFFFFFFFFFFFFFF00FFFFFFFFFFFFFFFFFFFFFFFFFFFFFFFFFFFFFFFF00FFFFFFFFFFFFFFFFFFFF00FFFFFFFFFFFFFFFFFFFFFFFFFFFFFFFFFFFFFFFF00FFFFFFFFFFFFFFFFFFFF00FFFFFFFFFFFFFFFFFFFFFFFFFFFFFFFFFFFFFFFF00FFFFFFFFFFFFFFFFFF00FFFFFFFFFFFFFFFFFFFFFFFFFFFFFFFFFF
310
FFFFFFFF00FFFFFFFFFFFFFFFFFF00FFFFFFFFFFFFFFFFFFFFFFFFFFFFFFFFFFFFFFFFFF00FFFFFFFFFFFFFFFFFF00FFFFFFFFFFFFFFFFFFFFFFFFFFFFFFFFFFFFFFFFFF0000000000000000000000FFFFFFFFFFFFFFFFFFFFFFFFFFFFFFFFFFFFFFFFFFFFFFFFFFFFFFFFFFFFFFFFFFFFFFFFFFFFFFFFFFFFFFFFFFFFFFFF
310
FFFFFFFFFFFFFFFFFFFFFFFFFFFFFFFFFFFFFFFFFFFFFFFFFFFFFFFFFFFFFFFFFFFFFFFFFFFFFFFFFFFFFFFFFFFFFFFFFFFFFFFFFFFFFFFFFFFFFFFFFFFFFFFFFFFFFFFFFFFFFFFFFFFFFFFFFFFFFFFFFFFFFFFFFFFFFFFFFFFFFFFFFFFFFFFFFFFFFFFFFFFFFFFFFFFFFFFFFFFFFFFFFFFFFFFFFFFFFFFFFFFFFFFFFFFFFF
310
FFFFFFFFFFFFFFFFFFFFFFFFFFFFFFFFFFFFFFFFFFFFFFFFFFFFFFFFFFFFFFFFFFFFFFFFFFFFFFFFFFFFFFFFFFFFFFFFFFFFFFFFFFFFFFFFFFFFFFFFFFFFFFFFFFFFFFFFFFFFFFFFFFFFFFFFFFFFFFFFFFFFFFFFFFFFFFFFFFFFFFFFFFFFFFFFFFFFFFFFFFFFFFFFFFFFFFFFFFFFFFFFFFFFFFFFFFFFFFFFFFFFFFFFFFFFFF
310
FFFFFFFFFFFFFFFFFFFFFFFFFFFFFFFFFFFFFFFFFFFFFFFFFFFFFFFFFFFFFFFFFFFFFFFFFFFFFFFFFFFFFFFFFFFFFFFFFFFFFFFFFFFFFFFFFFFFFFFFFFFFFFFFFFFFFFFFFFFFFFFFFFFFFFFFFFFFFFFFFFFFFFFFFFFFFFFFFFFFFFFFFFFFFFFFFFFFFFFFFFFFFFFFFFFFFFFFFFFFFFFFFFFFFFFFFFFFFFFFFFFFFFFFFFFFFF
310
FFFFFFFFFFFFFFFFFFFFFFFFFFFFFFFFFFFFFFFFFFFFFFFFFFFFFFFFFFFFFFFFFFFFFFFFFFFFFFFFFFFFFFFFFFFFFFFFFFFFFFFFFFFFFFFF
102
{BLKREFS
331
431
102
}
  0
BLOCK_RECORD
  5
400
330
1
100
AcDbSymbolTableRecord
100
AcDbBlockTableRecord
  2
AI9-BLK9
340
0
310
2800000020000000200000000100080000000000000400000000000000000000000000000000000000000000000080000080000000808000800000008000800080800000C0C0C000C0DCC000F0CAA6000020400000206000002080000020A0000020C0000020E00000400000004020000040400000406000004080000040A0
310
000040C0000040E00000600000006020000060400000606000006080000060A0000060C0000060E00000800000008020000080400000806000008080000080A0000080C0000080E00000A0000000A0200000A0400000A0600000A0800000A0A00000A0C00000A0E00000C0000000C0200000C0400000C0600000C0800000C0
310
A00000C0C00000C0E00000E0000000E0200000E0400000E0600000E0800000E0A00000E0C00000E0E00040000000400020004000400040006000400080004000A0004000C0004000E00040200000402020004020400040206000402080004020A0004020C0004020E000404000004040200040404000404060004040800040
310
40A0004040C0004040E00040600000406020004060400040606000406080004060A0004060C0004060E00040800000408020004080400040806000408080004080A0004080C0004080E00040A0000040A0200040A0400040A0600040A0800040A0A00040A0C00040A0E00040C0000040C0200040C0400040C0600040C08000
310
40C0A00040C0C00040C0E00040E0000040E0200040E0400040E0600040E0800040E0A00040E0C00040E0E00080000000800020008000400080006000800080008000A0008000C0008000E00080200000802020008020400080206000802080008020A0008020C0008020E00080400000804020008040400080406000804080
310
008040A0008040C0008040E00080600000806020008060400080606000806080008060A0008060C0008060E00080800000808020008080400080806000808080008080A0008080C0008080E00080A0000080A0200080A0400080A0600080A0800080A0A00080A0C00080A0E00080C0000080C0200080C0400080C0600080C0
310
800080C0A00080C0C00080C0E00080E0000080E0200080E0400080E0600080E0800080E0A00080E0C00080E0E000C0000000C0002000C0004000C0006000C0008000C000A000C000C000C000E000C0200000C0202000C0204000C0206000C0208000C020A000C020C000C020E000C0400000C0402000C0404000C0406000C0
310
408000C040A000C040C000C040E000C0600000C0602000C0604000C0606000C0608000C060A000C060C000C060E000C0800000C0802000C0804000C0806000C0808000C080A000C080C000C080E000C0A00000C0A02000C0A04000C0A06000C0A08000C0A0A000C0A0C000C0A0E000C0C00000C0C02000C0C04000C0C06000
310
C0C08000C0C0A000F0FBFF00A4A0A000808080000000FF0000FF000000FFFF00FF000000FF00FF00FFFF0000FFFFFF00FFFFFFFFFFFFFFFFFFFFFFFFFFFFFFFFFFFFFFFFFFFFFFFFFFFFFFFFFFFFFFFFFFFFFFFFFFFFFFFFFFFFFFFFFFFFFF0000FFFFFFFFFFFFFFFFFFFFFFFFFFFFFFFFFFFFFFFFFFFFFFFFFFFFFFFF0000
310
FF0000FFFFFFFFFFFFFFFFFFFFFFFFFFFFFFFFFFFFFFFFFFFFFFFFFFFFFF00FFFFFF0000FFFFFFFFFFFFFFFFFFFFFFFFFFFFFFFFFFFFFFFFFFFFFFFFFFFF00FFFFFFFF0000FFFFFFFFFFFFFFFFFFFFFFFFFFFFFFFFFFFFFFFFFFFFFFFF00FF00000000FF00FFFFFFFFFFFFFFFFFFFFFFFFFFFFFFFFFFFFFFFFFFFFFFFF0000
310
00FFFF00FF00FFFFFFFFFFFFFFFFFFFFFFFFFFFFFFFFFFFFFFFFFFFFFFFF0000FFFFFFFF0000FFFFFFFFFFFFFFFFFFFFFFFFFFFFFFFFFFFFFFFFFFFFFFFF0000FFFFFFFF0000FFFFFFFFFFFFFFFFFFFFFFFFFFFFFFFFFFFFFFFFFFFFFF00FF00FFFFFFFF00FF00FFFFFFFFFFFFFFFFFFFFFFFFFFFFFFFFFFFFFFFFFFFF0000
310
FFFFFFFFFF00FF00FFFFFFFFFFFFFFFFFFFFFFFFFFFFFFFFFFFFFFFFFFFF0000FFFFFFFFFFFF0000FFFFFFFFFFFFFFFFFFFFFFFFFFFFFFFFFFFFFFFFFFFF0000FFFFFFFFFFFF0000FFFFFFFFFFFFFFFFFFFFFFFFFFFFFFFFFFFFFFFFFFFF0000FFFFFFFFFFFF0000FFFFFFFFFFFFFFFFFFFFFFFFFFFFFFFFFFFFFFFFFFFF00
310
00FFFFFFFFFFFF0000FFFFFFFFFFFFFFFFFFFFFFFFFFFFFFFFFFFFFFFFFFFF0000FFFFFFFFFFFF0000FFFFFFFFFFFFFFFFFFFFFFFFFFFFFFFFFFFFFFFFFFFF0000FFFFFFFFFFFF0000FFFFFFFFFFFFFFFFFFFFFFFFFFFFFFFFFFFFFFFFFFFF0000FFFFFFFFFFFF0000FFFFFFFFFFFFFFFFFFFFFFFFFFFFFFFFFFFFFFFFFFFF
310
0000FFFFFFFFFFFF0000FFFFFFFFFFFFFFFFFFFFFFFFFFFFFFFFFFFFFFFFFFFF0000FFFFFFFFFFFF0000FFFFFFFFFFFFFFFFFFFFFFFFFFFFFFFFFFFFFFFFFFFF0000FFFFFFFFFFFF0000FFFFFFFFFFFFFFFFFFFFFFFFFFFFFFFFFFFFFFFFFFFF00FF00FFFFFFFF00FF00FFFFFFFFFFFFFFFFFFFFFFFFFFFFFFFFFFFFFFFFFF
310
FF00FF00FFFFFFFF00FF00FFFFFFFFFFFFFFFFFFFFFFFFFFFFFFFFFFFFFFFFFFFF00FF00FFFFFFFF00FF00FFFFFFFFFFFFFFFFFFFFFFFFFFFFFFFFFFFFFFFFFFFFFF0000FFFFFFFF0000FFFFFFFFFFFFFFFFFFFFFFFFFFFFFFFFFFFFFFFFFFFFFFFF00FF00FFFF00FF00FFFFFFFFFFFFFFFFFFFFFFFFFFFFFFFFFFFFFFFFFF
310
FFFFFF00FF00000000FF00FFFFFFFFFFFFFFFFFFFFFFFFFFFFFFFFFFFFFFFFFFFFFFFFFF00FFFFFFFF0000FFFFFFFFFFFFFFFFFFFFFFFFFFFFFFFFFFFFFFFFFFFFFFFFFF00FFFFFFFF00FFFFFFFFFFFFFFFFFFFFFFFFFFFFFFFFFFFFFFFFFFFFFFFFFFFFFF00000000FFFFFFFFFFFFFFFFFFFFFFFFFFFFFFFFFFFFFFFFFFFF
310
FFFFFFFFFFFFFF0000FFFFFFFFFFFFFFFFFFFFFFFFFFFFFFFFFFFFFFFFFFFFFFFFFFFFFFFFFFFFFFFFFFFFFFFFFFFFFFFFFFFFFFFFFFFFFF
102
{BLKREFS
331
432
102
}
  0
BLOCK_RECORD
  5
405
330
1
100
AcDbSymbolTableRecord
100
AcDbBlockTableRecord
  2
AI9-BLK8
340
0
310
2800000020000000200000000100080000000000000400000000000000000000000000000000000000000000000080000080000000808000800000008000800080800000C0C0C000C0DCC000F0CAA6000020400000206000002080000020A0000020C0000020E00000400000004020000040400000406000004080000040A0
310
000040C0000040E00000600000006020000060400000606000006080000060A0000060C0000060E00000800000008020000080400000806000008080000080A0000080C0000080E00000A0000000A0200000A0400000A0600000A0800000A0A00000A0C00000A0E00000C0000000C0200000C0400000C0600000C0800000C0
310
A00000C0C00000C0E00000E0000000E0200000E0400000E0600000E0800000E0A00000E0C00000E0E00040000000400020004000400040006000400080004000A0004000C0004000E00040200000402020004020400040206000402080004020A0004020C0004020E000404000004040200040404000404060004040800040
310
40A0004040C0004040E00040600000406020004060400040606000406080004060A0004060C0004060E00040800000408020004080400040806000408080004080A0004080C0004080E00040A0000040A0200040A0400040A0600040A0800040A0A00040A0C00040A0E00040C0000040C0200040C0400040C0600040C08000
310
40C0A00040C0C00040C0E00040E0000040E0200040E0400040E0600040E0800040E0A00040E0C00040E0E00080000000800020008000400080006000800080008000A0008000C0008000E00080200000802020008020400080206000802080008020A0008020C0008020E00080400000804020008040400080406000804080
310
008040A0008040C0008040E00080600000806020008060400080606000806080008060A0008060C0008060E00080800000808020008080400080806000808080008080A0008080C0008080E00080A0000080A0200080A0400080A0600080A0800080A0A00080A0C00080A0E00080C0000080C0200080C0400080C0600080C0
310
800080C0A00080C0C00080C0E00080E0000080E0200080E0400080E0600080E0800080E0A00080E0C00080E0E000C0000000C0002000C0004000C0006000C0008000C000A000C000C000C000E000C0200000C0202000C0204000C0206000C0208000C020A000C020C000C020E000C0400000C0402000C0404000C0406000C0
310
408000C040A000C040C000C040E000C0600000C0602000C0604000C0606000C0608000C060A000C060C000C060E000C0800000C0802000C0804000C0806000C0808000C080A000C080C000C080E000C0A00000C0A02000C0A04000C0A06000C0A08000C0A0A000C0A0C000C0A0E000C0C00000C0C02000C0C04000C0C06000
310
C0C08000C0C0A000F0FBFF00A4A0A000808080000000FF0000FF000000FFFF00FF000000FF00FF00FFFF0000FFFFFF00FFFFFFFFFFFFFFFFFFFFFFFFFFFFFFFFFFFFFFFFFFFFFFFFFFFFFFFFFFFFFFFFFFFFFFFFFFFFFFFFFFFFFF0000FFFFFFFFFFFF0000FFFFFFFFFFFFFFFFFFFFFFFFFFFFFFFFFFFFFFFFFFFF0000FFFF
310
FFFFFFFF0000FFFFFFFFFFFFFFFFFFFFFFFFFFFFFFFFFFFFFFFFFFFF0000FFFFFFFFFF00FF00FFFFFFFFFFFFFFFFFFFFFFFFFFFFFFFFFFFFFFFFFFFF0000FFFFFFFFFF00FF00FFFFFFFFFFFFFFFFFFFFFFFFFFFFFFFFFFFFFFFFFFFF0000FFFFFFFFFF00FF00FFFFFFFFFFFFFFFFFFFFFFFFFFFFFFFFFFFFFFFFFFFF0000FF
310
FFFFFF00FFFF00FFFFFFFFFFFFFFFFFFFFFFFFFFFFFFFFFFFFFFFFFFFF0000FFFFFFFF00FF0000FFFFFFFFFFFFFFFFFFFFFFFFFFFFFFFFFFFFFFFFFFFF0000FFFFFFFF00FF0000FFFFFFFFFFFFFFFFFFFFFFFFFFFFFFFFFFFFFFFFFFFF0000FFFFFFFF00000000FFFFFFFFFFFFFFFFFFFFFFFFFFFFFFFFFFFFFFFFFFFF0000
310
FFFFFF00FF000000FFFFFFFFFFFFFFFFFFFFFFFFFFFFFFFFFFFFFFFFFFFF0000FFFFFF00FF000000FFFFFFFFFFFFFFFFFFFFFFFFFFFFFFFFFFFFFFFFFFFF0000FFFFFF00FF000000FFFFFFFFFFFFFFFFFFFFFFFFFFFFFFFFFFFFFFFFFFFF0000FFFF00FF00FF0000FFFFFFFFFFFFFFFFFFFFFFFFFFFFFFFFFFFFFFFFFFFF00
310
00FFFF00FF00FF0000FFFFFFFFFFFFFFFFFFFFFFFFFFFFFFFFFFFFFFFFFFFF0000FFFF00FF00FF0000FFFFFFFFFFFFFFFFFFFFFFFFFFFFFFFFFFFFFFFFFFFF0000FF00FFFF00FF0000FFFFFFFFFFFFFFFFFFFFFFFFFFFFFFFFFFFFFFFFFFFF0000FF00FF00FFFF0000FFFFFFFFFFFFFFFFFFFFFFFFFFFFFFFFFFFFFFFFFFFF
310
0000FF00FF00FFFF0000FFFFFFFFFFFFFFFFFFFFFFFFFFFFFFFFFFFFFFFFFFFF0000FF00FF00FFFF0000FFFFFFFFFFFFFFFFFFFFFFFFFFFFFFFFFFFFFFFFFFFF000000FFFF00FFFF0000FFFFFFFFFFFFFFFFFFFFFFFFFFFFFFFFFFFFFFFFFFFF000000FF00FFFFFF0000FFFFFFFFFFFFFFFFFFFFFFFFFFFFFFFFFFFFFFFFFF
310
FF000000FF00FFFFFF0000FFFFFFFFFFFFFFFFFFFFFFFFFFFFFFFFFFFFFFFFFFFF0000FFFF00FFFFFF0000FFFFFFFFFFFFFFFFFFFFFFFFFFFFFFFFFFFFFFFFFFFF0000FFFF00FFFFFF0000FFFFFFFFFFFFFFFFFFFFFFFFFFFFFFFFFFFFFFFFFFFF00FFFF00FFFFFFFF0000FFFFFFFFFFFFFFFFFFFFFFFFFFFFFFFFFFFFFFFF
310
FFFF00FFFF00FFFFFFFF0000FFFFFFFFFFFFFFFFFFFFFFFFFFFFFFFFFFFFFFFFFFFF00FFFF00FFFFFFFF0000FFFFFFFFFFFFFFFFFFFFFFFFFFFFFFFFFFFFFFFFFFFF00FFFF00FFFFFFFF0000FFFFFFFFFFFFFFFFFFFFFFFFFFFFFFFFFFFFFFFFFFFF00FF00FFFFFFFFFF0000FFFFFFFFFFFFFFFFFFFFFFFFFFFFFFFFFFFFFF
310
FFFFFF000000FFFFFFFFFF0000FFFFFFFFFFFFFFFFFFFFFFFFFFFFFFFFFFFFFFFFFFFFFFFFFFFFFFFFFFFFFFFFFFFFFFFFFFFFFFFFFFFFFF
102
{BLKREFS
331
433
102
}
  0
BLOCK_RECORD
  5
40A
330
1
100
AcDbSymbolTableRecord
100
AcDbBlockTableRecord
  2
AI9-BLK7
340
0
310
2800000020000000200000000100080000000000000400000000000000000000000000000000000000000000000080000080000000808000800000008000800080800000C0C0C000C0DCC000F0CAA6000020400000206000002080000020A0000020C0000020E00000400000004020000040400000406000004080000040A0
310
000040C0000040E00000600000006020000060400000606000006080000060A0000060C0000060E00000800000008020000080400000806000008080000080A0000080C0000080E00000A0000000A0200000A0400000A0600000A0800000A0A00000A0C00000A0E00000C0000000C0200000C0400000C0600000C0800000C0
310
A00000C0C00000C0E00000E0000000E0200000E0400000E0600000E0800000E0A00000E0C00000E0E00040000000400020004000400040006000400080004000A0004000C0004000E00040200000402020004020400040206000402080004020A0004020C0004020E000404000004040200040404000404060004040800040
310
40A0004040C0004040E00040600000406020004060400040606000406080004060A0004060C0004060E00040800000408020004080400040806000408080004080A0004080C0004080E00040A0000040A0200040A0400040A0600040A0800040A0A00040A0C00040A0E00040C0000040C0200040C0400040C0600040C08000
310
40C0A00040C0C00040C0E00040E0000040E0200040E0400040E0600040E0800040E0A00040E0C00040E0E00080000000800020008000400080006000800080008000A0008000C0008000E00080200000802020008020400080206000802080008020A0008020C0008020E00080400000804020008040400080406000804080
310
008040A0008040C0008040E00080600000806020008060400080606000806080008060A0008060C0008060E00080800000808020008080400080806000808080008080A0008080C0008080E00080A0000080A0200080A0400080A0600080A0800080A0A00080A0C00080A0E00080C0000080C0200080C0400080C0600080C0
310
800080C0A00080C0C00080C0E00080E0000080E0200080E0400080E0600080E0800080E0A00080E0C00080E0E000C0000000C0002000C0004000C0006000C0008000C000A000C000C000C000E000C0200000C0202000C0204000C0206000C0208000C020A000C020C000C020E000C0400000C0402000C0404000C0406000C0
310
408000C040A000C040C000C040E000C0600000C0602000C0604000C0606000C0608000C060A000C060C000C060E000C0800000C0802000C0804000C0806000C0808000C080A000C080C000C080E000C0A00000C0A02000C0A04000C0A06000C0A08000C0A0A000C0A0C000C0A0E000C0C00000C0C02000C0C04000C0C06000
310
C0C08000C0C0A000F0FBFF00A4A0A000808080000000FF0000FF000000FFFF00FF000000FF00FF00FFFF0000FFFFFF00FFFFFFFFFFFFFFFFFFFFFFFFFFFFFFFFFFFFFFFFFFFFFFFFFFFFFFFFFFFFFFFFFFFFFFFFFFFFFFFFFFFFFFFFFFFFFF0000FFFFFFFFFFFFFFFFFFFFFFFFFFFFFFFFFFFFFFFFFFFFFFFFFFFFFFFFFFFF
310
0000FFFFFFFFFFFFFFFFFFFFFFFFFFFFFFFFFFFFFFFFFFFFFFFFFFFFFFFFFFFF0000FFFFFFFFFFFFFFFFFFFFFFFFFFFFFFFFFFFFFFFFFFFFFFFFFFFFFFFFFFFF0000FFFFFFFFFFFFFFFFFFFFFFFFFFFFFFFFFFFFFFFFFFFFFFFFFFFFFFFFFFFF0000FFFFFFFFFFFFFFFFFFFFFFFFFFFFFFFFFFFFFFFFFFFFFFFFFFFFFFFFFF
310
FF0000FFFFFFFFFFFFFFFFFFFFFFFFFFFFFFFFFFFFFFFFFFFFFFFFFFFFFFFFFFFF0000FFFFFFFFFFFFFFFFFFFFFFFFFFFFFFFFFFFFFFFFFFFFFFFFFFFFFFFFFFFF0000FFFFFFFFFFFFFFFFFFFFFFFFFFFFFFFFFFFFFFFFFFFFFFFFFFFFFFFFFFFF0000FFFFFFFFFFFFFFFFFFFFFFFFFFFFFFFFFFFFFFFFFFFFFFFFFFFFFFFF
310
FFFF0000FFFFFFFFFFFFFFFFFFFFFFFFFFFFFFFFFFFFFFFFFFFFFFFFFFFFFFFFFFFF0000FFFFFFFFFFFFFFFFFFFFFFFFFFFFFFFFFFFFFFFFFFFFFFFFFFFFFFFFFFFF0000FFFFFFFFFFFFFFFFFFFFFFFFFFFFFFFFFFFFFFFFFFFFFFFFFFFFFFFFFFFF0000FFFFFFFFFFFFFFFFFFFFFFFFFFFFFFFFFFFFFFFFFFFFFFFFFFFFFF
310
FFFFFF0000FFFFFFFFFFFFFFFFFFFFFFFFFFFFFFFFFFFFFFFFFFFFFFFFFFFFFFFFFFFF0000FFFFFFFFFFFFFFFFFFFFFFFFFFFFFFFFFFFFFFFFFFFFFFFFFFFFFFFFFFFF0000FFFFFFFFFFFFFFFFFFFFFFFFFFFFFFFFFFFFFFFFFFFFFFFFFFFFFFFFFFFF0000FFFFFFFFFFFFFFFFFFFFFFFFFFFFFFFFFFFFFFFFFFFFFFFFFFFF
310
FFFFFFFF0000FFFFFFFFFFFFFFFFFFFFFFFFFFFFFFFFFFFFFFFFFFFFFFFFFFFFFFFFFFFF0000FFFFFFFFFFFFFFFFFFFFFFFFFFFFFFFFFFFFFFFFFFFFFFFFFFFFFFFFFFFF0000FFFFFFFFFFFFFFFFFFFFFFFFFFFFFFFFFFFFFFFFFFFFFFFFFFFFFFFFFFFF0000FFFFFFFFFFFFFFFFFFFFFFFFFFFFFFFFFFFFFFFFFFFFFFFFFF
310
FFFFFFFFFF0000FFFFFFFFFFFFFFFFFFFFFFFFFFFFFFFFFFFFFFFFFFFFFFFFFFFFFFFFFFFF0000FFFFFFFFFFFFFFFFFFFFFFFFFFFFFFFFFFFFFFFFFFFFFFFFFFFFFFFFFFFF0000FFFFFFFFFFFFFFFFFFFFFFFFFFFFFFFFFFFFFFFFFFFFFFFFFFFFFFFFFFFF0000FFFFFFFFFFFFFFFFFFFFFFFFFFFFFFFFFFFFFFFFFFFFFFFF
310
FFFFFFFFFFFF0000FFFFFFFFFFFFFFFFFFFFFFFFFFFFFFFFFFFFFFFFFFFFFFFFFFFFFFFFFFFF0000FFFFFFFFFFFFFFFFFFFFFFFFFFFFFFFFFFFFFFFFFFFFFFFFFFFFFFFFFFFF0000FFFFFFFFFFFFFFFFFFFFFFFFFFFFFFFFFFFFFFFFFFFFFFFFFFFFFFFFFFFF0000FFFFFFFFFFFFFFFFFFFFFFFFFFFFFFFFFFFFFFFFFFFFFF
310
FFFFFFFFFFFFFF0000FFFFFFFFFFFFFFFFFFFFFFFFFFFFFFFFFFFFFFFFFFFFFFFFFFFFFFFFFFFFFFFFFFFFFFFFFFFFFFFFFFFFFFFFFFFFFF
102
{BLKREFS
331
434
102
}
  0
BLOCK_RECORD
  5
40F
330
1
100
AcDbSymbolTableRecord
100
AcDbBlockTableRecord
  2
AI9-BLK6
340
0
310
2800000020000000200000000100080000000000000400000000000000000000000000000000000000000000000080000080000000808000800000008000800080800000C0C0C000C0DCC000F0CAA6000020400000206000002080000020A0000020C0000020E00000400000004020000040400000406000004080000040A0
310
000040C0000040E00000600000006020000060400000606000006080000060A0000060C0000060E00000800000008020000080400000806000008080000080A0000080C0000080E00000A0000000A0200000A0400000A0600000A0800000A0A00000A0C00000A0E00000C0000000C0200000C0400000C0600000C0800000C0
310
A00000C0C00000C0E00000E0000000E0200000E0400000E0600000E0800000E0A00000E0C00000E0E00040000000400020004000400040006000400080004000A0004000C0004000E00040200000402020004020400040206000402080004020A0004020C0004020E000404000004040200040404000404060004040800040
310
40A0004040C0004040E00040600000406020004060400040606000406080004060A0004060C0004060E00040800000408020004080400040806000408080004080A0004080C0004080E00040A0000040A0200040A0400040A0600040A0800040A0A00040A0C00040A0E00040C0000040C0200040C0400040C0600040C08000
310
40C0A00040C0C00040C0E00040E0000040E0200040E0400040E0600040E0800040E0A00040E0C00040E0E00080000000800020008000400080006000800080008000A0008000C0008000E00080200000802020008020400080206000802080008020A0008020C0008020E00080400000804020008040400080406000804080
310
008040A0008040C0008040E00080600000806020008060400080606000806080008060A0008060C0008060E00080800000808020008080400080806000808080008080A0008080C0008080E00080A0000080A0200080A0400080A0600080A0800080A0A00080A0C00080A0E00080C0000080C0200080C0400080C0600080C0
310
800080C0A00080C0C00080C0E00080E0000080E0200080E0400080E0600080E0800080E0A00080E0C00080E0E000C0000000C0002000C0004000C0006000C0008000C000A000C000C000C000E000C0200000C0202000C0204000C0206000C0208000C020A000C020C000C020E000C0400000C0402000C0404000C0406000C0
310
408000C040A000C040C000C040E000C0600000C0602000C0604000C0606000C0608000C060A000C060C000C060E000C0800000C0802000C0804000C0806000C0808000C080A000C080C000C080E000C0A00000C0A02000C0A04000C0A06000C0A08000C0A0A000C0A0C000C0A0E000C0C00000C0C02000C0C04000C0C06000
310
C0C08000C0C0A000F0FBFF00A4A0A000808080000000FF0000FF000000FFFF00FF000000FF00FF00FFFF0000FFFFFF00FFFFFFFFFFFFFFFFFFFFFFFF00FFFFFFFFFFFFFF00FFFFFFFFFFFFFFFFFFFFFFFFFFFFFFFFFFFFFFFFFFFFFF00FFFFFFFFFFFFFF00FFFFFFFFFFFFFFFFFFFFFFFFFFFFFFFFFFFFFFFFFFFFFF00FFFF
310
FFFFFFFFFF00FFFFFFFFFFFFFFFFFFFFFFFFFFFFFFFFFFFFFFFFFFFF00FFFFFFFFFFFFFFFF00FFFFFFFFFFFFFFFFFFFFFFFFFFFFFFFFFFFFFFFFFFFF00FFFFFFFFFFFFFF00FFFFFFFFFFFFFFFFFFFFFFFFFFFFFFFFFFFFFFFFFFFFFF00FFFFFFFFFFFFFF00FFFFFFFFFFFFFFFFFFFFFFFFFFFFFFFFFFFFFFFFFFFF00FFFFFF
310
FFFFFFFFFF00FFFFFFFFFFFFFFFFFFFFFFFFFFFFFFFFFFFFFFFFFFFF00FFFFFFFFFFFFFF00FFFFFFFFFFFFFFFFFFFFFFFFFFFFFFFFFFFFFFFFFFFF00FFFFFFFFFFFFFFFF00FFFFFFFFFFFFFFFFFFFFFFFFFFFFFFFFFFFFFFFFFF00FFFFFFFFFFFFFFFFFF00FFFFFFFFFFFFFFFFFFFFFFFFFFFFFFFFFFFFFFFF00FFFFFFFFFF
310
FFFFFFFFFF00FFFFFFFFFFFFFFFFFFFFFFFFFFFFFFFFFFFFFF00FFFFFFFFFFFFFFFFFFFF00FFFFFFFFFFFFFFFFFFFFFFFFFFFFFFFFFFFF0000FFFFFFFFFFFFFFFFFFFFFF00FFFFFFFFFFFFFFFFFFFFFFFFFFFF00000000FFFFFFFFFFFFFFFFFFFFFFFFFF00FFFFFFFFFFFFFFFFFFFFFFFFFFFFFFFFFFFFFFFFFFFFFFFFFFFF
310
FFFFFFFF00FFFFFFFFFFFFFFFFFFFFFFFFFFFFFFFFFFFFFFFFFFFFFFFFFFFFFFFFFFFFFF00FFFFFFFFFFFFFFFFFFFFFFFFFFFFFFFFFFFFFFFFFFFFFFFFFFFFFFFFFFFFFF00FFFFFFFFFFFFFFFFFFFFFFFFFFFFFFFFFFFFFFFFFFFFFFFFFFFFFFFFFFFF00FFFFFFFFFFFFFFFFFFFFFFFFFFFFFFFFFFFFFFFFFFFFFFFFFFFFFF
310
FFFFFFFF00FFFFFFFFFFFFFFFFFFFFFFFFFFFFFFFFFFFFFFFFFFFFFFFFFFFFFFFFFFFF00FFFFFFFFFFFFFFFFFFFFFFFFFFFFFFFFFFFFFFFFFFFFFFFFFFFFFFFFFFFF00FFFFFFFFFFFFFFFFFFFFFFFFFFFFFFFFFFFFFFFFFFFFFFFFFFFFFFFFFFFF00FFFFFFFFFFFFFFFFFFFFFFFFFFFFFFFFFFFFFFFFFFFFFFFFFFFFFFFFFF
310
FF00FFFFFFFFFFFFFFFFFFFFFFFFFFFFFFFFFFFFFFFFFFFFFFFFFFFFFFFFFFFFFF00FFFFFFFFFFFFFFFFFFFFFFFFFFFFFFFFFFFFFFFFFFFFFFFFFFFFFFFFFFFF00FFFFFFFFFFFFFFFFFFFFFFFFFFFFFFFFFFFFFFFFFFFFFFFFFFFFFFFFFF0000FFFFFFFFFFFFFFFFFFFFFFFFFFFFFFFFFFFFFFFFFFFFFFFFFFFFFFFF0000FF
310
FFFFFFFFFFFFFFFFFFFFFFFFFFFFFFFFFFFFFFFFFFFFFFFFFF00000000FFFFFFFFFFFFFFFFFFFFFFFFFFFFFFFFFFFFFFFFFFFFFFFFFFFF0000FFFFFFFFFFFFFFFFFFFFFFFFFFFFFFFFFFFFFFFFFFFFFFFFFFFFFFFFFFFFFFFFFFFFFFFFFFFFFFFFFFFFFFFFFFFFFFFFFFFFFFFFFFFFFFFFFFFFFFFFFFFFFFFFFFFFFFFFFFFF
310
FFFFFFFFFFFFFFFFFFFFFFFFFFFFFFFFFFFFFFFFFFFFFFFFFFFFFFFFFFFFFFFFFFFFFFFFFFFFFFFFFFFFFFFFFFFFFFFFFFFFFFFFFFFFFFFF
102
{BLKREFS
331
435
102
}
  0
BLOCK_RECORD
  5
413
330
1
100
AcDbSymbolTableRecord
100
AcDbBlockTableRecord
  2
AI9-BLK5
340
0
310
2800000020000000200000000100080000000000000400000000000000000000000000000000000000000000000080000080000000808000800000008000800080800000C0C0C000C0DCC000F0CAA6000020400000206000002080000020A0000020C0000020E00000400000004020000040400000406000004080000040A0
310
000040C0000040E00000600000006020000060400000606000006080000060A0000060C0000060E00000800000008020000080400000806000008080000080A0000080C0000080E00000A0000000A0200000A0400000A0600000A0800000A0A00000A0C00000A0E00000C0000000C0200000C0400000C0600000C0800000C0
310
A00000C0C00000C0E00000E0000000E0200000E0400000E0600000E0800000E0A00000E0C00000E0E00040000000400020004000400040006000400080004000A0004000C0004000E00040200000402020004020400040206000402080004020A0004020C0004020E000404000004040200040404000404060004040800040
310
40A0004040C0004040E00040600000406020004060400040606000406080004060A0004060C0004060E00040800000408020004080400040806000408080004080A0004080C0004080E00040A0000040A0200040A0400040A0600040A0800040A0A00040A0C00040A0E00040C0000040C0200040C0400040C0600040C08000
310
40C0A00040C0C00040C0E00040E0000040E0200040E0400040E0600040E0800040E0A00040E0C00040E0E00080000000800020008000400080006000800080008000A0008000C0008000E00080200000802020008020400080206000802080008020A0008020C0008020E00080400000804020008040400080406000804080
310
008040A0008040C0008040E00080600000806020008060400080606000806080008060A0008060C0008060E00080800000808020008080400080806000808080008080A0008080C0008080E00080A0000080A0200080A0400080A0600080A0800080A0A00080A0C00080A0E00080C0000080C0200080C0400080C0600080C0
310
800080C0A00080C0C00080C0E00080E0000080E0200080E0400080E0600080E0800080E0A00080E0C00080E0E000C0000000C0002000C0004000C0006000C0008000C000A000C000C000C000E000C0200000C0202000C0204000C0206000C0208000C020A000C020C000C020E000C0400000C0402000C0404000C0406000C0
310
408000C040A000C040C000C040E000C0600000C0602000C0604000C0606000C0608000C060A000C060C000C060E000C0800000C0802000C0804000C0806000C0808000C080A000C080C000C080E000C0A00000C0A02000C0A04000C0A06000C0A08000C0A0A000C0A0C000C0A0E000C0C00000C0C02000C0C04000C0C06000
310
C0C08000C0C0A000F0FBFF00A4A0A000808080000000FF0000FF000000FFFF00FF000000FF00FF00FFFF0000FFFFFF00FFFFFFFFFFFFFFFFFFFFFFFFFFFFFFFFFFFFFFFFFFFFFFFFFFFFFFFFFFFFFFFFFFFFFFFFFFFFFFFF000000000000000000000000000000000000000000000000FFFFFFFFFFFFFFFF00FFFFFFFFFFFF
310
FFFFFFFFFFFFFFFFFFFFFFFFFFFFFFFFFFFFFFFFFFFFFFFFFF00FFFFFFFFFFFFFFFFFFFFFFFFFFFFFFFFFFFFFFFFFFFFFFFFFFFFFFFFFFFFFF00FFFFFFFFFFFFFFFFFFFFFFFFFFFFFFFFFFFFFFFFFFFFFFFFFFFFFFFFFFFFFF00FFFFFFFFFFFFFFFFFFFFFFFFFFFFFFFFFFFFFFFFFFFFFFFFFFFFFFFFFFFFFF00FFFFFFFFFF
310
FFFFFFFFFFFFFFFFFFFFFFFFFFFFFFFFFFFFFFFFFFFFFFFFFFFF00FFFFFFFFFFFFFFFFFFFFFFFFFFFFFFFFFFFFFFFFFFFFFFFFFFFFFFFFFFFFFF00FFFFFFFFFFFFFFFFFFFFFFFFFFFFFFFFFFFFFFFFFFFFFFFFFFFFFFFFFFFFFF00FFFFFFFFFFFFFFFFFFFFFFFFFFFFFFFFFFFFFFFFFFFFFFFFFFFFFFFFFFFFFF00FFFFFFFF
310
FFFFFFFFFFFFFFFFFFFFFFFFFFFFFFFFFFFFFFFFFFFFFFFFFFFFFF00FFFFFFFFFFFFFFFFFFFFFFFFFFFFFFFFFFFFFFFFFFFFFFFFFFFFFFFFFFFFFF00FFFFFFFFFFFFFFFFFFFFFFFFFFFFFFFFFFFFFFFFFFFFFFFFFFFFFFFFFFFFFF00FFFFFFFFFFFFFFFFFFFFFFFFFFFFFFFFFFFFFFFFFFFFFFFFFFFFFFFFFFFFFF00FFFFFF
310
FFFFFFFFFFFFFFFFFFFFFFFFFFFFFFFFFFFFFFFFFFFFFFFFFFFFFFFF00FFFFFFFFFFFFFFFFFFFFFFFFFFFFFFFFFFFFFFFFFFFFFFFFFFFFFFFFFFFFFF00FFFFFFFFFFFFFFFFFFFFFFFFFFFFFFFFFFFFFFFFFFFFFFFFFFFFFFFFFFFFFF00FFFFFFFFFFFFFFFFFFFFFFFFFFFFFFFFFFFFFFFFFFFFFFFFFFFFFFFFFFFFFF00FFFF
310
FFFFFFFFFFFFFFFFFFFFFFFFFFFFFFFFFFFFFFFFFFFFFFFFFFFFFFFFFF00FFFFFFFFFFFFFFFFFFFFFFFFFFFFFFFFFFFFFFFFFFFFFFFFFFFFFFFFFFFFFF00FFFFFFFFFFFFFFFFFFFFFFFFFFFFFFFFFFFFFFFFFFFFFFFFFFFFFFFFFFFFFF00FFFFFFFFFFFFFFFFFFFFFFFFFFFFFFFFFFFFFFFFFFFFFFFFFFFFFFFFFFFFFF00FF
310
FFFFFFFFFFFFFFFFFFFFFFFFFFFFFFFFFFFFFFFFFFFFFFFFFFFFFFFFFFFF00FFFFFFFFFFFFFFFFFFFFFFFFFFFFFFFFFFFFFFFFFFFFFFFFFFFFFFFFFFFFFF00FFFFFFFFFFFFFFFFFFFFFFFFFFFFFFFFFFFFFFFFFFFFFFFFFFFFFFFFFFFFFF00FFFFFFFFFFFFFFFFFFFFFFFFFFFFFFFFFFFFFFFFFFFFFFFFFFFFFFFFFFFFFF00
310
FFFFFFFFFFFFFFFFFFFFFFFFFFFFFFFFFFFFFFFFFFFFFFFFFFFFFFFFFFFFFF00FFFFFFFFFFFFFFFFFFFFFFFFFFFFFFFFFFFFFFFFFFFFFFFFFFFFFFFFFFFFFF00FFFFFFFFFFFFFFFFFFFFFFFFFFFFFFFFFFFFFFFFFFFFFFFFFFFFFFFFFFFFFF00FFFFFFFFFFFFFFFFFFFFFFFFFFFFFFFFFFFFFFFFFFFFFFFFFFFFFFFFFFFFFF
310
00FFFFFFFFFFFFFFFFFFFFFFFFFFFF000000000000000000FFFFFFFFFFFFFFFF00FFFFFFFFFFFFFFFFFFFFFFFFFFFF00FFFFFFFFFFFFFFFF
102
{BLKREFS
331
436
102
}
  0
BLOCK_RECORD
  5
418
330
1
100
AcDbSymbolTableRecord
100
AcDbBlockTableRecord
  2
AI9-BLK4
340
0
310
2800000020000000200000000100080000000000000400000000000000000000000000000000000000000000000080000080000000808000800000008000800080800000C0C0C000C0DCC000F0CAA6000020400000206000002080000020A0000020C0000020E00000400000004020000040400000406000004080000040A0
310
000040C0000040E00000600000006020000060400000606000006080000060A0000060C0000060E00000800000008020000080400000806000008080000080A0000080C0000080E00000A0000000A0200000A0400000A0600000A0800000A0A00000A0C00000A0E00000C0000000C0200000C0400000C0600000C0800000C0
310
A00000C0C00000C0E00000E0000000E0200000E0400000E0600000E0800000E0A00000E0C00000E0E00040000000400020004000400040006000400080004000A0004000C0004000E00040200000402020004020400040206000402080004020A0004020C0004020E000404000004040200040404000404060004040800040
310
40A0004040C0004040E00040600000406020004060400040606000406080004060A0004060C0004060E00040800000408020004080400040806000408080004080A0004080C0004080E00040A0000040A0200040A0400040A0600040A0800040A0A00040A0C00040A0E00040C0000040C0200040C0400040C0600040C08000
310
40C0A00040C0C00040C0E00040E0000040E0200040E0400040E0600040E0800040E0A00040E0C00040E0E00080000000800020008000400080006000800080008000A0008000C0008000E00080200000802020008020400080206000802080008020A0008020C0008020E00080400000804020008040400080406000804080
310
008040A0008040C0008040E00080600000806020008060400080606000806080008060A0008060C0008060E00080800000808020008080400080806000808080008080A0008080C0008080E00080A0000080A0200080A0400080A0600080A0800080A0A00080A0C00080A0E00080C0000080C0200080C0400080C0600080C0
310
800080C0A00080C0C00080C0E00080E0000080E0200080E0400080E0600080E0800080E0A00080E0C00080E0E000C0000000C0002000C0004000C0006000C0008000C000A000C000C000C000E000C0200000C0202000C0204000C0206000C0208000C020A000C020C000C020E000C0400000C0402000C0404000C0406000C0
310
408000C040A000C040C000C040E000C0600000C0602000C0604000C0606000C0608000C060A000C060C000C060E000C0800000C0802000C0804000C0806000C0808000C080A000C080C000C080E000C0A00000C0A02000C0A04000C0A06000C0A08000C0A0A000C0A0C000C0A0E000C0C00000C0C02000C0C04000C0C06000
310
C0C08000C0C0A000F0FBFF00A4A0A000808080000000FF0000FF000000FFFF00FF000000FF00FF00FFFF0000FFFFFF00FFFFFFFFFFFFFFFFFFFFFFFFFFFFFFFFFFFFFFFFFFFFFFFFFFFFFFFFFFFFFFFFFFFFFFFFFFFFFFFFFFFFFFFFFFFF00000000FFFFFFFFFFFFFFFFFFFFFF000000FFFFFFFFFFFFFFFFFFFFFFFFFFFF00
310
FFFF00FFFFFFFFFFFFFFFFFFFFFF00FFFFFFFFFFFFFFFFFFFFFFFFFFFFFFFF00FFFF00FFFFFFFFFFFFFFFFFFFFFF00FFFFFFFFFFFFFFFFFFFFFFFFFFFFFFFF00FFFF00FFFFFFFFFFFFFFFFFFFFFF00FFFFFFFFFFFFFFFFFFFFFFFFFFFFFFFF00FFFF00FFFFFFFFFFFFFFFFFFFFFF00FFFFFFFFFFFFFFFFFFFFFFFFFFFFFFFF
310
00FFFF00FFFFFFFFFFFFFFFFFFFFFF00FFFFFFFFFFFFFFFFFFFFFFFFFFFFFFFF00FFFF00FFFFFFFFFFFFFFFFFFFFFF00FFFFFFFFFFFFFFFFFFFFFFFFFFFFFFFF00FFFF00FFFFFFFFFFFFFFFFFFFFFF00FFFFFFFFFFFFFFFFFFFFFFFFFFFFFFFF00FFFF00FFFFFFFFFFFFFFFFFFFFFF00FFFFFFFFFFFFFFFFFFFFFFFFFFFFFF
310
FF00FFFF00FFFFFFFFFFFFFFFFFFFFFF00FFFFFFFFFFFFFFFFFFFFFFFFFFFFFFFF00FFFF00FFFFFFFFFFFFFFFFFFFFFF00FFFFFFFFFFFFFFFFFFFFFFFFFFFFFFFF00FFFF00FFFFFFFFFFFFFFFFFFFFFF00FFFFFFFFFFFFFFFFFFFFFFFFFFFFFFFF00FFFF00FFFFFFFFFFFFFFFFFFFFFF00FFFFFFFFFFFFFFFFFFFFFFFFFFFF
310
FFFF00FFFF00FFFFFFFFFFFFFFFFFFFFFF00FFFFFFFFFFFFFFFFFFFFFFFFFFFFFFFF00FFFF00FFFFFFFFFFFFFFFFFFFFFF00FFFFFFFFFFFFFFFFFFFFFFFFFFFFFFFF00FFFF00FFFFFFFFFFFFFFFFFFFFFF00FFFFFFFFFFFFFFFFFFFFFFFFFFFFFFFF00FFFF00FFFFFFFFFFFFFFFFFFFF00FFFFFFFFFFFFFFFFFFFFFFFFFFFF
310
FFFFFF00FFFF00FFFFFFFFFFFFFFFFFFFF00FFFFFFFFFFFFFFFFFFFFFFFFFFFFFFFFFF00FFFF00FFFFFFFFFFFFFFFFFFFF00FFFFFFFFFFFFFFFFFFFFFFFFFFFFFFFFFF00FFFF00FFFFFFFFFFFFFFFFFFFF00FFFFFFFFFFFFFFFFFFFFFFFFFFFFFFFFFF00FFFF00FFFFFFFFFFFFFFFFFFFF00FFFFFFFFFFFFFFFFFFFFFFFFFF
310
FFFFFFFF00FFFF00FFFFFFFFFFFFFFFFFF0000FFFF00FFFFFFFFFFFFFFFFFFFFFFFFFFFF00FFFF00FFFFFFFFFFFFFFFF0000FFFFFF00FFFFFFFFFFFFFFFFFFFFFFFFFFFF00FFFF00000000000000000000FFFFFFFF00FFFFFFFFFFFFFFFFFFFFFFFFFFFF00FFFFFFFFFFFFFFFFFFFFFFFFFFFFFF00FFFFFFFFFFFFFFFFFFFF
310
FFFFFFFFFF00FFFFFFFFFFFFFFFFFFFFFFFFFFFF00FFFFFFFFFFFFFFFFFFFFFFFFFFFFFFFF00FFFFFFFFFFFFFFFFFFFFFFFFFFFF00FFFFFFFFFFFFFFFFFFFFFFFFFFFFFFFF00FFFFFFFFFFFFFFFFFFFFFFFFFFFFFF00FFFFFFFFFFFFFFFFFFFFFFFFFFFFFF00FFFFFFFFFFFFFFFFFFFFFFFFFFFFFF00FFFFFFFFFFFFFFFFFF
310
FFFFFFFFFFFF00FFFF00000000000000000000FFFFFFFF00FFFFFFFFFFFFFFFFFFFFFFFFFFFF00FFFF00FFFFFFFFFFFFFFFFFF0000FFFF00
102
{BLKREFS
331
437
102
}
  0
BLOCK_RECORD
  5
41D
330
1
100
AcDbSymbolTableRecord
100
AcDbBlockTableRecord
  2
AI9-BLK3
340
0
310
2800000020000000200000000100080000000000000400000000000000000000000000000000000000000000000080000080000000808000800000008000800080800000C0C0C000C0DCC000F0CAA6000020400000206000002080000020A0000020C0000020E00000400000004020000040400000406000004080000040A0
310
000040C0000040E00000600000006020000060400000606000006080000060A0000060C0000060E00000800000008020000080400000806000008080000080A0000080C0000080E00000A0000000A0200000A0400000A0600000A0800000A0A00000A0C00000A0E00000C0000000C0200000C0400000C0600000C0800000C0
310
A00000C0C00000C0E00000E0000000E0200000E0400000E0600000E0800000E0A00000E0C00000E0E00040000000400020004000400040006000400080004000A0004000C0004000E00040200000402020004020400040206000402080004020A0004020C0004020E000404000004040200040404000404060004040800040
310
40A0004040C0004040E00040600000406020004060400040606000406080004060A0004060C0004060E00040800000408020004080400040806000408080004080A0004080C0004080E00040A0000040A0200040A0400040A0600040A0800040A0A00040A0C00040A0E00040C0000040C0200040C0400040C0600040C08000
310
40C0A00040C0C00040C0E00040E0000040E0200040E0400040E0600040E0800040E0A00040E0C00040E0E00080000000800020008000400080006000800080008000A0008000C0008000E00080200000802020008020400080206000802080008020A0008020C0008020E00080400000804020008040400080406000804080
310
008040A0008040C0008040E00080600000806020008060400080606000806080008060A0008060C0008060E00080800000808020008080400080806000808080008080A0008080C0008080E00080A0000080A0200080A0400080A0600080A0800080A0A00080A0C00080A0E00080C0000080C0200080C0400080C0600080C0
310
800080C0A00080C0C00080C0E00080E0000080E0200080E0400080E0600080E0800080E0A00080E0C00080E0E000C0000000C0002000C0004000C0006000C0008000C000A000C000C000C000E000C0200000C0202000C0204000C0206000C0208000C020A000C020C000C020E000C0400000C0402000C0404000C0406000C0
310
408000C040A000C040C000C040E000C0600000C0602000C0604000C0606000C0608000C060A000C060C000C060E000C0800000C0802000C0804000C0806000C0808000C080A000C080C000C080E000C0A00000C0A02000C0A04000C0A06000C0A08000C0A0A000C0A0C000C0A0E000C0C00000C0C02000C0C04000C0C06000
310
C0C08000C0C0A000F0FBFF00A4A0A000808080000000FF0000FF000000FFFF00FF000000FF00FF00FFFF0000FFFFFF00FFFFFFFFFFFFFFFFFFFFFFFFFFFFFFFFFFFFFFFFFFFFFFFFFFFFFFFFFFFFFFFFFFFFFFFFFFFFFFFFFFFFFFFFFFFFFF0000FFFFFFFFFFFFFFFFFFFFFFFFFFFFFFFFFFFFFFFFFFFFFFFFFFFFFFFFFFFF
310
0000FFFFFFFFFFFFFFFFFFFFFFFFFFFFFFFFFFFFFFFFFFFFFFFFFFFFFFFFFFFF0000FFFFFFFFFFFFFFFFFFFFFFFFFFFFFFFFFFFFFFFFFFFFFFFFFFFFFFFFFFFF0000FFFFFFFFFFFFFFFFFFFFFFFFFFFFFFFFFFFFFFFFFFFFFFFFFFFFFFFFFFFF0000FFFFFFFFFFFFFFFFFFFFFFFFFFFFFFFFFFFFFFFFFFFFFFFFFFFFFFFFFF
310
FF0000FFFFFFFFFFFFFFFFFFFFFFFFFFFFFFFFFFFFFFFFFFFFFFFFFFFFFFFFFFFF0000FFFFFFFFFFFFFFFFFFFFFFFFFFFFFFFFFFFFFFFFFFFFFFFFFFFFFFFFFFFF0000FFFFFFFFFFFFFFFFFFFFFFFFFFFFFFFFFFFFFFFFFFFFFFFFFFFFFFFFFFFF0000FFFFFFFFFFFFFFFFFFFFFFFFFFFFFFFFFFFFFFFFFFFFFFFFFFFFFFFF
310
FFFF0000FFFFFFFFFFFFFFFFFFFFFFFFFFFFFFFFFFFFFFFFFFFFFFFFFFFFFFFFFFFF0000FFFFFFFFFFFFFFFFFFFFFFFFFFFFFFFFFFFFFFFFFFFFFFFFFFFFFFFFFFFF0000FFFFFFFFFFFFFFFFFFFFFFFFFFFFFFFFFFFFFFFFFFFFFFFFFFFFFFFFFFFF0000FFFFFFFFFFFFFFFFFFFFFFFFFFFFFFFFFFFFFFFFFFFFFFFFFFFFFF
310
FFFFFF0000FFFFFFFFFFFFFFFFFFFFFFFFFFFFFFFFFFFFFFFFFFFFFFFFFFFFFFFFFFFF0000FFFFFFFFFFFFFFFFFFFFFFFFFFFFFFFFFFFFFFFFFFFFFFFFFFFFFFFFFFFF0000FFFFFFFFFFFFFFFFFFFFFFFFFFFFFFFFFFFFFFFFFFFFFFFFFFFFFFFFFFFF0000FFFFFFFFFFFFFFFFFFFFFFFFFFFFFFFFFFFFFFFFFFFFFFFFFFFF
310
FFFFFFFF0000FFFFFFFFFFFFFFFFFFFFFFFFFFFFFFFFFFFFFFFFFFFFFFFFFFFFFFFFFFFF0000FFFFFFFFFFFFFFFFFFFFFFFFFFFFFFFFFFFFFFFFFFFFFFFFFFFFFFFFFFFF0000FFFFFFFFFFFFFFFFFFFFFFFFFFFFFFFFFFFFFFFFFFFFFFFFFFFFFFFFFFFF0000FFFFFFFFFFFFFFFFFFFFFFFFFFFFFFFFFFFFFFFFFFFFFFFFFF
310
FFFFFFFFFF0000FFFFFFFFFFFFFFFFFFFFFFFFFFFFFFFFFFFFFFFFFFFFFFFFFFFFFFFFFFFF0000FFFFFFFFFFFFFFFFFFFFFFFFFFFFFFFFFFFFFFFFFFFFFFFFFFFFFFFFFFFF0000FFFFFFFFFFFFFFFFFFFFFFFFFFFFFFFFFFFFFFFFFFFFFFFFFFFFFFFFFFFF0000FFFFFFFFFFFFFFFFFFFFFFFFFFFFFFFFFFFFFFFFFFFFFFFF
310
FFFFFFFFFFFF0000FFFFFFFFFFFFFFFFFFFFFFFFFFFFFFFFFFFFFFFFFFFFFFFFFFFFFFFFFFFF0000FFFFFFFFFFFFFFFFFFFFFFFFFFFFFFFFFFFFFFFFFFFFFFFFFFFFFFFFFFFF0000FFFFFFFFFFFFFFFFFFFFFFFFFFFFFFFFFFFFFFFFFFFFFFFFFFFFFFFFFFFF0000FFFFFFFFFFFFFFFFFFFFFFFFFFFFFFFFFFFFFFFFFFFFFF
310
FFFFFFFFFFFFFF0000FFFFFFFFFFFFFFFFFFFFFFFFFFFFFFFFFFFFFFFFFFFFFFFFFFFFFFFFFFFFFFFFFFFFFFFFFFFFFFFFFFFFFFFFFFFFFF
102
{BLKREFS
331
438
102
}
  0
BLOCK_RECORD
  5
422
330
1
100
AcDbSymbolTableRecord
100
AcDbBlockTableRecord
  2
AI9-BLK2
340
0
310
2800000020000000200000000100080000000000000400000000000000000000000000000000000000000000000080000080000000808000800000008000800080800000C0C0C000C0DCC000F0CAA6000020400000206000002080000020A0000020C0000020E00000400000004020000040400000406000004080000040A0
310
000040C0000040E00000600000006020000060400000606000006080000060A0000060C0000060E00000800000008020000080400000806000008080000080A0000080C0000080E00000A0000000A0200000A0400000A0600000A0800000A0A00000A0C00000A0E00000C0000000C0200000C0400000C0600000C0800000C0
310
A00000C0C00000C0E00000E0000000E0200000E0400000E0600000E0800000E0A00000E0C00000E0E00040000000400020004000400040006000400080004000A0004000C0004000E00040200000402020004020400040206000402080004020A0004020C0004020E000404000004040200040404000404060004040800040
310
40A0004040C0004040E00040600000406020004060400040606000406080004060A0004060C0004060E00040800000408020004080400040806000408080004080A0004080C0004080E00040A0000040A0200040A0400040A0600040A0800040A0A00040A0C00040A0E00040C0000040C0200040C0400040C0600040C08000
310
40C0A00040C0C00040C0E00040E0000040E0200040E0400040E0600040E0800040E0A00040E0C00040E0E00080000000800020008000400080006000800080008000A0008000C0008000E00080200000802020008020400080206000802080008020A0008020C0008020E00080400000804020008040400080406000804080
310
008040A0008040C0008040E00080600000806020008060400080606000806080008060A0008060C0008060E00080800000808020008080400080806000808080008080A0008080C0008080E00080A0000080A0200080A0400080A0600080A0800080A0A00080A0C00080A0E00080C0000080C0200080C0400080C0600080C0
310
800080C0A00080C0C00080C0E00080E0000080E0200080E0400080E0600080E0800080E0A00080E0C00080E0E000C0000000C0002000C0004000C0006000C0008000C000A000C000C000C000E000C0200000C0202000C0204000C0206000C0208000C020A000C020C000C020E000C0400000C0402000C0404000C0406000C0
310
408000C040A000C040C000C040E000C0600000C0602000C0604000C0606000C0608000C060A000C060C000C060E000C0800000C0802000C0804000C0806000C0808000C080A000C080C000C080E000C0A00000C0A02000C0A04000C0A06000C0A08000C0A0A000C0A0C000C0A0E000C0C00000C0C02000C0C04000C0C06000
310
C0C08000C0C0A000F0FBFF00A4A0A000808080000000FF0000FF000000FFFF00FF000000FF00FF00FFFF0000FFFFFF00FFFFFFFFFFFFFFFFFFFFFFFFFFFFFFFFFFFFFFFFFFFFFFFFFFFFFFFFFFFFFFFFFFFFFFFFFFFFFFFFFFFFFFFFFFFFFF0000FFFFFFFFFFFFFFFFFFFFFFFFFFFFFFFFFFFFFFFFFFFFFFFFFFFFFFFFFFFF
310
0000FFFFFFFFFFFFFFFFFFFFFFFFFFFFFFFFFFFFFFFFFFFFFFFFFFFFFFFFFFFF0000FFFFFFFFFFFFFFFFFFFFFFFFFFFFFFFFFFFFFFFFFFFFFFFFFFFFFFFFFF00FFFF00FFFFFFFFFFFFFFFFFFFFFFFFFFFFFFFFFFFFFFFFFFFFFFFFFFFFFFFF00FFFF00FFFFFFFFFFFFFFFFFFFFFFFFFFFFFFFFFFFFFFFFFFFFFFFFFFFFFFFF
310
00FF0000FFFFFFFFFFFFFFFFFFFFFFFFFFFFFFFFFFFFFFFFFFFFFFFFFFFFFFFF00FF0000FFFFFFFFFFFFFFFFFFFFFFFFFFFFFFFFFFFFFFFFFFFFFFFFFFFFFFFF00FF0000FFFFFFFFFFFFFFFFFFFFFFFFFFFFFFFFFFFFFFFFFFFFFFFFFFFFFFFF00000000FFFFFFFFFFFFFFFFFFFFFFFFFFFFFFFFFFFFFFFFFFFFFFFFFFFFFF
310
00FF00FF0000FFFFFFFFFFFFFFFFFFFFFFFFFFFFFFFFFFFFFFFFFFFFFFFFFFFF00FF00FF0000FFFFFFFFFFFFFFFFFFFFFFFFFFFFFFFFFFFFFFFFFFFFFFFFFFFF00FF00FF0000FFFFFFFFFFFFFFFFFFFFFFFFFFFFFFFFFFFFFFFFFFFFFFFFFFFF00FF00FF0000FFFFFFFFFFFFFFFFFFFFFFFFFFFFFFFFFFFFFFFFFFFFFFFFFF
310
FF00FF00FF0000FFFFFFFFFFFFFFFFFFFFFFFFFFFFFFFFFFFFFFFFFFFFFFFFFFFF0000FFFF0000FFFFFFFFFFFFFFFFFFFFFFFFFFFFFFFFFFFFFFFFFFFFFFFFFF00FF00FFFF00FF00FFFFFFFFFFFFFFFFFFFFFFFFFFFFFFFFFFFFFFFFFFFFFFFF00FF00FFFF00FF00FFFFFFFFFFFFFFFFFFFFFFFFFFFFFFFFFFFFFFFFFFFFFF
310
FF00FF00FFFFFF0000FFFFFFFFFFFFFFFFFFFFFFFFFFFFFFFFFFFFFFFFFFFFFFFF00FF00FFFFFF0000FFFFFFFFFFFFFFFFFFFFFFFFFFFFFFFFFFFFFFFFFFFFFFFF00FF00FFFFFF0000FFFFFFFFFFFFFFFFFFFFFFFFFFFFFFFFFFFFFFFFFFFFFFFF0000FFFFFFFF0000FFFFFFFFFFFFFFFFFFFFFFFFFFFFFFFFFFFFFFFFFFFF
310
FF00FF00FFFFFFFF00FF00FFFFFFFFFFFFFFFFFFFFFFFFFFFFFFFFFFFFFFFFFFFF00FF00FFFFFFFF00FF00FFFFFFFFFFFFFFFFFFFFFFFFFFFFFFFFFFFFFFFFFFFF00FF00FFFFFFFF00FF00FFFFFFFFFFFFFFFFFFFFFFFFFFFFFFFFFFFFFFFFFFFF00FF00FFFFFFFF00FF00FFFFFFFFFFFFFFFFFFFFFFFFFFFFFFFFFFFFFFFF
310
FFFF00FF00FFFFFFFFFF0000FFFFFFFFFFFFFFFFFFFFFFFFFFFFFFFFFFFFFFFFFFFF0000FFFFFFFFFFFF0000FFFFFFFFFFFFFFFFFFFFFFFFFFFFFFFFFFFFFFFFFF00FF00FFFFFFFFFFFF00FF00FFFFFFFFFFFFFFFFFFFFFFFFFFFFFFFFFFFFFFFF00FF00FFFFFFFFFFFF00FF00FFFFFFFFFFFFFFFFFFFFFFFFFFFFFFFFFFFF
310
FFFF000000FFFFFFFFFFFF000000FFFFFFFFFFFFFFFFFFFFFFFFFFFFFFFFFFFFFFFFFFFFFFFFFFFFFFFFFFFFFFFFFFFFFFFFFFFFFFFFFFFF
102
{BLKREFS
331
439
102
}
  0
BLOCK_RECORD
  5
427
330
1
100
AcDbSymbolTableRecord
100
AcDbBlockTableRecord
  2
AI9-BLK1
340
0
310
2800000020000000200000000100080000000000000400000000000000000000000000000000000000000000000080000080000000808000800000008000800080800000C0C0C000C0DCC000F0CAA6000020400000206000002080000020A0000020C0000020E00000400000004020000040400000406000004080000040A0
310
000040C0000040E00000600000006020000060400000606000006080000060A0000060C0000060E00000800000008020000080400000806000008080000080A0000080C0000080E00000A0000000A0200000A0400000A0600000A0800000A0A00000A0C00000A0E00000C0000000C0200000C0400000C0600000C0800000C0
310
A00000C0C00000C0E00000E0000000E0200000E0400000E0600000E0800000E0A00000E0C00000E0E00040000000400020004000400040006000400080004000A0004000C0004000E00040200000402020004020400040206000402080004020A0004020C0004020E000404000004040200040404000404060004040800040
310
40A0004040C0004040E00040600000406020004060400040606000406080004060A0004060C0004060E00040800000408020004080400040806000408080004080A0004080C0004080E00040A0000040A0200040A0400040A0600040A0800040A0A00040A0C00040A0E00040C0000040C0200040C0400040C0600040C08000
310
40C0A00040C0C00040C0E00040E0000040E0200040E0400040E0600040E0800040E0A00040E0C00040E0E00080000000800020008000400080006000800080008000A0008000C0008000E00080200000802020008020400080206000802080008020A0008020C0008020E00080400000804020008040400080406000804080
310
008040A0008040C0008040E00080600000806020008060400080606000806080008060A0008060C0008060E00080800000808020008080400080806000808080008080A0008080C0008080E00080A0000080A0200080A0400080A0600080A0800080A0A00080A0C00080A0E00080C0000080C0200080C0400080C0600080C0
310
800080C0A00080C0C00080C0E00080E0000080E0200080E0400080E0600080E0800080E0A00080E0C00080E0E000C0000000C0002000C0004000C0006000C0008000C000A000C000C000C000E000C0200000C0202000C0204000C0206000C0208000C020A000C020C000C020E000C0400000C0402000C0404000C0406000C0
310
408000C040A000C040C000C040E000C0600000C0602000C0604000C0606000C0608000C060A000C060C000C060E000C0800000C0802000C0804000C0806000C0808000C080A000C080C000C080E000C0A00000C0A02000C0A04000C0A06000C0A08000C0A0A000C0A0C000C0A0E000C0C00000C0C02000C0C04000C0C06000
310
C0C08000C0C0A000F0FBFF00A4A0A000808080000000FF0000FF000000FFFF00FF000000FF00FF00FFFF0000FFFFFF00FFFFFFFFFFFFFFFFFFFFFFFFFFFFFFFFFFFFFFFFFFFFFFFFFFFFFFFFFFFFFFFFFFFFFFFFFFFFFFFFFFFFFF00000000000000000000FFFFFFFFFFFFFFFFFFFFFFFFFFFFFFFFFFFFFFFFFFFF00FFFFFF
310
FFFFFFFFFF00FFFFFFFFFFFFFFFFFFFFFFFFFFFFFFFFFFFFFFFFFFFF00FFFFFFFFFFFFFFFF00FFFFFFFFFFFFFFFFFFFFFFFFFFFFFFFFFFFFFFFFFFFF00FFFFFFFFFFFFFFFF00FFFFFFFFFFFFFFFFFFFFFFFFFFFFFFFFFFFFFFFFFFFF00FF0000000000000000FFFFFFFFFFFFFFFFFFFFFFFFFFFFFFFFFFFFFFFFFFFF00FF00
310
FFFFFFFFFFFFFFFFFFFFFFFFFFFFFFFFFFFFFFFFFFFFFFFFFFFFFFFFFF00FF00FFFFFFFFFFFFFFFFFFFFFFFFFFFFFFFFFFFFFFFFFFFFFFFFFFFFFFFFFF00FF00FFFFFFFFFFFFFFFFFFFFFFFFFFFFFFFFFFFFFFFFFFFFFFFFFFFFFFFFFF00FF00FFFFFFFFFFFFFFFFFFFFFFFFFFFFFFFFFFFFFFFFFFFFFFFFFFFFFFFFFF00FF
310
00FFFFFFFFFFFFFFFFFFFFFFFFFFFFFFFFFFFFFFFFFFFFFFFFFFFFFFFFFF00FF00FFFFFFFFFFFFFFFFFFFFFFFFFFFFFFFFFFFFFFFFFFFFFFFFFFFFFFFFFF00FF00FFFFFFFFFFFFFFFFFFFFFFFFFFFFFFFFFFFFFFFFFFFFFFFFFFFFFFFFFF00FF00FFFFFFFFFFFFFFFFFFFFFFFFFFFFFFFFFFFFFFFFFFFFFFFFFFFFFFFFFF00
310
FF00000000000000FFFFFFFFFFFFFFFFFFFFFFFFFFFFFFFFFFFFFFFFFFFFFF00FFFFFFFFFFFFFF00FFFFFFFFFFFFFFFFFFFFFFFFFFFFFFFFFFFFFFFFFFFFFF00FFFFFFFFFFFFFF00FFFFFFFFFFFFFFFFFFFFFFFFFFFFFFFFFFFFFFFFFFFFFF00FFFFFFFFFFFFFF00FFFFFFFFFFFFFFFFFFFFFFFFFFFFFFFFFFFFFFFFFFFFFF
310
00FF00000000000000FFFFFFFFFFFFFFFFFFFFFFFFFFFFFFFFFFFFFFFFFFFFFF00FF00FFFFFFFFFFFFFFFFFFFFFFFFFFFFFFFFFFFFFFFFFFFFFFFFFFFFFFFFFF00FF00FFFFFFFFFFFFFFFFFFFFFFFFFFFFFFFFFFFFFFFFFFFFFFFFFFFFFFFFFF00FF00FFFFFFFFFFFFFFFFFFFFFFFFFFFFFFFFFFFFFFFFFFFFFFFFFFFFFFFF
310
FF00FF00FFFFFFFFFFFFFFFFFFFFFFFFFFFFFFFFFFFFFFFFFFFFFFFFFFFFFFFFFF00FF00FFFFFFFFFFFFFFFFFFFFFFFFFFFFFFFFFFFFFFFFFFFFFFFFFFFFFFFFFF00FF00FFFFFFFFFFFFFFFFFFFFFFFFFFFFFFFFFFFFFFFFFFFFFFFFFFFFFFFFFF00FF00FFFFFFFFFFFFFFFFFFFFFFFFFFFFFFFFFFFFFFFFFFFFFFFFFFFFFF
310
FFFF00FF0000000000000000FFFFFFFFFFFFFFFFFFFFFFFFFFFFFFFFFFFFFFFFFFFF00FFFFFFFFFFFFFFFF00FFFFFFFFFFFFFFFFFFFFFFFFFFFFFFFFFFFFFFFFFFFF00FFFFFFFFFFFFFFFF00FFFFFFFFFFFFFFFFFFFFFFFFFFFFFFFFFFFFFFFFFFFF00FFFFFFFFFFFFFFFF00FFFFFFFFFFFFFFFFFFFFFFFFFFFFFFFFFFFFFF
310
FFFFFF00000000000000000000FFFFFFFFFFFFFFFFFFFFFFFFFFFFFFFFFFFFFFFFFFFFFFFFFFFFFFFFFFFFFFFFFFFFFFFFFFFFFFFFFFFFFF
102
{BLKREFS
331
43A
102
}
  0
BLOCK_RECORD
  5
42C
330
1
100
AcDbSymbolTableRecord
100
AcDbBlockTableRecord
  2
HD_LLC_logo_OT5
340
0
310
2800000020000000200000000100080000000000000400000000000000000000000000000000000000000000000080000080000000808000800000008000800080800000C0C0C000C0DCC000F0CAA6000020400000206000002080000020A0000020C0000020E00000400000004020000040400000406000004080000040A0
310
000040C0000040E00000600000006020000060400000606000006080000060A0000060C0000060E00000800000008020000080400000806000008080000080A0000080C0000080E00000A0000000A0200000A0400000A0600000A0800000A0A00000A0C00000A0E00000C0000000C0200000C0400000C0600000C0800000C0
310
A00000C0C00000C0E00000E0000000E0200000E0400000E0600000E0800000E0A00000E0C00000E0E00040000000400020004000400040006000400080004000A0004000C0004000E00040200000402020004020400040206000402080004020A0004020C0004020E000404000004040200040404000404060004040800040
310
40A0004040C0004040E00040600000406020004060400040606000406080004060A0004060C0004060E00040800000408020004080400040806000408080004080A0004080C0004080E00040A0000040A0200040A0400040A0600040A0800040A0A00040A0C00040A0E00040C0000040C0200040C0400040C0600040C08000
310
40C0A00040C0C00040C0E00040E0000040E0200040E0400040E0600040E0800040E0A00040E0C00040E0E00080000000800020008000400080006000800080008000A0008000C0008000E00080200000802020008020400080206000802080008020A0008020C0008020E00080400000804020008040400080406000804080
310
008040A0008040C0008040E00080600000806020008060400080606000806080008060A0008060C0008060E00080800000808020008080400080806000808080008080A0008080C0008080E00080A0000080A0200080A0400080A0600080A0800080A0A00080A0C00080A0E00080C0000080C0200080C0400080C0600080C0
310
800080C0A00080C0C00080C0E00080E0000080E0200080E0400080E0600080E0800080E0A00080E0C00080E0E000C0000000C0002000C0004000C0006000C0008000C000A000C000C000C000E000C0200000C0202000C0204000C0206000C0208000C020A000C020C000C020E000C0400000C0402000C0404000C0406000C0
310
408000C040A000C040C000C040E000C0600000C0602000C0604000C0606000C0608000C060A000C060C000C060E000C0800000C0802000C0804000C0806000C0808000C080A000C080C000C080E000C0A00000C0A02000C0A04000C0A06000C0A08000C0A0A000C0A0C000C0A0E000C0C00000C0C02000C0C04000C0C06000
310
C0C08000C0C0A000F0FBFF00A4A0A000808080000000FF0000FF000000FFFF00FF000000FF00FF00FFFF0000FFFFFF00FFFFFFFFFFFFFFFFFFFFFFFFFFFFFFFFFFFFFFFFFFFFFFFFFFFFFFFFFFFFFFFFFFFFFFFFFFFFFFFFFFFFFFFFFFFFFFFFFFFFFFFFFFFFFFFFFFFFFFFFFFFFFFFFFFFFFFFFFFFFFFFFFFFFFFFFFFFFFF
310
FFFFFFFFFFFFFFFFFFFFFFFFFFFFFFFFFFFFFFFFFFFFFFFFFFFFFFFFFFFFFFFFFFFFFFFFFFFFFFFFFFFFFFFFFFFFFFFFFFFFFFFFFFFFFFFFFFFFFFFFFFFFFFFFFFFFFFFFFFFFFFFFFFFFFFFFFFFFFFFFFFFFFFFFFFFFFFFFFFFFFFFFFFFFFFFFFFFFFFFFFFFFFFFFFFFFFFFFFFFFFFFFFFFFFFFFFFFFFFFFFFFFFFFFFFFFFF
310
FFFFFFFFFFFFFFFFFFFFFFFFFFFFFFFFFFFFFFFFFFFFFFFFFFFFFFFFFFFFFFFFFFFFFFFFFFFFFFFFFFFFFFFFFFFFFFFFFFFFFFFFFFFFFFFFFFFFFFFFFFFFFFFFFFFFFFFFFFFFFFFFFFFFFFFFFFFFFFFFFFFFFFFFFFFFFFFFFFFFFFFFFFFFFFFFFFFFFFFFFFFFFFFFFFFFFFFFFFFFFFFFFFFFFFFFFFFFFFFFFFFFFFFFFFFFFF
310
FFFFFFFFFFFFFFFFFFFFFFFFFFFFFFFFFFFFFFFFFFFFFFFFFFFFFFFFFFFFFFFFFFFFFFFFFFFFFFFFFFFFFFFFFFFFFFFFFFFFFFFF0000000000000000000000000000000000000000000000000000000000FFFFFF0000000000000000000000000000000000FFFFFFFFFFFFFFFFFFFF0000FFFFFF0000000000000000000000
310
00000000000000FFFFFFFFFFFFFFFFFFFF0000FFFF000000000000000000000000000000000000FFFFFF00000000FFFFFF0000FFFF00FFFFFFFFFFFF00FFFFFF00FFFFFFFFFF00FFFFFF0000000000FFFF0000FFFF00FFFFFFFFFFFF00FFFFFF00FFFFFFFFFF00FFFFFF00FFFF0000FFFF0000FFFF00FFFFFFFFFFFF00FFFF
310
00FFFFFFFFFFFF00FFFFFF00FFFF0000FFFF0000FFFF0000000000FFFF00000000FFFFFF00000000FFFFFF00000000FFFFFF0000FFFFFFFFFFFF00FFFFFFFFFFFFFFFFFF00FFFFFFFFFFFFFFFFFFFFFFFFFF0000FFFFFFFFFFFF00FFFFFFFFFFFFFFFFFF00FFFFFFFFFFFFFFFFFFFFFFFFFF0000FFFFFFFFFFFF00FFFFFFFF
310
FFFFFFFFFF00FFFFFFFFFFFFFFFFFFFFFFFF0000FFFFFF0000000000FFFF00000000FFFFFF0000000000000000000000000000FFFFFFFF00FFFFFFFFFFFF00FFFF00FFFFFFFFFFFF00FFFFFFFFFFFFFFFFFFFFFFFFFFFF00FFFFFFFFFFFF00FFFFFF00FFFFFFFFFF00FFFFFFFFFFFFFFFFFFFFFFFFFFFF0000000000000000
310
FFFFFF00000000000000FFFFFFFFFFFFFFFFFFFFFFFFFFFFFFFFFFFFFFFFFFFFFFFFFFFFFFFFFFFFFFFFFFFFFFFFFFFFFFFFFFFFFFFFFFFFFFFFFFFFFFFFFFFFFFFFFFFFFFFFFFFFFFFFFFFFFFFFFFFFFFFFFFFFFFFFFFFFFFFFFFFFFFFFFFFFFFFFFFFFFFFFFFFFFFFFFFFFFFFFFFFFFFFFFFFFFFFFFFFFFFFFFFFFFFFFFF
310
FFFFFFFFFFFFFFFFFFFFFFFFFFFFFFFFFFFFFFFFFFFFFFFFFFFFFFFFFFFFFFFFFFFFFFFFFFFFFFFFFFFFFFFFFFFFFFFFFFFFFFFFFFFFFFFF
102
{BLKREFS
331
452
102
}
  0
BLOCK_RECORD
  5
451
330
1
100
AcDbSymbolTableRecord
100
AcDbBlockTableRecord
  2
HD logo-new
340
0
310
2800000020000000200000000100080000000000000400000000000000000000000000000000000000000000000080000080000000808000800000008000800080800000C0C0C000C0DCC000F0CAA6000020400000206000002080000020A0000020C0000020E00000400000004020000040400000406000004080000040A0
310
000040C0000040E00000600000006020000060400000606000006080000060A0000060C0000060E00000800000008020000080400000806000008080000080A0000080C0000080E00000A0000000A0200000A0400000A0600000A0800000A0A00000A0C00000A0E00000C0000000C0200000C0400000C0600000C0800000C0
310
A00000C0C00000C0E00000E0000000E0200000E0400000E0600000E0800000E0A00000E0C00000E0E00040000000400020004000400040006000400080004000A0004000C0004000E00040200000402020004020400040206000402080004020A0004020C0004020E000404000004040200040404000404060004040800040
310
40A0004040C0004040E00040600000406020004060400040606000406080004060A0004060C0004060E00040800000408020004080400040806000408080004080A0004080C0004080E00040A0000040A0200040A0400040A0600040A0800040A0A00040A0C00040A0E00040C0000040C0200040C0400040C0600040C08000
310
40C0A00040C0C00040C0E00040E0000040E0200040E0400040E0600040E0800040E0A00040E0C00040E0E00080000000800020008000400080006000800080008000A0008000C0008000E00080200000802020008020400080206000802080008020A0008020C0008020E00080400000804020008040400080406000804080
310
008040A0008040C0008040E00080600000806020008060400080606000806080008060A0008060C0008060E00080800000808020008080400080806000808080008080A0008080C0008080E00080A0000080A0200080A0400080A0600080A0800080A0A00080A0C00080A0E00080C0000080C0200080C0400080C0600080C0
310
800080C0A00080C0C00080C0E00080E0000080E0200080E0400080E0600080E0800080E0A00080E0C00080E0E000C0000000C0002000C0004000C0006000C0008000C000A000C000C000C000E000C0200000C0202000C0204000C0206000C0208000C020A000C020C000C020E000C0400000C0402000C0404000C0406000C0
310
408000C040A000C040C000C040E000C0600000C0602000C0604000C0606000C0608000C060A000C060C000C060E000C0800000C0802000C0804000C0806000C0808000C080A000C080C000C080E000C0A00000C0A02000C0A04000C0A06000C0A08000C0A0A000C0A0C000C0A0E000C0C00000C0C02000C0C04000C0C06000
310
C0C08000C0C0A000F0FBFF00A4A0A000808080000000FF0000FF000000FFFF00FF000000FF00FF00FFFF0000FFFFFF00FFFFFFFFFFFFFFFFFFFFFFFFFFFFFFFFFFFFFFFFFFFFFFFFFFFFFFFFFFFFFFFFFFFFFFFFFFFFFFFFFFFFFFFFFFFFFFFFFFFFFFFFFFFFFFFFFFFFFFFFFFFFFFFFFFFFFFFFFFFFFFFFFFFFFFFFFFFFFF
310
FFFFFFFFFFFFFFFFFFFFFFFFFFFFFFFFFFFFFFFFFFFFFFFFFFFFFFFFFFFFFFFFFFFFFFFFFFFFFFFFFFFFFFFFFFFFFFFFFFFFFFFFFFFFFFFFFFFFFFFFFFFFFFFFFFFFFFFFFFFFFFFFFFFFFFFFFFFFFFFFFFFFFFFFFFFFFFFFFFFFFFFFFFFFFFFFFFFFFFFFFFFFFFFFFFFFFFFFFFFFFFFFFFFFFFFFFFFFFFFFFFFFFFFFFFFFFF
310
FFFFFFFFFFFFFFFFFFFFFFFFFFFFFFFFFFFFFFFFFFFFFFFFFFFFFFFFFFFFFFFFFFFFFFFFFFFFFFFFFFFFFFFFFFFFFFFFFFFFFFFFFFFFFFFFFFFFFFFFFFFFFFFFFFFFFFFFFFFFFFFFFFFFFFFFFFFFFFFFFFFFFFFFFFFFFFFFFFFFFFFFFFFFFFFFFFFFFFFFFFFFFFFFFFFFFFFFFFFFFFFFFFFFFFFFFFFFFFFFFFFFFFFFFFFFFF
310
FFFFFFFFFFFFFFFFFFFFFFFFFFFFFFFFFFFFFFFFFFFFFFFFFFFFFFFFFFFFFFFFFFFFFFFFFFFFFFFFFFFFFFFFFFFFFFFFFFFFFFFF0000000000000000000000000000000000000000000000000000000000FFFFFF0000000000000000000000000000000000FFFFFFFFFFFFFFFFFFFF0000FFFFFF0000000000000000000000
310
00000000000000FFFFFFFFFFFFFFFFFFFF0000FFFF000000000000000000000000000000000000FFFFFF00000000FFFFFF0000FFFF00FFFFFFFFFFFF00FFFFFF00FFFFFFFFFF00FFFFFF0000000000FFFF0000FFFF00FFFFFFFFFFFF00FFFFFF00FFFFFFFFFF00FFFFFF00FFFF0000FFFF0000FFFF00FFFFFFFFFFFF00FFFF
310
00FFFFFFFFFFFF00FFFFFF00FFFF0000FFFF0000FFFF0000000000FFFF00000000FFFFFF00000000FFFFFF00000000FFFFFF0000FFFFFFFFFFFF00FFFFFFFFFFFFFFFFFF00FFFFFFFFFFFFFFFFFFFFFFFFFF0000FFFFFFFFFFFF00FFFFFFFFFFFFFFFFFF00FFFFFFFFFFFFFFFFFFFFFFFFFF0000FFFFFFFFFFFF00FFFFFFFF
310
FFFFFFFFFF00FFFFFFFFFFFFFFFFFFFFFFFF0000FFFFFF0000000000FFFF00000000FFFFFF0000000000000000000000000000FFFFFFFF00FFFFFFFFFFFF00FFFF00FFFFFFFFFFFF00FFFFFFFFFFFFFFFFFFFFFFFFFFFF00FFFFFFFFFFFF00FFFFFF00FFFFFFFFFF00FFFFFFFFFFFFFFFFFFFFFFFFFFFF0000000000000000
310
FFFFFF00000000000000FFFFFFFFFFFFFFFFFFFFFFFFFFFFFFFFFFFFFFFFFFFFFFFFFFFFFFFFFFFFFFFFFFFFFFFFFFFFFFFFFFFFFFFFFFFFFFFFFFFFFFFFFFFFFFFFFFFFFFFFFFFFFFFFFFFFFFFFFFFFFFFFFFFFFFFFFFFFFFFFFFFFFFFFFFFFFFFFFFFFFFFFFFFFFFFFFFFFFFFFFFFFFFFFFFFFFFFFFFFFFFFFFFFFFFFFFF
310
FFFFFFFFFFFFFFFFFFFFFFFFFFFFFFFFFFFFFFFFFFFFFFFFFFFFFFFFFFFFFFFFFFFFFFFFFFFFFFFFFFFFFFFFFFFFFFFFFFFFFFFFFFFFFFFF
102
{BLKREFS
331
456
102
}
  0
BLOCK_RECORD
  5
455
330
1
100
AcDbSymbolTableRecord
100
AcDbBlockTableRecord
  2
HD Logo
340
0
310
2800000020000000200000000100080000000000000400000000000000000000000000000000000000000000000080000080000000808000800000008000800080800000C0C0C000C0DCC000F0CAA6000020400000206000002080000020A0000020C0000020E00000400000004020000040400000406000004080000040A0
310
000040C0000040E00000600000006020000060400000606000006080000060A0000060C0000060E00000800000008020000080400000806000008080000080A0000080C0000080E00000A0000000A0200000A0400000A0600000A0800000A0A00000A0C00000A0E00000C0000000C0200000C0400000C0600000C0800000C0
310
A00000C0C00000C0E00000E0000000E0200000E0400000E0600000E0800000E0A00000E0C00000E0E00040000000400020004000400040006000400080004000A0004000C0004000E00040200000402020004020400040206000402080004020A0004020C0004020E000404000004040200040404000404060004040800040
310
40A0004040C0004040E00040600000406020004060400040606000406080004060A0004060C0004060E00040800000408020004080400040806000408080004080A0004080C0004080E00040A0000040A0200040A0400040A0600040A0800040A0A00040A0C00040A0E00040C0000040C0200040C0400040C0600040C08000
310
40C0A00040C0C00040C0E00040E0000040E0200040E0400040E0600040E0800040E0A00040E0C00040E0E00080000000800020008000400080006000800080008000A0008000C0008000E00080200000802020008020400080206000802080008020A0008020C0008020E00080400000804020008040400080406000804080
310
008040A0008040C0008040E00080600000806020008060400080606000806080008060A0008060C0008060E00080800000808020008080400080806000808080008080A0008080C0008080E00080A0000080A0200080A0400080A0600080A0800080A0A00080A0C00080A0E00080C0000080C0200080C0400080C0600080C0
310
800080C0A00080C0C00080C0E00080E0000080E0200080E0400080E0600080E0800080E0A00080E0C00080E0E000C0000000C0002000C0004000C0006000C0008000C000A000C000C000C000E000C0200000C0202000C0204000C0206000C0208000C020A000C020C000C020E000C0400000C0402000C0404000C0406000C0
310
408000C040A000C040C000C040E000C0600000C0602000C0604000C0606000C0608000C060A000C060C000C060E000C0800000C0802000C0804000C0806000C0808000C080A000C080C000C080E000C0A00000C0A02000C0A04000C0A06000C0A08000C0A0A000C0A0C000C0A0E000C0C00000C0C02000C0C04000C0C06000
310
C0C08000C0C0A000F0FBFF00A4A0A000808080000000FF0000FF000000FFFF00FF000000FF00FF00FFFF0000FFFFFF00FFFFFFFFFFFFFFFFFFFFFFFFFFFFFFFFFFFFFFFFFFFFFFFFFFFFFFFFFFFFFFFFFFFFFFFFFFFFFFFFFFFFFFFFFFFFFFFFFFFFFFFFFFFFFFFFFFFFFFFFFFFFFFFFFFFFFFFFFFFFFFFFFFFFFFFFFFFFFF
310
FFFFFFFFFFFFFFFFFFFFFFFFFFFFFFFFFFFFFFFFFFFFFFFFFFFFFFFFFFFFFFFFFFFFFFFFFFFFFFFFFFFFFFFFFFFFFFFFFFFFFFFFFFFFFFFFFFFFFFFFFFFFFFFFFFFFFFFFFFFFFFFFFFFFFFFFFFFFFFFFFFFFFFFFFFFFFFFFFFFFFFFFFFFFFFFFFFFFFFFFFFFFFFFFFFFFFFFFFFFFFFFFFFFFFFFFFFFFFFFFFFFFFFFFFFFFFF
310
FFFFFFFFFFFFFFFFFFFFFFFFFFFFFFFFFFFFFFFFFFFFFFFFFFFFFFFFFFFFFFFFFFFFFFFFFFFFFFFFFFFFFFFFFFFFFFFFFFFFFFFFFFFFFFFFFFFFFFFFFFFFFFFFFFFFFFFFFFFFFFFFFFFFFFFFFFFFFFFFFFFFFFFFFFFFFFFFFFFFFFFFFFFFFFFFFFFFFFFFFFFFFFFFFFFFFFFFFFFFFFFFFFFFFFFFFFFFFFFFFFFFFFFFFFFFFF
310
FFFFFFFFFFFFFFFFFFFFFFFFFFFFFFFFFFFFFFFFFFFFFFFFFFFFFFFFFFFFFFFFFFFFFFFFFFFFFFFFFFFFFFFFFFFFFFFFFFFFFFFF0000000000000000000000000000000000000000000000000000000000FFFFFF0000000000000000000000000000000000FFFFFFFFFFFFFFFFFFFF0000FFFFFF0000000000000000000000
310
00000000000000FFFFFFFFFFFFFFFFFFFF0000FFFF000000000000000000000000000000000000FFFFFF00000000FFFFFF0000FFFF00FFFFFFFFFFFF00FFFFFF00FFFFFFFFFF00FFFFFF0000000000FFFF0000FFFF00FFFFFFFFFFFF00FFFFFF00FFFFFFFFFF00FFFFFF00FFFF0000FFFF0000FFFF00FFFFFFFFFFFF00FFFF
310
00FFFFFFFFFFFF00FFFFFF00FFFF0000FFFF0000FFFF0000000000FFFF00000000FFFFFF00000000FFFFFF00000000FFFFFF0000FFFFFFFFFFFF00FFFFFFFFFFFFFFFFFF00FFFFFFFFFFFFFFFFFFFFFFFFFF0000FFFFFFFFFFFF00FFFFFFFFFFFFFFFFFF00FFFFFFFFFFFFFFFFFFFFFFFFFF0000FFFFFFFFFFFF00FFFFFFFF
310
FFFFFFFFFF00FFFFFFFFFFFFFFFFFFFFFFFF0000FFFFFF0000000000FFFF00000000FFFFFF0000000000000000000000000000FFFFFFFF00FFFFFFFFFFFF00FFFF00FFFFFFFFFFFF00FFFFFFFFFFFFFFFFFFFFFFFFFFFF00FFFFFFFFFFFF00FFFFFF00FFFFFFFFFF00FFFFFFFFFFFFFFFFFFFFFFFFFFFF0000000000000000
310
FFFFFF00000000000000FFFFFFFFFFFFFFFFFFFFFFFFFFFFFFFFFFFFFFFFFFFFFFFFFFFFFFFFFFFFFFFFFFFFFFFFFFFFFFFFFFFFFFFFFFFFFFFFFFFFFFFFFFFFFFFFFFFFFFFFFFFFFFFFFFFFFFFFFFFFFFFFFFFFFFFFFFFFFFFFFFFFFFFFFFFFFFFFFFFFFFFFFFFFFFFFFFFFFFFFFFFFFFFFFFFFFFFFFFFFFFFFFFFFFFFFFF
310
FFFFFFFFFFFFFFFFFFFFFFFFFFFFFFFFFFFFFFFFFFFFFFFFFFFFFFFFFFFFFFFFFFFFFFFFFFFFFFFFFFFFFFFFFFFFFFFFFFFFFFFFFFFFFFFF
102
{BLKREFS
331
45B
331
45F
102
}
  0
BLOCK_RECORD
  5
467
330
1
100
AcDbSymbolTableRecord
100
AcDbBlockTableRecord
  2
Notice
340
0
310
2800000020000000200000000100080000000000000400000000000000000000000000000000000000000000000080000080000000808000800000008000800080800000C0C0C000C0DCC000F0CAA6000020400000206000002080000020A0000020C0000020E00000400000004020000040400000406000004080000040A0
310
000040C0000040E00000600000006020000060400000606000006080000060A0000060C0000060E00000800000008020000080400000806000008080000080A0000080C0000080E00000A0000000A0200000A0400000A0600000A0800000A0A00000A0C00000A0E00000C0000000C0200000C0400000C0600000C0800000C0
310
A00000C0C00000C0E00000E0000000E0200000E0400000E0600000E0800000E0A00000E0C00000E0E00040000000400020004000400040006000400080004000A0004000C0004000E00040200000402020004020400040206000402080004020A0004020C0004020E000404000004040200040404000404060004040800040
310
40A0004040C0004040E00040600000406020004060400040606000406080004060A0004060C0004060E00040800000408020004080400040806000408080004080A0004080C0004080E00040A0000040A0200040A0400040A0600040A0800040A0A00040A0C00040A0E00040C0000040C0200040C0400040C0600040C08000
310
40C0A00040C0C00040C0E00040E0000040E0200040E0400040E0600040E0800040E0A00040E0C00040E0E00080000000800020008000400080006000800080008000A0008000C0008000E00080200000802020008020400080206000802080008020A0008020C0008020E00080400000804020008040400080406000804080
310
008040A0008040C0008040E00080600000806020008060400080606000806080008060A0008060C0008060E00080800000808020008080400080806000808080008080A0008080C0008080E00080A0000080A0200080A0400080A0600080A0800080A0A00080A0C00080A0E00080C0000080C0200080C0400080C0600080C0
310
800080C0A00080C0C00080C0E00080E0000080E0200080E0400080E0600080E0800080E0A00080E0C00080E0E000C0000000C0002000C0004000C0006000C0008000C000A000C000C000C000E000C0200000C0202000C0204000C0206000C0208000C020A000C020C000C020E000C0400000C0402000C0404000C0406000C0
310
408000C040A000C040C000C040E000C0600000C0602000C0604000C0606000C0608000C060A000C060C000C060E000C0800000C0802000C0804000C0806000C0808000C080A000C080C000C080E000C0A00000C0A02000C0A04000C0A06000C0A08000C0A0A000C0A0C000C0A0E000C0C00000C0C02000C0C04000C0C06000
310
C0C08000C0C0A000F0FBFF00A4A0A000808080000000FF0000FF000000FFFF00FF000000FF00FF00FFFF0000FFFFFF00FFFFFFFFFFFFFFFFFFFFFFFFFFFFFFFFFFFFFFFFFFFFFFFFFFFFFFFFFFFFFFFFFFFFFFFFFFFFFFFFFFFFFFFFFFFFFFFFFFFFFFFFFFFFFFFFFFFFFFFFFFFFFFFFFFFFFFFFFFFFFFFFFFFFFFFFFFFFFF
310
FFFFFFFFFFFFFFFFFFFFFFFFFFFFFFFFFFFFFFFFFFFFFFFFFFFFFFFFFFFFFFFFFFFFFFFFFFFFFFFFFFFFFFFFFFFFFFFFFFFFFFFFFFFFFFFFFFFFFFFFFFFFFFFFFFFFFFFFFFFFFFFFFFFFFFFFFFFFFFFFFFFFFFFFFFFFFFFFFFFFFFFFFFFFFFFFFFFFFFFFFFFFFFFFFFFFFFFFFFFFFFFFFFFFFFFFFFFFFFFFFFFFFFFFFFFFFF
310
FFFFFFFFFFFFFFFFFFFFFFFFFFFFFFFFFFFFFFFFFFFFFFFFFFFFFFFFFFFFFFFFFFFFFFFFFFFFFFFFFFFFFFFFFFFFFFFFFFFFFFFFFFFFFFFFFFFFFFFFFFFFFFFFFFFFFFFFFFFFFFFFFFFFFFFFFFFFFFFFFFFFFFFFFFFFFFFFFFFFFFFFFFFFFFFFFFFFFFFFFFFFFFFFFFFFFFFFFFFFFFFFFFFFFFFFFFFFFFFFFFFFFFFFFFFFFF
310
FFFFFFFFFFFFFFFFFFFFFFFFFFFFFFFFFFFFFFFF0000000000000000000000000000000000000000000000000000000000FFFFFF000000000000000000FFFFFFFFFFFFFFFFFFFFFFFFFFFFFFFFFFFFFF00FFFFFF0000000000000000FFFFFFFFFFFFFFFFFFFFFFFFFFFFFFFFFFFFFFFF00FFFFFF0000000000000000FFFFFF
310
FFFFFFFFFFFFFFFFFFFFFFFFFFFFFFFFFF00FFFFFF000000000000000000000000FFFFFFFFFFFFFFFFFFFFFFFFFFFFFFFF00FFFFFF0000000000000000000000000000000000000000000000000000FFFF00FFFFFF0000000000000000000000000000000000000000000000000000000000FFFFFF00000000000000000000
310
00000000000000000000000000000000000000FFFFFF000000000000FFFFFFFFFFFFFFFFFFFFFFFFFFFFFFFFFFFFFFFFFFFF00FFFFFF0000000000000000000000000000000000000000000000000000000000FFFFFFFFFFFFFFFFFFFFFFFFFFFFFFFFFFFFFFFFFFFFFFFFFFFFFFFFFFFFFFFFFFFFFFFFFFFFFFFFFFFFFFFF
310
FFFFFFFFFFFFFFFFFFFFFFFFFFFFFFFFFFFFFFFFFFFFFFFFFFFFFFFFFFFFFFFFFFFFFFFFFFFFFFFFFFFFFFFFFFFFFFFFFFFFFFFFFFFFFFFFFFFFFFFFFFFFFFFFFFFFFFFFFFFFFFFFFFFFFFFFFFFFFFFFFFFFFFFFFFFFFFFFFFFFFFFFFFFFFFFFFFFFFFFFFFFFFFFFFFFFFFFFFFFFFFFFFFFFFFFFFFFFFFFFFFFFFFFFFFFFFF
310
FFFFFFFFFFFFFFFFFFFFFFFFFFFFFFFFFFFFFFFFFFFFFFFFFFFFFFFFFFFFFFFFFFFFFFFFFFFFFFFFFFFFFFFFFFFFFFFFFFFFFFFFFFFFFFFFFFFFFFFFFFFFFFFFFFFFFFFFFFFFFFFFFFFFFFFFFFFFFFFFFFFFFFFFFFFFFFFFFFFFFFFFFFFFFFFFFFFFFFFFFFFFFFFFFFFFFFFFFFFFFFFFFFFFFFFFFFFFFFFFFFFFFFFFFFFFFF
310
FFFFFFFFFFFFFFFFFFFFFFFFFFFFFFFFFFFFFFFFFFFFFFFFFFFFFFFFFFFFFFFFFFFFFFFFFFFFFFFFFFFFFFFFFFFFFFFFFFFFFFFFFFFFFFFF
102
{BLKREFS
331
46D
331
473
102
}
  0
ENDTAB
  0
ENDSEC
  0
SECTION
  2
BLOCKS
  0
BLOCK
  5
1F
330
1E
100
AcDbEntity
  8
0
100
AcDbBlockBegin
  2
*Model_Space
 70
     0
 10
0.0
 20
0.0
 30
0.0
  3
*Model_Space
  1

  0
ENDBLK
  5
20
330
1E
100
AcDbEntity
  8
0
100
AcDbBlockEnd
  0
BLOCK
  5
1B
330
1A
100
AcDbEntity
 67
     1
  8
0
100
AcDbBlockBegin
  2
*Paper_Space
 70
     0
 10
0.0
 20
0.0
 30
0.0
  3
*Paper_Space
  1

  0
ENDBLK
  5
1C
330
1A
100
AcDbEntity
 67
     1
  8
0
100
AcDbBlockEnd
  0
BLOCK
  5
3DC
330
3DA
100
AcDbEntity
  8
0
100
AcDbBlockBegin
  2
Harmonic Drive LLC
 70
     0
 10
0.0
 20
0.0
 30
0.0
  3
Harmonic Drive LLC
  1

  0
MTEXT
  5
3DB
330
3DA
100
AcDbEntity
  8
0
100
AcDbMText
 10
189.3064368747375
 20
-164.4147342669637
 30
0.0
 40
3.5
 41
76.932
 71
     5
 72
     5
  1
Harmonic Drive LLC\P800-921-3332\Pwww.harmonicdrive.net
 73
     1
 44
1.0
  0
ENDBLK
  5
3DD
330
3DA
100
AcDbEntity
  8
0
100
AcDbBlockEnd
  0
BLOCK
  5
3F0
330
3ED
100
AcDbEntity
  8
0
 62
     7
100
AcDbBlockBegin
  2
AI9-BLK14
 70
     0
 10
0.0
 20
0.0
 30
0.0
  3
AI9-BLK14
  1

  0
SPLINE
  5
3EE
330
3ED
100
AcDbEntity
  8
LAYER_1
 62
     7
100
AcDbSpline
210
0.0
220
0.0
230
1.0
 70
    11
 71
     3
 72
    23
 73
    19
 74
     0
 42
0.0000000001
 43
0.0000000001
 40
0.0
 40
0.0
 40
0.0
 40
0.0
 40
1.0
 40
1.0
 40
1.0
 40
2.0
 40
2.0
 40
2.0
 40
3.0
 40
3.0
 40
3.0
 40
4.0
 40
4.0
 40
4.0
 40
5.0
 40
5.0
 40
5.0
 40
6.0
 40
6.0
 40
6.0
 40
6.0
 10
-10.90321044921874
 20
10.88107571072048
 30
0.0
 10
-10.90321044921874
 20
10.88107571072048
 30
0.0
 10
-10.90321044921874
 20
-10.88107571072048
 30
0.0
 10
-10.90321044921874
 20
-10.88107571072048
 30
0.0
 10
-10.90321044921874
 20
-10.88107571072048
 30
0.0
 10
1.752692328559025
 20
-10.88107571072048
 30
0.0
 10
1.752692328559025
 20
-10.88107571072048
 30
0.0
 10
3.280592176649305
 20
-10.88107571072048
 30
0.0
 10
10.90321044921874
 20
-10.32383151584201
 30
0.0
 10
10.90321044921874
 20
0.6792867024739583
 30
0.0
 10
10.90321044921874
 20
10.61700914171006
 30
0.0
 10
2.773129611545138
 20
10.87952541775172
 30
0.0
 10
2.691136338975693
 20
10.88090345594618
 30
0.0
 10
2.691136338975693
 20
10.88090345594618
 30
0.0
 10
-9.903099229600693
 20
10.88107571072048
 30
0.0
 10
-9.903099229600693
 20
10.88107571072048
 30
0.0
 10
-9.903099229600693
 20
10.88107571072048
 30
0.0
 10
-10.90321044921874
 20
10.88107571072048
 30
0.0
 10
-10.90321044921874
 20
10.88107571072048
 30
0.0
  0
SPLINE
  5
3EF
330
3ED
100
AcDbEntity
  8
LAYER_1
 62
     7
100
AcDbSpline
210
0.0
220
0.0
230
1.0
 70
    11
 71
     3
 72
    20
 73
    16
 74
     0
 42
0.0000000001
 43
0.0000000001
 40
0.0
 40
0.0
 40
0.0
 40
0.0
 40
1.0
 40
1.0
 40
1.0
 40
2.0
 40
2.0
 40
2.0
 40
3.0
 40
3.0
 40
3.0
 40
4.0
 40
4.0
 40
4.0
 40
5.0
 40
5.0
 40
5.0
 40
5.0
 10
2.672877332899305
 20
8.881197781032986
 30
0.0
 10
2.905421278211805
 20
8.874307590060762
 30
0.0
 10
8.902988009982637
 20
8.616442192925347
 30
0.0
 10
8.902988009982637
 20
0.6792867024739583
 30
0.0
 10
8.902988009982637
 20
-8.191661919487842
 30
0.0
 10
3.430109320746526
 20
-8.881197781032986
 30
0.0
 10
1.752692328559025
 20
-8.881197781032986
 30
0.0
 10
1.752692328559025
 20
-8.881197781032986
 30
0.0
 10
-7.231427680121528
 20
-8.881197781032986
 30
0.0
 10
-8.902988009982637
 20
-8.881197781032986
 30
0.0
 10
-8.902988009982637
 20
-7.174497477213541
 30
0.0
 10
-8.902988009982637
 20
7.174497477213541
 30
0.0
 10
-8.902988009982637
 20
8.881197781032986
 30
0.0
 10
-7.208690049913191
 20
8.881197781032986
 30
0.0
 10
2.672877332899305
 20
8.881197781032986
 30
0.0
 10
2.672877332899305
 20
8.881197781032986
 30
0.0
  0
ENDBLK
  5
3F1
330
3ED
100
AcDbEntity
  8
0
100
AcDbBlockEnd
  0
BLOCK
  5
3F5
330
3F2
100
AcDbEntity
  8
0
 62
     7
100
AcDbBlockBegin
  2
AI9-BLK13
 70
     0
 10
0.0
 20
0.0
 30
0.0
  3
AI9-BLK13
  1

  0
LWPOLYLINE
  5
3F3
330
3F2
100
AcDbEntity
  8
LAYER_1
 62
     7
100
AcDbPolyline
 90
       12
 70
     1
 43
0.0
 10
-3.792361111111107
 20
10.7376736111111
 10
-2.469444444444443
 20
10.7376736111111
 10
-2.469444444444443
 20
1.874131944444444
 10
2.469444444444443
 20
1.874131944444444
 10
2.469444444444443
 20
10.7376736111111
 10
3.792361111111107
 20
10.7376736111111
 10
3.792361111111107
 20
-10.7376736111111
 10
2.469444444444443
 20
-10.7376736111111
 10
2.469444444444443
 20
-0.6835069444444444
 10
-2.469444444444443
 20
-0.6835069444444444
 10
-2.469444444444443
 20
-10.7376736111111
 10
-3.792361111111107
 20
-10.7376736111111
  0
HATCH
  5
3F4
330
3F2
100
AcDbEntity
  8
LAYER_1
 62
     7
100
AcDbHatch
 10
0.0
 20
0.0
 30
0.0
210
0.0
220
0.0
230
1.0
  2
SOLID
 70
     1
 71
     0
 91
        1
 92
        3
 72
     0
 73
     1
 93
       12
 10
-3.792361111111107
 20
10.7376736111111
 10
-2.469444444444443
 20
10.7376736111111
 10
-2.469444444444443
 20
1.874131944444444
 10
2.469444444444443
 20
1.874131944444444
 10
2.469444444444443
 20
10.7376736111111
 10
3.792361111111107
 20
10.7376736111111
 10
3.792361111111107
 20
-10.7376736111111
 10
2.469444444444443
 20
-10.7376736111111
 10
2.469444444444443
 20
-0.6835069444444444
 10
-2.469444444444443
 20
-0.6835069444444444
 10
-2.469444444444443
 20
-10.7376736111111
 10
-3.792361111111107
 20
-10.7376736111111
 97
        0
 75
     2
 76
     1
 98
        1
 10
0.0
 20
0.0
  0
ENDBLK
  5
3F6
330
3F2
100
AcDbEntity
  8
0
100
AcDbBlockEnd
  0
BLOCK
  5
3FA
330
3F7
100
AcDbEntity
  8
0
 62
     7
100
AcDbBlockBegin
  2
AI9-BLK11
 70
     0
 10
0.0
 20
0.0
 30
0.0
  3
AI9-BLK11
  1

  0
SPLINE
  5
3F8
330
3F7
100
AcDbEntity
  8
LAYER_1
 62
     7
100
AcDbSpline
210
0.0
220
0.0
230
1.0
 70
    11
 71
     3
 72
    26
 73
    22
 74
     0
 42
0.0000000001
 43
0.0000000001
 40
0.0
 40
0.0
 40
0.0
 40
0.0
 40
1.0
 40
1.0
 40
1.0
 40
2.0
 40
2.0
 40
2.0
 40
3.0
 40
3.0
 40
3.0
 40
4.0
 40
4.0
 40
4.0
 40
5.0
 40
5.0
 40
5.0
 40
6.0
 40
6.0
 40
6.0
 40
7.0
 40
7.0
 40
7.0
 40
7.0
 10
-2.645833333333333
 20
0.9039930555555551
 30
0.0
 10
-2.645833333333333
 20
0.9039930555555551
 30
0.0
 10
-2.645833333333333
 20
8.180034722222217
 30
0.0
 10
-2.645833333333333
 20
8.180034722222217
 30
0.0
 10
-2.645833333333333
 20
8.180034722222217
 30
0.0
 10
0.465087890625
 20
8.180034722222217
 30
0.0
 10
0.465087890625
 20
8.180034722222217
 30
0.0
 10
0.9026150173611108
 20
8.180034722222217
 30
0.0
 10
1.24988064236111
 20
8.034651692708331
 30
0.0
 10
1.506884765625
 20
7.745263671874997
 30
0.0
 10
2.001600477430554
 20
7.194048394097221
 30
0.0
 10
2.248958333333332
 20
6.160519748263887
 30
0.0
 10
2.248958333333332
 20
4.643299696180553
 30
0.0
 10
2.248958333333332
 20
3.232188585069443
 30
0.0
 10
2.072569444444444
 20
2.256537543402775
 30
0.0
 10
1.720480685763888
 20
1.715657552083333
 30
0.0
 10
1.368391927083333
 20
1.174088541666665
 30
0.0
 10
0.8929687499999998
 20
0.9039930555555551
 30
0.0
 10
0.2942111545138888
 20
0.9039930555555551
 30
0.0
 10
0.2942111545138888
 20
0.9039930555555551
 30
0.0
 10
-2.645833333333333
 20
0.9039930555555551
 30
0.0
 10
-2.645833333333333
 20
0.9039930555555551
 30
0.0
  0
SPLINE
  5
3F9
330
3F7
100
AcDbEntity
  8
LAYER_1
 62
     7
100
AcDbSpline
210
0.0
220
0.0
230
1.0
 70
    11
 71
     3
 72
    68
 73
    64
 74
     0
 42
0.0000000001
 43
0.0000000001
 40
0.0
 40
0.0
 40
0.0
 40
0.0
 40
1.0
 40
1.0
 40
1.0
 40
2.0
 40
2.0
 40
2.0
 40
3.0
 40
3.0
 40
3.0
 40
4.0
 40
4.0
 40
4.0
 40
5.0
 40
5.0
 40
5.0
 40
6.0
 40
6.0
 40
6.0
 40
7.0
 40
7.0
 40
7.0
 40
8.0
 40
8.0
 40
8.0
 40
9.0
 40
9.0
 40
9.0
 40
10.0
 40
10.0
 40
10.0
 40
11.0
 40
11.0
 40
11.0
 40
12.0
 40
12.0
 40
12.0
 40
13.0
 40
13.0
 40
13.0
 40
14.0
 40
14.0
 40
14.0
 40
15.0
 40
15.0
 40
15.0
 40
16.0
 40
16.0
 40
16.0
 40
17.0
 40
17.0
 40
17.0
 40
18.0
 40
18.0
 40
18.0
 40
19.0
 40
19.0
 40
19.0
 40
20.0
 40
20.0
 40
20.0
 40
21.0
 40
21.0
 40
21.0
 40
21.0
 10
-3.968749999999998
 20
-10.7376736111111
 30
0.0
 10
-3.968749999999998
 20
-10.7376736111111
 30
0.0
 10
-2.645833333333333
 20
-10.7376736111111
 30
0.0
 10
-2.645833333333333
 20
-10.7376736111111
 30
0.0
 10
-2.645833333333333
 20
-10.7376736111111
 30
0.0
 10
-2.645833333333333
 20
-1.521354166666665
 30
0.0
 10
-2.645833333333333
 20
-1.521354166666665
 30
0.0
 10
-2.645833333333333
 20
-1.521354166666665
 30
0.0
 10
0.2390896267361111
 20
-1.521354166666665
 30
0.0
 10
0.2390896267361111
 20
-1.521354166666665
 30
0.0
 10
0.7599880642361111
 20
-1.521354166666665
 30
0.0
 10
1.143771701388887
 20
-1.65295681423611
 30
0.0
 10
1.390440538194444
 20
-1.916162109374999
 30
0.0
 10
1.816254340277773
 20
-2.39434136284722
 30
0.0
 10
2.04363064236111
 20
-3.335541449652775
 30
0.0
 10
2.072569444444444
 20
-4.739762369791666
 30
0.0
 10
2.072569444444444
 20
-4.739762369791666
 30
0.0
 10
2.160763888888888
 20
-8.324039713541665
 30
0.0
 10
2.160763888888888
 20
-8.324039713541665
 30
0.0
 10
2.18005642361111
 20
-9.163264973958332
 30
0.0
 10
2.202794053819443
 20
-9.728949652777775
 30
0.0
 10
2.227598741319444
 20
-10.02109374999998
 30
0.0
 10
2.252403428819443
 20
-10.31392686631944
 30
0.0
 10
2.28892144097222
 20
-10.55301649305555
 30
0.0
 10
2.33853081597222
 20
-10.7376736111111
 30
0.0
 10
2.33853081597222
 20
-10.7376736111111
 30
0.0
 10
3.968749999999998
 20
-10.7376736111111
 30
0.0
 10
3.968749999999998
 20
-10.7376736111111
 30
0.0
 10
3.968749999999998
 20
-10.7376736111111
 30
0.0
 10
3.968749999999998
 20
-10.25260416666666
 30
0.0
 10
3.968749999999998
 20
-10.25260416666666
 30
0.0
 10
3.766867404513888
 20
-10.05830078125
 30
0.0
 10
3.625618489583333
 20
-9.621462673611112
 30
0.0
 10
3.545692274305555
 20
-8.942089843749997
 30
0.0
 10
3.49470486111111
 20
-8.543836805555555
 30
0.0
 10
3.459564887152775
 20
-7.937499999999999
 30
0.0
 10
3.439583333333333
 20
-7.121701388888887
 30
0.0
 10
3.439583333333333
 20
-7.121701388888887
 30
0.0
 10
3.395486111111106
 20
-4.232644314236106
 30
0.0
 10
3.395486111111106
 20
-4.232644314236106
 30
0.0
 10
3.375504557291666
 20
-2.981385633680555
 30
0.0
 10
3.26870659722222
 20
-2.077392578125
 30
0.0
 10
3.075781249999999
 20
-1.522043185763888
 30
0.0
 10
2.882166883680555
 20
-0.9666937934027776
 30
0.0
 10
2.592089843749999
 20
-0.5188313802083333
 30
0.0
 10
2.204861111111104
 20
-0.1770779079861111
 30
0.0
 10
2.63618706597222
 20
0.3197048611111111
 30
0.0
 10
2.971739366319443
 20
0.9770290798611107
 30
0.0
 10
3.211518012152775
 20
1.79558376736111
 30
0.0
 10
3.451296657986107
 20
2.613449435763888
 30
0.0
 10
3.571874999999999
 20
3.66558159722222
 30
0.0
 10
3.571874999999999
 20
4.951291232638888
 30
0.0
 10
3.571874999999999
 20
7.415912543402777
 30
0.0
 10
3.124701605902775
 20
9.106076388888887
 30
0.0
 10
2.231043836805555
 20
10.02178276909722
 30
0.0
 10
1.759754774305553
 20
10.498583984375
 30
0.0
 10
1.163753255208332
 20
10.7376736111111
 30
0.0
 10
0.443039279513889
 20
10.7376736111111
 30
0.0
 10
0.443039279513889
 20
10.7376736111111
 30
0.0
 10
-3.968749999999998
 20
10.7376736111111
 30
0.0
 10
-3.968749999999998
 20
10.7376736111111
 30
0.0
 10
-3.968749999999998
 20
10.7376736111111
 30
0.0
 10
-3.968749999999998
 20
-10.7376736111111
 30
0.0
 10
-3.968749999999998
 20
-10.7376736111111
 30
0.0
  0
ENDBLK
  5
3FB
330
3F7
100
AcDbEntity
  8
0
100
AcDbBlockEnd
  0
BLOCK
  5
3FE
330
3FC
100
AcDbEntity
  8
0
 62
     7
100
AcDbBlockBegin
  2
AI9-BLK10
 70
     0
 10
0.0
 20
0.0
 30
0.0
  3
AI9-BLK10
  1

  0
SPLINE
  5
3FD
330
3FC
100
AcDbEntity
  8
LAYER_1
 62
     7
100
AcDbSpline
210
0.0
220
0.0
230
1.0
 70
    11
 71
     3
 72
    59
 73
    55
 74
     0
 42
0.0000000001
 43
0.0000000001
 40
0.0
 40
0.0
 40
0.0
 40
0.0
 40
1.0
 40
1.0
 40
1.0
 40
2.0
 40
2.0
 40
2.0
 40
3.0
 40
3.0
 40
3.0
 40
4.0
 40
4.0
 40
4.0
 40
5.0
 40
5.0
 40
5.0
 40
6.0
 40
6.0
 40
6.0
 40
7.0
 40
7.0
 40
7.0
 40
8.0
 40
8.0
 40
8.0
 40
9.0
 40
9.0
 40
9.0
 40
10.0
 40
10.0
 40
10.0
 40
11.0
 40
11.0
 40
11.0
 40
12.0
 40
12.0
 40
12.0
 40
13.0
 40
13.0
 40
13.0
 40
14.0
 40
14.0
 40
14.0
 40
15.0
 40
15.0
 40
15.0
 40
16.0
 40
16.0
 40
16.0
 40
17.0
 40
17.0
 40
17.0
 40
18.0
 40
18.0
 40
18.0
 40
18.0
 10
-4.652256944444443
 20
10.7376736111111
 30
0.0
 10
-4.652256944444443
 20
10.7376736111111
 30
0.0
 10
-2.798795572916666
 20
10.7376736111111
 30
0.0
 10
-2.798795572916666
 20
10.7376736111111
 30
0.0
 10
-2.798795572916666
 20
10.7376736111111
 30
0.0
 10
0.0
 20
-7.419357638888887
 30
0.0
 10
0.0
 20
-7.419357638888887
 30
0.0
 10
0.0
 20
-7.419357638888887
 30
0.0
 10
2.793283420138888
 20
10.7376736111111
 30
0.0
 10
2.793283420138888
 20
10.7376736111111
 30
0.0
 10
2.793283420138888
 20
10.7376736111111
 30
0.0
 10
4.652256944444443
 20
10.7376736111111
 30
0.0
 10
4.652256944444443
 20
10.7376736111111
 30
0.0
 10
4.652256944444443
 20
10.7376736111111
 30
0.0
 10
4.652256944444443
 20
-10.7376736111111
 30
0.0
 10
4.652256944444443
 20
-10.7376736111111
 30
0.0
 10
4.652256944444443
 20
-10.7376736111111
 30
0.0
 10
3.41753472222222
 20
-10.7376736111111
 30
0.0
 10
3.41753472222222
 20
-10.7376736111111
 30
0.0
 10
3.41753472222222
 20
-10.7376736111111
 30
0.0
 10
3.41753472222222
 20
1.936832682291665
 30
0.0
 10
3.41753472222222
 20
1.936832682291665
 30
0.0
 10
3.41753472222222
 20
2.375048828124999
 30
0.0
 10
3.424424913194443
 20
3.101274956597221
 30
0.0
 10
3.439583333333333
 20
4.11482204861111
 30
0.0
 10
3.454052734374998
 20
5.128369140624998
 30
0.0
 10
3.461631944444443
 20
6.214952256944441
 30
0.0
 10
3.461631944444443
 20
7.375260416666666
 30
0.0
 10
3.461631944444443
 20
7.375260416666666
 30
0.0
 10
0.6538791232638889
 20
-10.7376736111111
 30
0.0
 10
0.6538791232638889
 20
-10.7376736111111
 30
0.0
 10
0.6538791232638889
 20
-10.7376736111111
 30
0.0
 10
-0.6628363715277778
 20
-10.7376736111111
 30
0.0
 10
-0.6628363715277778
 20
-10.7376736111111
 30
0.0
 10
-0.6628363715277778
 20
-10.7376736111111
 30
0.0
 10
-3.461631944444443
 20
7.375260416666666
 30
0.0
 10
-3.461631944444443
 20
7.375260416666666
 30
0.0
 10
-3.461631944444443
 20
7.375260416666666
 30
0.0
 10
-3.461631944444443
 20
6.717247178819441
 30
0.0
 10
-3.461631944444443
 20
6.717247178819441
 30
0.0
 10
-3.461631944444443
 20
6.190836588541666
 30
0.0
 10
-3.45474175347222
 20
5.389507378472222
 30
0.0
 10
-3.439583333333333
 20
4.312570529513888
 30
0.0
 10
-3.425113932291666
 20
3.235633680555555
 30
0.0
 10
-3.41753472222222
 20
2.44395073784722
 30
0.0
 10
-3.41753472222222
 20
1.936832682291665
 30
0.0
 10
-3.41753472222222
 20
1.936832682291665
 30
0.0
 10
-3.41753472222222
 20
-10.7376736111111
 30
0.0
 10
-3.41753472222222
 20
-10.7376736111111
 30
0.0
 10
-3.41753472222222
 20
-10.7376736111111
 30
0.0
 10
-4.652256944444443
 20
-10.7376736111111
 30
0.0
 10
-4.652256944444443
 20
-10.7376736111111
 30
0.0
 10
-4.652256944444443
 20
-10.7376736111111
 30
0.0
 10
-4.652256944444443
 20
10.7376736111111
 30
0.0
 10
-4.652256944444443
 20
10.7376736111111
 30
0.0
  0
ENDBLK
  5
3FF
330
3FC
100
AcDbEntity
  8
0
100
AcDbBlockEnd
  0
BLOCK
  5
403
330
400
100
AcDbEntity
  8
0
 62
     7
100
AcDbBlockBegin
  2
AI9-BLK9
 70
     0
 10
0.0
 20
0.0
 30
0.0
  3
AI9-BLK9
  1

  0
SPLINE
  5
401
330
400
100
AcDbEntity
  8
LAYER_1
 62
     7
100
AcDbSpline
210
0.0
220
0.0
230
1.0
 70
    11
 71
     3
 72
    29
 73
    25
 74
     0
 42
0.0000000001
 43
0.0000000001
 40
0.0
 40
0.0
 40
0.0
 40
0.0
 40
1.0
 40
1.0
 40
1.0
 40
2.0
 40
2.0
 40
2.0
 40
3.0
 40
3.0
 40
3.0
 40
4.0
 40
4.0
 40
4.0
 40
5.0
 40
5.0
 40
5.0
 40
6.0
 40
6.0
 40
6.0
 40
7.0
 40
7.0
 40
7.0
 40
8.0
 40
8.0
 40
8.0
 40
8.0
 10
0.0668348524305556
 20
-8.753298611111111
 30
0.0
 10
-0.9067491319444444
 20
-8.753298611111111
 30
0.0
 10
-1.60954861111111
 20
-7.936810980902778
 30
0.0
 10
-2.041563585069444
 20
-6.30383572048611
 30
0.0
 10
-2.474267578124999
 20
-4.670860460069443
 30
0.0
 10
-2.689930555555555
 20
-2.664436848958333
 30
0.0
 10
-2.689930555555555
 20
-0.28525390625
 30
0.0
 10
-2.689930555555555
 20
2.68855251736111
 30
0.0
 10
-2.439127604166666
 20
4.938199869791666
 30
0.0
 10
-1.937521701388888
 20
6.464377170138886
 30
0.0
 10
-1.43591579861111
 20
7.989865451388887
 30
0.0
 10
-0.7827256944444444
 20
8.753298611111111
 30
0.0
 10
0.0220486111111111
 20
8.753298611111111
 30
0.0
 10
0.8468044704861108
 20
8.753298611111111
 30
0.0
 10
1.49792751736111
 20
7.982975260416663
 30
0.0
 10
1.974728732638888
 20
6.442328559027776
 30
0.0
 10
2.451529947916665
 20
4.901681857638886
 30
0.0
 10
2.689930555555555
 20
2.868386501736111
 30
0.0
 10
2.689930555555555
 20
0.3438205295138888
 30
0.0
 10
2.689930555555555
 20
-2.045697699652774
 30
0.0
 10
2.483224826388884
 20
-4.15891927083333
 30
0.0
 10
2.071191406249999
 20
-5.996533203124998
 30
0.0
 10
1.65915798611111
 20
-7.834836154513887
 30
0.0
 10
0.9908094618055557
 20
-8.753298611111111
 30
0.0
 10
0.0668348524305556
 20
-8.753298611111111
 30
0.0
  0
SPLINE
  5
402
330
400
100
AcDbEntity
  8
LAYER_1
 62
     7
100
AcDbSpline
210
0.0
220
0.0
230
1.0
 70
    11
 71
     3
 72
    29
 73
    25
 74
     0
 42
0.0000000001
 43
0.0000000001
 40
0.0
 40
0.0
 40
0.0
 40
0.0
 40
1.0
 40
1.0
 40
1.0
 40
2.0
 40
2.0
 40
2.0
 40
3.0
 40
3.0
 40
3.0
 40
4.0
 40
4.0
 40
4.0
 40
5.0
 40
5.0
 40
5.0
 40
6.0
 40
6.0
 40
6.0
 40
7.0
 40
7.0
 40
7.0
 40
8.0
 40
8.0
 40
8.0
 40
8.0
 10
-0.0289388020833333
 20
11.35503472222222
 30
0.0
 10
-1.317404513888887
 20
11.35503472222222
 30
0.0
 10
-2.28892144097222
 20
10.02798394097222
 30
0.0
 10
-2.94280056423611
 20
7.374571397569441
 30
0.0
 10
-3.450607638888888
 20
5.30613606770833
 30
0.0
 10
-3.704166666666666
 20
2.81877712673611
 30
0.0
 10
-3.704166666666666
 20
-0.0881944444444445
 30
0.0
 10
-3.704166666666666
 20
-3.307291666666666
 30
0.0
 10
-3.406510416666666
 20
-5.97035047743055
 30
0.0
 10
-2.811197916666666
 20
-8.077370876736106
 30
0.0
 10
-2.147672526041664
 20
-10.26293945312499
 30
0.0
 10
-1.229899088541666
 20
-11.35503472222222
 30
0.0
 10
-0.0585666232638889
 20
-11.35503472222222
 30
0.0
 10
1.20027126736111
 20
-11.35503472222222
 30
0.0
 10
2.166276041666665
 20
-10.10653211805555
 30
0.0
 10
2.840136718749998
 20
-7.609526909722221
 30
0.0
 10
3.416156684027776
 20
-5.483213975694441
 30
0.0
 10
3.704166666666666
 20
-2.814643012152775
 30
0.0
 10
3.704166666666666
 20
0.3948079427083333
 30
0.0
 10
3.704166666666666
 20
3.360346137152776
 30
0.0
 10
3.449918619791666
 20
5.793961588541666
 30
0.0
 10
2.94280056423611
 20
7.696343315972222
 30
0.0
 10
2.298567708333333
 20
10.13547092013888
 30
0.0
 10
1.307758246527777
 20
11.35503472222222
 30
0.0
 10
-0.0289388020833333
 20
11.35503472222222
 30
0.0
  0
ENDBLK
  5
404
330
400
100
AcDbEntity
  8
0
100
AcDbBlockEnd
  0
BLOCK
  5
408
330
405
100
AcDbEntity
  8
0
 62
     7
100
AcDbBlockBegin
  2
AI9-BLK8
 70
     0
 10
0.0
 20
0.0
 30
0.0
  3
AI9-BLK8
  1

  0
LWPOLYLINE
  5
406
330
405
100
AcDbEntity
  8
LAYER_1
 62
     7
100
AcDbPolyline
 90
       10
 70
     1
 43
0.0
 10
-3.792361111111107
 20
10.7376736111111
 10
-2.268939887152773
 20
10.7376736111111
 10
2.557638888888888
 20
-6.505718315972222
 10
2.557638888888888
 20
10.7376736111111
 10
3.792361111111107
 20
10.7376736111111
 10
3.792361111111107
 20
-10.7376736111111
 10
2.32612847222222
 20
-10.7376736111111
 10
-2.557638888888888
 20
6.549815538194441
 10
-2.557638888888888
 20
-10.7376736111111
 10
-3.792361111111107
 20
-10.7376736111111
  0
HATCH
  5
407
330
405
100
AcDbEntity
  8
LAYER_1
 62
     7
100
AcDbHatch
 10
0.0
 20
0.0
 30
0.0
210
0.0
220
0.0
230
1.0
  2
SOLID
 70
     1
 71
     0
 91
        1
 92
        3
 72
     0
 73
     1
 93
       10
 10
-3.792361111111107
 20
10.7376736111111
 10
-2.268939887152773
 20
10.7376736111111
 10
2.557638888888888
 20
-6.505718315972222
 10
2.557638888888888
 20
10.7376736111111
 10
3.792361111111107
 20
10.7376736111111
 10
3.792361111111107
 20
-10.7376736111111
 10
2.32612847222222
 20
-10.7376736111111
 10
-2.557638888888888
 20
6.549815538194441
 10
-2.557638888888888
 20
-10.7376736111111
 10
-3.792361111111107
 20
-10.7376736111111
 97
        0
 75
     2
 76
     1
 98
        1
 10
0.0
 20
0.0
  0
ENDBLK
  5
409
330
405
100
AcDbEntity
  8
0
100
AcDbBlockEnd
  0
BLOCK
  5
40D
330
40A
100
AcDbEntity
  8
0
 62
     7
100
AcDbBlockBegin
  2
AI9-BLK7
 70
     0
 10
0.0
 20
0.0
 30
0.0
  3
AI9-BLK7
  1

  0
LWPOLYLINE
  5
40B
330
40A
100
AcDbEntity
  8
LAYER_1
 62
     7
100
AcDbPolyline
 90
        4
 70
     1
 43
0.0
 10
-0.6614583333333333
 20
10.7376736111111
 10
0.6614583333333333
 20
10.7376736111111
 10
0.6614583333333333
 20
-10.7376736111111
 10
-0.6614583333333333
 20
-10.7376736111111
  0
HATCH
  5
40C
330
40A
100
AcDbEntity
  8
LAYER_1
 62
     7
100
AcDbHatch
 10
0.0
 20
0.0
 30
0.0
210
0.0
220
0.0
230
1.0
  2
SOLID
 70
     1
 71
     0
 91
        1
 92
        3
 72
     0
 73
     1
 93
        4
 10
-0.6614583333333333
 20
10.7376736111111
 10
0.6614583333333333
 20
10.7376736111111
 10
0.6614583333333333
 20
-10.7376736111111
 10
-0.6614583333333333
 20
-10.7376736111111
 97
        0
 75
     2
 76
     1
 98
        1
 10
0.0
 20
0.0
  0
ENDBLK
  5
40E
330
40A
100
AcDbEntity
  8
0
100
AcDbBlockEnd
  0
BLOCK
  5
411
330
40F
100
AcDbEntity
  8
0
 62
     7
100
AcDbBlockBegin
  2
AI9-BLK6
 70
     0
 10
0.0
 20
0.0
 30
0.0
  3
AI9-BLK6
  1

  0
SPLINE
  5
410
330
40F
100
AcDbEntity
  8
LAYER_1
 62
     7
100
AcDbSpline
210
0.0
220
0.0
230
1.0
 70
    11
 71
     3
 72
    59
 73
    55
 74
     0
 42
0.0000000001
 43
0.0000000001
 40
0.0
 40
0.0
 40
0.0
 40
0.0
 40
1.0
 40
1.0
 40
1.0
 40
2.0
 40
2.0
 40
2.0
 40
3.0
 40
3.0
 40
3.0
 40
4.0
 40
4.0
 40
4.0
 40
5.0
 40
5.0
 40
5.0
 40
6.0
 40
6.0
 40
6.0
 40
7.0
 40
7.0
 40
7.0
 40
8.0
 40
8.0
 40
8.0
 40
9.0
 40
9.0
 40
9.0
 40
10.0
 40
10.0
 40
10.0
 40
11.0
 40
11.0
 40
11.0
 40
12.0
 40
12.0
 40
12.0
 40
13.0
 40
13.0
 40
13.0
 40
14.0
 40
14.0
 40
14.0
 40
15.0
 40
15.0
 40
15.0
 40
16.0
 40
16.0
 40
16.0
 40
17.0
 40
17.0
 40
17.0
 40
18.0
 40
18.0
 40
18.0
 40
18.0
 10
3.062689887152775
 20
9.168088107638887
 30
0.0
 10
3.735172526041666
 20
7.739062499999997
 30
0.0
 10
4.110687934027776
 20
6.116422526041666
 30
0.0
 10
4.189236111111108
 20
4.299479166666666
 30
0.0
 10
4.189236111111108
 20
4.299479166666666
 30
0.0
 10
2.866319444444443
 20
4.299479166666666
 30
0.0
 10
2.866319444444443
 20
4.299479166666666
 30
0.0
 10
2.720936414930555
 20
5.667871093749997
 30
0.0
 10
2.435682508680555
 20
6.752387152777776
 30
0.0
 10
2.009868706597218
 20
7.553027343749997
 30
0.0
 10
1.584054904513888
 20
8.352978515624997
 30
0.0
 10
0.9839192708333332
 20
8.753298611111111
 30
0.0
 10
0.2101508246527778
 20
8.753298611111111
 30
0.0
 10
-0.7386284722222222
 20
8.753298611111111
 30
0.0
 10
-1.503439670138888
 20
8.010536024305555
 30
0.0
 10
-2.083593749999999
 20
6.526388888888886
 30
0.0
 10
-2.664436848958333
 20
5.042241753472221
 30
0.0
 10
-2.954513888888888
 20
2.767100694444443
 30
0.0
 10
-2.954513888888888
 20
-0.2990342881944444
 30
0.0
 10
-2.954513888888888
 20
-2.811197916666666
 30
0.0
 10
-2.693375651041666
 20
-4.847938368055555
 30
0.0
 10
-2.17041015625
 20
-6.409944661458332
 30
0.0
 10
-1.648133680555553
 20
-7.972639973958332
 30
0.0
 10
-0.8640299479166666
 20
-8.753298611111111
 30
0.0
 10
0.1812120225694444
 20
-8.753298611111111
 30
0.0
 10
1.138948567708333
 20
-8.753298611111111
 30
0.0
 10
1.865174696180553
 20
-7.927853732638887
 30
0.0
 10
2.359201388888884
 20
-6.275585937499998
 30
0.0
 10
2.62998589409722
 20
-5.406043836805555
 30
0.0
 10
2.828423394097221
 20
-4.262272135416666
 30
0.0
 10
2.954513888888888
 20
-2.844270833333331
 30
0.0
 10
2.954513888888888
 20
-2.844270833333331
 30
0.0
 10
4.277430555555555
 20
-2.844270833333331
 30
0.0
 10
4.277430555555555
 20
-2.844270833333331
 30
0.0
 10
4.169943576388888
 20
-5.109765624999996
 30
0.0
 10
3.795117187499998
 20
-7.009391276041665
 30
0.0
 10
3.151573350694443
 20
-8.542458767361106
 30
0.0
 10
2.381249999999999
 20
-10.38834092881943
 30
0.0
 10
1.347721354166665
 20
-11.3109375
 30
0.0
 10
0.0509874131944445
 20
-11.3109375
 30
0.0
 10
-1.07004665798611
 20
-11.3109375
 30
0.0
 10
-2.010557725694444
 20
-10.55577256944443
 30
0.0
 10
-2.771234809027776
 20
-9.04475368923611
 30
0.0
 10
-3.775824652777775
 20
-7.046598307291666
 30
0.0
 10
-4.277430555555555
 20
-3.961170789930555
 30
0.0
 10
-4.277430555555555
 20
0.2115288628472222
 30
0.0
 10
-4.277430555555555
 20
3.379638671874998
 30
0.0
 10
-3.902604166666666
 20
5.977929687499997
 30
0.0
 10
-3.151573350694443
 20
8.005712890624996
 30
0.0
 10
-2.333018663194443
 20
10.20919596354165
 30
0.0
 10
-1.20647243923611
 20
11.3109375
 30
0.0
 10
0.2266872829861111
 20
11.3109375
 30
0.0
 10
1.444873046875
 20
11.3109375
 30
0.0
 10
2.390207248263884
 20
10.59642469618055
 30
0.0
 10
3.062689887152775
 20
9.168088107638887
 30
0.0
  0
ENDBLK
  5
412
330
40F
100
AcDbEntity
  8
0
100
AcDbBlockEnd
  0
BLOCK
  5
416
330
413
100
AcDbEntity
  8
0
 62
     7
100
AcDbBlockBegin
  2
AI9-BLK5
 70
     0
 10
0.0
 20
0.0
 30
0.0
  3
AI9-BLK5
  1

  0
SPLINE
  5
414
330
413
100
AcDbEntity
  8
LAYER_1
 62
     7
100
AcDbSpline
210
0.0
220
0.0
230
1.0
 70
    11
 71
     3
 72
    32
 73
    28
 74
     0
 42
0.0000000001
 43
0.0000000001
 40
0.0
 40
0.0
 40
0.0
 40
0.0
 40
1.0
 40
1.0
 40
1.0
 40
2.0
 40
2.0
 40
2.0
 40
3.0
 40
3.0
 40
3.0
 40
4.0
 40
4.0
 40
4.0
 40
5.0
 40
5.0
 40
5.0
 40
6.0
 40
6.0
 40
6.0
 40
7.0
 40
7.0
 40
7.0
 40
8.0
 40
8.0
 40
8.0
 40
9.0
 40
9.0
 40
9.0
 40
9.0
 10
-2.62378472222222
 20
-8.268229166666666
 30
0.0
 10
-2.62378472222222
 20
-8.268229166666666
 30
0.0
 10
-2.62378472222222
 20
8.180034722222217
 30
0.0
 10
-2.62378472222222
 20
8.180034722222217
 30
0.0
 10
-2.62378472222222
 20
8.180034722222217
 30
0.0
 10
-0.3376193576388888
 20
8.180034722222217
 30
0.0
 10
-0.3376193576388888
 20
8.180034722222217
 30
0.0
 10
0.6972873263888888
 20
8.180034722222217
 30
0.0
 10
1.449007161458333
 20
7.445540364583332
 30
0.0
 10
1.918918185763885
 20
5.977929687499997
 30
0.0
 10
2.388829210069443
 20
4.510319010416666
 30
0.0
 10
2.62378472222222
 20
2.449462890624999
 30
0.0
 10
2.62378472222222
 20
-0.204638671875
 30
0.0
 10
2.62378472222222
 20
-0.8950358072916666
 30
0.0
 10
2.590022786458332
 20
-1.643310546874999
 30
0.0
 10
2.523187934027772
 20
-2.45015190972222
 30
0.0
 10
2.408121744791666
 20
-3.80200737847222
 30
0.0
 10
2.226220703124999
 20
-4.909950086805555
 30
0.0
 10
1.976795789930553
 20
-5.774669053819441
 30
0.0
 10
1.659847005208333
 20
-6.853672960069442
 30
0.0
 10
1.252636718749998
 20
-7.583344184027778
 30
0.0
 10
0.7544759114583333
 20
-7.962304687499997
 30
0.0
 10
0.4664659288194444
 20
-8.166254340277777
 30
0.0
 10
0.1074869791666666
 20
-8.268229166666666
 30
0.0
 10
-0.3231499565972222
 20
-8.268229166666666
 30
0.0
 10
-0.3231499565972222
 20
-8.268229166666666
 30
0.0
 10
-2.62378472222222
 20
-8.268229166666666
 30
0.0
 10
-2.62378472222222
 20
-8.268229166666666
 30
0.0
  0
SPLINE
  5
415
330
413
100
AcDbEntity
  8
LAYER_1
 62
     7
100
AcDbSpline
210
0.0
220
0.0
230
1.0
 70
    11
 71
     3
 72
    26
 73
    22
 74
     0
 42
0.0000000001
 43
0.0000000001
 40
0.0
 40
0.0
 40
0.0
 40
0.0
 40
1.0
 40
1.0
 40
1.0
 40
2.0
 40
2.0
 40
2.0
 40
3.0
 40
3.0
 40
3.0
 40
4.0
 40
4.0
 40
4.0
 40
5.0
 40
5.0
 40
5.0
 40
6.0
 40
6.0
 40
6.0
 40
7.0
 40
7.0
 40
7.0
 40
7.0
 10
-3.946701388888888
 20
-10.7376736111111
 30
0.0
 10
-3.946701388888888
 20
-10.7376736111111
 30
0.0
 10
-0.0943956163194444
 20
-10.7376736111111
 30
0.0
 10
-0.0943956163194444
 20
-10.7376736111111
 30
0.0
 10
1.546847873263885
 20
-10.7376736111111
 30
0.0
 10
2.705777994791666
 20
-9.11021050347222
 30
0.0
 10
3.381705729166666
 20
-5.854595269097222
 30
0.0
 10
3.757910156249999
 20
-4.01284722222222
 30
0.0
 10
3.946701388888888
 20
-1.951991102430555
 30
0.0
 10
3.946701388888888
 20
0.328662109375
 30
0.0
 10
3.946701388888888
 20
3.281797960069443
 30
0.0
 10
3.622862413194443
 20
5.703700086805552
 30
0.0
 10
2.976562499999998
 20
7.594368489583332
 30
0.0
 10
2.25171440972222
 20
9.689675564236106
 30
0.0
 10
1.233344184027777
 20
10.7376736111111
 30
0.0
 10
-0.0799262152777778
 20
10.7376736111111
 30
0.0
 10
-0.0799262152777778
 20
10.7376736111111
 30
0.0
 10
-3.946701388888888
 20
10.7376736111111
 30
0.0
 10
-3.946701388888888
 20
10.7376736111111
 30
0.0
 10
-3.946701388888888
 20
10.7376736111111
 30
0.0
 10
-3.946701388888888
 20
-10.7376736111111
 30
0.0
 10
-3.946701388888888
 20
-10.7376736111111
 30
0.0
  0
ENDBLK
  5
417
330
413
100
AcDbEntity
  8
0
100
AcDbBlockEnd
  0
BLOCK
  5
41B
330
418
100
AcDbEntity
  8
0
 62
     7
100
AcDbBlockBegin
  2
AI9-BLK4
 70
     0
 10
0.0
 20
0.0
 30
0.0
  3
AI9-BLK4
  1

  0
SPLINE
  5
419
330
418
100
AcDbEntity
  8
LAYER_1
 62
     7
100
AcDbSpline
210
0.0
220
0.0
230
1.0
 70
    11
 71
     3
 72
    26
 73
    22
 74
     0
 42
0.0000000001
 43
0.0000000001
 40
0.0
 40
0.0
 40
0.0
 40
0.0
 40
1.0
 40
1.0
 40
1.0
 40
2.0
 40
2.0
 40
2.0
 40
3.0
 40
3.0
 40
3.0
 40
4.0
 40
4.0
 40
4.0
 40
5.0
 40
5.0
 40
5.0
 40
6.0
 40
6.0
 40
6.0
 40
7.0
 40
7.0
 40
7.0
 40
7.0
 10
-2.645833333333333
 20
0.9039930555555551
 30
0.0
 10
-2.645833333333333
 20
0.9039930555555551
 30
0.0
 10
-2.645833333333333
 20
8.180034722222217
 30
0.0
 10
-2.645833333333333
 20
8.180034722222217
 30
0.0
 10
-2.645833333333333
 20
8.180034722222217
 30
0.0
 10
0.465087890625
 20
8.180034722222217
 30
0.0
 10
0.465087890625
 20
8.180034722222217
 30
0.0
 10
0.9026150173611108
 20
8.180034722222217
 30
0.0
 10
1.24988064236111
 20
8.034651692708331
 30
0.0
 10
1.506884765625
 20
7.745263671874997
 30
0.0
 10
2.001600477430554
 20
7.194048394097221
 30
0.0
 10
2.248958333333332
 20
6.160519748263887
 30
0.0
 10
2.248958333333332
 20
4.643299696180553
 30
0.0
 10
2.248958333333332
 20
3.232188585069443
 30
0.0
 10
2.072569444444444
 20
2.256537543402775
 30
0.0
 10
1.720480685763888
 20
1.715657552083333
 30
0.0
 10
1.368391927083333
 20
1.174088541666665
 30
0.0
 10
0.8929687499999998
 20
0.9039930555555551
 30
0.0
 10
0.2942111545138888
 20
0.9039930555555551
 30
0.0
 10
0.2942111545138888
 20
0.9039930555555551
 30
0.0
 10
-2.645833333333333
 20
0.9039930555555551
 30
0.0
 10
-2.645833333333333
 20
0.9039930555555551
 30
0.0
  0
SPLINE
  5
41A
330
418
100
AcDbEntity
  8
LAYER_1
 62
     7
100
AcDbSpline
210
0.0
220
0.0
230
1.0
 70
    11
 71
     3
 72
    68
 73
    64
 74
     0
 42
0.0000000001
 43
0.0000000001
 40
0.0
 40
0.0
 40
0.0
 40
0.0
 40
1.0
 40
1.0
 40
1.0
 40
2.0
 40
2.0
 40
2.0
 40
3.0
 40
3.0
 40
3.0
 40
4.0
 40
4.0
 40
4.0
 40
5.0
 40
5.0
 40
5.0
 40
6.0
 40
6.0
 40
6.0
 40
7.0
 40
7.0
 40
7.0
 40
8.0
 40
8.0
 40
8.0
 40
9.0
 40
9.0
 40
9.0
 40
10.0
 40
10.0
 40
10.0
 40
11.0
 40
11.0
 40
11.0
 40
12.0
 40
12.0
 40
12.0
 40
13.0
 40
13.0
 40
13.0
 40
14.0
 40
14.0
 40
14.0
 40
15.0
 40
15.0
 40
15.0
 40
16.0
 40
16.0
 40
16.0
 40
17.0
 40
17.0
 40
17.0
 40
18.0
 40
18.0
 40
18.0
 40
19.0
 40
19.0
 40
19.0
 40
20.0
 40
20.0
 40
20.0
 40
21.0
 40
21.0
 40
21.0
 40
21.0
 10
-3.968749999999998
 20
-10.7376736111111
 30
0.0
 10
-3.968749999999998
 20
-10.7376736111111
 30
0.0
 10
-2.645833333333333
 20
-10.7376736111111
 30
0.0
 10
-2.645833333333333
 20
-10.7376736111111
 30
0.0
 10
-2.645833333333333
 20
-10.7376736111111
 30
0.0
 10
-2.645833333333333
 20
-1.521354166666665
 30
0.0
 10
-2.645833333333333
 20
-1.521354166666665
 30
0.0
 10
-2.645833333333333
 20
-1.521354166666665
 30
0.0
 10
0.2390896267361111
 20
-1.521354166666665
 30
0.0
 10
0.2390896267361111
 20
-1.521354166666665
 30
0.0
 10
0.7599880642361111
 20
-1.521354166666665
 30
0.0
 10
1.143771701388887
 20
-1.65295681423611
 30
0.0
 10
1.390440538194444
 20
-1.916162109374999
 30
0.0
 10
1.816254340277773
 20
-2.39434136284722
 30
0.0
 10
2.04363064236111
 20
-3.335541449652775
 30
0.0
 10
2.072569444444444
 20
-4.739762369791666
 30
0.0
 10
2.072569444444444
 20
-4.739762369791666
 30
0.0
 10
2.160763888888888
 20
-8.324039713541665
 30
0.0
 10
2.160763888888888
 20
-8.324039713541665
 30
0.0
 10
2.18005642361111
 20
-9.163264973958332
 30
0.0
 10
2.202794053819443
 20
-9.728949652777775
 30
0.0
 10
2.227598741319444
 20
-10.02109374999998
 30
0.0
 10
2.252403428819443
 20
-10.31392686631944
 30
0.0
 10
2.28892144097222
 20
-10.55301649305555
 30
0.0
 10
2.33853081597222
 20
-10.7376736111111
 30
0.0
 10
2.33853081597222
 20
-10.7376736111111
 30
0.0
 10
3.968749999999998
 20
-10.7376736111111
 30
0.0
 10
3.968749999999998
 20
-10.7376736111111
 30
0.0
 10
3.968749999999998
 20
-10.7376736111111
 30
0.0
 10
3.968749999999998
 20
-10.25260416666666
 30
0.0
 10
3.968749999999998
 20
-10.25260416666666
 30
0.0
 10
3.766867404513888
 20
-10.05830078125
 30
0.0
 10
3.625618489583333
 20
-9.621462673611112
 30
0.0
 10
3.545692274305555
 20
-8.942089843749997
 30
0.0
 10
3.49470486111111
 20
-8.543836805555555
 30
0.0
 10
3.459564887152775
 20
-7.937499999999999
 30
0.0
 10
3.439583333333333
 20
-7.121701388888887
 30
0.0
 10
3.439583333333333
 20
-7.121701388888887
 30
0.0
 10
3.395486111111106
 20
-4.232644314236106
 30
0.0
 10
3.395486111111106
 20
-4.232644314236106
 30
0.0
 10
3.375504557291666
 20
-2.981385633680555
 30
0.0
 10
3.26870659722222
 20
-2.077392578125
 30
0.0
 10
3.075781249999999
 20
-1.522043185763888
 30
0.0
 10
2.882166883680555
 20
-0.9666937934027776
 30
0.0
 10
2.592089843749999
 20
-0.5188313802083333
 30
0.0
 10
2.204861111111104
 20
-0.1770779079861111
 30
0.0
 10
2.63618706597222
 20
0.3197048611111111
 30
0.0
 10
2.971739366319443
 20
0.9770290798611107
 30
0.0
 10
3.211518012152775
 20
1.79558376736111
 30
0.0
 10
3.451296657986107
 20
2.613449435763888
 30
0.0
 10
3.571874999999999
 20
3.66558159722222
 30
0.0
 10
3.571874999999999
 20
4.951291232638888
 30
0.0
 10
3.571874999999999
 20
7.415912543402777
 30
0.0
 10
3.124701605902775
 20
9.106076388888887
 30
0.0
 10
2.231043836805555
 20
10.02178276909722
 30
0.0
 10
1.759754774305553
 20
10.498583984375
 30
0.0
 10
1.163753255208332
 20
10.7376736111111
 30
0.0
 10
0.443039279513889
 20
10.7376736111111
 30
0.0
 10
0.443039279513889
 20
10.7376736111111
 30
0.0
 10
-3.968749999999998
 20
10.7376736111111
 30
0.0
 10
-3.968749999999998
 20
10.7376736111111
 30
0.0
 10
-3.968749999999998
 20
10.7376736111111
 30
0.0
 10
-3.968749999999998
 20
-10.7376736111111
 30
0.0
 10
-3.968749999999998
 20
-10.7376736111111
 30
0.0
  0
ENDBLK
  5
41C
330
418
100
AcDbEntity
  8
0
100
AcDbBlockEnd
  0
BLOCK
  5
420
330
41D
100
AcDbEntity
  8
0
 62
     7
100
AcDbBlockBegin
  2
AI9-BLK3
 70
     0
 10
0.0
 20
0.0
 30
0.0
  3
AI9-BLK3
  1

  0
LWPOLYLINE
  5
41E
330
41D
100
AcDbEntity
  8
LAYER_1
 62
     7
100
AcDbPolyline
 90
        4
 70
     1
 43
0.0
 10
-0.6613722059461809
 20
10.7376736111111
 10
0.6613722059461809
 20
10.7376736111111
 10
0.6613722059461809
 20
-10.7376736111111
 10
-0.6613722059461809
 20
-10.7376736111111
  0
HATCH
  5
41F
330
41D
100
AcDbEntity
  8
LAYER_1
 62
     7
100
AcDbHatch
 10
0.0
 20
0.0
 30
0.0
210
0.0
220
0.0
230
1.0
  2
SOLID
 70
     1
 71
     0
 91
        1
 92
        3
 72
     0
 73
     1
 93
        4
 10
-0.6613722059461809
 20
10.7376736111111
 10
0.6613722059461809
 20
10.7376736111111
 10
0.6613722059461809
 20
-10.7376736111111
 10
-0.6613722059461809
 20
-10.7376736111111
 97
        0
 75
     2
 76
     1
 98
        1
 10
0.0
 20
0.0
  0
ENDBLK
  5
421
330
41D
100
AcDbEntity
  8
0
100
AcDbBlockEnd
  0
BLOCK
  5
425
330
422
100
AcDbEntity
  8
0
 62
     7
100
AcDbBlockBegin
  2
AI9-BLK2
 70
     0
 10
0.0
 20
0.0
 30
0.0
  3
AI9-BLK2
  1

  0
LWPOLYLINE
  5
423
330
422
100
AcDbEntity
  8
LAYER_1
 62
     7
100
AcDbPolyline
 90
        7
 70
     1
 43
0.0
 10
-2.785704210069443
 20
10.7376736111111
 10
0.0
 20
-7.550960286458332
 10
2.771234809027776
 20
10.7376736111111
 10
4.233333333333331
 20
10.7376736111111
 10
0.6910861545138888
 20
-10.7376736111111
 10
-0.7055555555555558
 20
-10.7376736111111
 10
-4.233333333333331
 20
10.7376736111111
  0
HATCH
  5
424
330
422
100
AcDbEntity
  8
LAYER_1
 62
     7
100
AcDbHatch
 10
0.0
 20
0.0
 30
0.0
210
0.0
220
0.0
230
1.0
  2
SOLID
 70
     1
 71
     0
 91
        1
 92
        3
 72
     0
 73
     1
 93
        7
 10
-2.785704210069443
 20
10.7376736111111
 10
0.0
 20
-7.550960286458332
 10
2.771234809027776
 20
10.7376736111111
 10
4.233333333333331
 20
10.7376736111111
 10
0.6910861545138888
 20
-10.7376736111111
 10
-0.7055555555555558
 20
-10.7376736111111
 10
-4.233333333333331
 20
10.7376736111111
 97
        0
 75
     2
 76
     1
 98
        1
 10
0.0
 20
0.0
  0
ENDBLK
  5
426
330
422
100
AcDbEntity
  8
0
100
AcDbBlockEnd
  0
BLOCK
  5
42A
330
427
100
AcDbEntity
  8
0
 62
     7
100
AcDbBlockBegin
  2
AI9-BLK1
 70
     0
 10
0.0
 20
0.0
 30
0.0
  3
AI9-BLK1
  1

  0
LWPOLYLINE
  5
428
330
427
100
AcDbEntity
  8
LAYER_1
 62
     7
100
AcDbPolyline
 90
       12
 70
     1
 43
0.0
 10
-3.571874999999999
 20
10.7376736111111
 10
3.483680555555555
 20
10.7376736111111
 10
3.483680555555555
 20
8.091840277777777
 10
-2.248958333333332
 20
8.091840277777777
 10
-2.248958333333332
 20
1.565451388888888
 10
3.042708333333333
 20
1.565451388888888
 10
3.042708333333333
 20
-0.9039930555555551
 10
-2.248958333333332
 20
-0.9039930555555551
 10
-2.248958333333332
 20
-8.180034722222217
 10
3.571874999999999
 20
-8.180034722222217
 10
3.571874999999999
 20
-10.7376736111111
 10
-3.571874999999999
 20
-10.7376736111111
  0
HATCH
  5
429
330
427
100
AcDbEntity
  8
LAYER_1
 62
     7
100
AcDbHatch
 10
0.0
 20
0.0
 30
0.0
210
0.0
220
0.0
230
1.0
  2
SOLID
 70
     1
 71
     0
 91
        1
 92
        3
 72
     0
 73
     1
 93
       12
 10
-3.571874999999999
 20
10.7376736111111
 10
3.483680555555555
 20
10.7376736111111
 10
3.483680555555555
 20
8.091840277777777
 10
-2.248958333333332
 20
8.091840277777777
 10
-2.248958333333332
 20
1.565451388888888
 10
3.042708333333333
 20
1.565451388888888
 10
3.042708333333333
 20
-0.9039930555555551
 10
-2.248958333333332
 20
-0.9039930555555551
 10
-2.248958333333332
 20
-8.180034722222217
 10
3.571874999999999
 20
-8.180034722222217
 10
3.571874999999999
 20
-10.7376736111111
 10
-3.571874999999999
 20
-10.7376736111111
 97
        0
 75
     2
 76
     1
 98
        1
 10
0.0
 20
0.0
  0
ENDBLK
  5
42B
330
427
100
AcDbEntity
  8
0
100
AcDbBlockEnd
  0
BLOCK
  5
44F
330
42C
100
AcDbEntity
  8
0
100
AcDbBlockBegin
  2
HD_LLC_logo_OT5
 70
     0
 10
0.0
 20
0.0
 30
0.0
  3
HD_LLC_logo_OT5
  1

  0
SPLINE
  5
42D
102
{ACAD_REACTORS
330
44D
102
}
330
42C
100
AcDbEntity
  8
LAYER_1
 62
     7
100
AcDbSpline
210
0.0
220
0.0
230
1.0
 70
    11
 71
     3
 72
   113
 73
   109
 74
     0
 42
0.0000000001
 43
0.0000000001
 40
0.0
 40
0.0
 40
0.0
 40
0.0
 40
1.0
 40
1.0
 40
1.0
 40
2.0
 40
2.0
 40
2.0
 40
3.0
 40
3.0
 40
3.0
 40
4.0
 40
4.0
 40
4.0
 40
5.0
 40
5.0
 40
5.0
 40
6.0
 40
6.0
 40
6.0
 40
7.0
 40
7.0
 40
7.0
 40
8.0
 40
8.0
 40
8.0
 40
9.0
 40
9.0
 40
9.0
 40
10.0
 40
10.0
 40
10.0
 40
11.0
 40
11.0
 40
11.0
 40
12.0
 40
12.0
 40
12.0
 40
13.0
 40
13.0
 40
13.0
 40
14.0
 40
14.0
 40
14.0
 40
15.0
 40
15.0
 40
15.0
 40
16.0
 40
16.0
 40
16.0
 40
17.0
 40
17.0
 40
17.0
 40
18.0
 40
18.0
 40
18.0
 40
19.0
 40
19.0
 40
19.0
 40
20.0
 40
20.0
 40
20.0
 40
21.0
 40
21.0
 40
21.0
 40
22.0
 40
22.0
 40
22.0
 40
23.0
 40
23.0
 40
23.0
 40
24.0
 40
24.0
 40
24.0
 40
25.0
 40
25.0
 40
25.0
 40
26.0
 40
26.0
 40
26.0
 40
27.0
 40
27.0
 40
27.0
 40
28.0
 40
28.0
 40
28.0
 40
29.0
 40
29.0
 40
29.0
 40
30.0
 40
30.0
 40
30.0
 40
31.0
 40
31.0
 40
31.0
 40
32.0
 40
32.0
 40
32.0
 40
33.0
 40
33.0
 40
33.0
 40
34.0
 40
34.0
 40
34.0
 40
35.0
 40
35.0
 40
35.0
 40
36.0
 40
36.0
 40
36.0
 40
36.0
 10
193.3039632161458
 20
186.1548733181423
 30
0.0
 10
193.3039632161458
 20
186.1860514322916
 30
0.0
 10
193.3039632161458
 20
219.6932223849826
 30
0.0
 10
193.3039632161458
 20
219.6932223849826
 30
0.0
 10
193.3039632161458
 20
219.6932223849826
 30
0.0
 10
193.2974175347219
 20
219.7488606770833
 30
0.0
 10
193.2974175347219
 20
219.7488606770833
 30
0.0
 10
191.5293945312499
 20
235.455740017361
 30
0.0
 10
175.1458984374999
 20
235.2467949761284
 30
0.0
 10
174.9808783637151
 20
235.2428331163193
 30
0.0
 10
174.9808783637151
 20
235.2428331163193
 30
0.0
 10
125.8827555338541
 20
235.2430053710937
 30
0.0
 10
125.8827555338541
 20
235.2430053710937
 30
0.0
 10
125.8827555338541
 20
235.2430053710937
 30
0.0
 10
125.8827555338541
 20
255.5278998480901
 30
0.0
 10
125.8827555338541
 20
255.5278998480901
 30
0.0
 10
125.8827555338541
 20
255.5278998480901
 30
0.0
 10
84.5626247829861
 20
255.5278998480901
 30
0.0
 10
84.5626247829861
 20
255.5278998480901
 30
0.0
 10
84.5626247829861
 20
255.5278998480901
 30
0.0
 10
84.55711263020829
 20
233.7919311523436
 30
0.0
 10
84.55711263020829
 20
233.7919311523436
 30
0.0
 10
84.55711263020829
 20
233.7919311523436
 30
0.0
 10
64.42052951388888
 20
233.7919311523436
 30
0.0
 10
64.42052951388888
 20
233.7919311523436
 30
0.0
 10
64.42052951388888
 20
233.7919311523436
 30
0.0
 10
64.41501736111111
 20
255.5278998480901
 30
0.0
 10
64.41501736111111
 20
255.5278998480901
 30
0.0
 10
64.41501736111111
 20
255.5278998480901
 30
0.0
 10
23.91757541232637
 20
255.5278998480901
 30
0.0
 10
23.91757541232637
 20
255.5278998480901
 30
0.0
 10
23.91757541232637
 20
255.5278998480901
 30
0.0
 10
23.91757541232637
 20
233.2393378363715
 30
0.0
 10
23.91757541232637
 20
233.2393378363715
 30
0.0
 10
23.91757541232637
 20
233.2393378363715
 30
0.0
 10
43.65624999999999
 20
233.2393378363715
 30
0.0
 10
43.65624999999999
 20
233.2393378363715
 30
0.0
 10
43.65624999999999
 20
233.2393378363715
 30
0.0
 10
43.65624999999999
 20
211.5188720703125
 30
0.0
 10
43.65624999999999
 20
211.5188720703125
 30
0.0
 10
43.65624999999999
 20
211.5188720703125
 30
0.0
 10
23.91757541232637
 20
211.5188720703125
 30
0.0
 10
23.91757541232637
 20
211.5188720703125
 30
0.0
 10
23.91757541232637
 20
211.5188720703125
 30
0.0
 10
23.91757541232637
 20
189.2303100585936
 30
0.0
 10
23.91757541232637
 20
189.2303100585936
 30
0.0
 10
23.91757541232637
 20
189.2303100585936
 30
0.0
 10
64.41501736111111
 20
189.2303100585936
 30
0.0
 10
64.41501736111111
 20
189.2303100585936
 30
0.0
 10
64.41501736111111
 20
189.2303100585936
 30
0.0
 10
64.42052951388888
 20
211.069976128472
 30
0.0
 10
64.42052951388888
 20
211.069976128472
 30
0.0
 10
64.42052951388888
 20
211.069976128472
 30
0.0
 10
84.55711263020829
 20
211.069976128472
 30
0.0
 10
84.55711263020829
 20
211.069976128472
 30
0.0
 10
84.55711263020829
 20
211.069976128472
 30
0.0
 10
84.5626247829861
 20
189.2303100585936
 30
0.0
 10
84.5626247829861
 20
189.2303100585936
 30
0.0
 10
84.5626247829861
 20
189.2303100585936
 30
0.0
 10
125.8827555338541
 20
189.2303100585936
 30
0.0
 10
125.8827555338541
 20
189.2303100585936
 30
0.0
 10
125.8827555338541
 20
189.2303100585936
 30
0.0
 10
125.8827555338541
 20
211.5188720703125
 30
0.0
 10
125.8827555338541
 20
211.5188720703125
 30
0.0
 10
125.8827555338541
 20
211.5188720703125
 30
0.0
 10
105.3213921440971
 20
211.5188720703125
 30
0.0
 10
105.3213921440971
 20
211.5188720703125
 30
0.0
 10
105.3213921440971
 20
211.5188720703125
 30
0.0
 10
105.3213921440971
 20
233.2393378363715
 30
0.0
 10
105.3213921440971
 20
233.2393378363715
 30
0.0
 10
105.3213921440971
 20
233.2393378363715
 30
0.0
 10
175.0046495225693
 20
233.243127441406
 30
0.0
 10
175.0046495225693
 20
233.243127441406
 30
0.0
 10
175.6268337673611
 20
233.2560465494791
 30
0.0
 10
189.7165852864583
 20
233.3962619357638
 30
0.0
 10
191.3037407769094
 20
219.5690266927083
 30
0.0
 10
191.3037407769094
 20
219.4332899305555
 30
0.0
 10
191.3037407769094
 20
186.1142211914062
 30
0.0
 10
191.3037407769094
 20
186.1142211914062
 30
0.0
 10
191.3037407769094
 20
186.1142211914062
 30
0.0
 10
191.3051188151039
 20
186.0880384657115
 30
0.0
 10
191.3051188151039
 20
186.0880384657115
 30
0.0
 10
191.3054633246526
 20
186.0787367078991
 30
0.0
 10
191.3109754774304
 20
185.9566080729166
 30
0.0
 10
191.3109754774304
 20
185.7399115668401
 30
0.0
 10
191.3109754774304
 20
184.2090833875865
 30
0.0
 10
191.0488037109374
 20
177.9643310546874
 30
0.0
 10
186.9866916232638
 20
173.5652886284722
 30
0.0
 10
184.2540418836804
 20
170.6064683702255
 30
0.0
 10
180.3224989149304
 20
169.0308539496526
 30
0.0
 10
175.300927734375
 20
168.8825425889756
 30
0.0
 10
175.300927734375
 20
168.8825425889756
 30
0.0
 10
107.0094889322916
 20
168.8828870985243
 30
0.0
 10
107.0094889322916
 20
168.8828870985243
 30
0.0
 10
107.0094889322916
 20
168.8828870985243
 30
0.0
 10
107.0094889322916
 20
166.8830091688368
 30
0.0
 10
107.0094889322916
 20
166.8830091688368
 30
0.0
 10
107.0094889322916
 20
166.8830091688368
 30
0.0
 10
175.3305555555555
 20
166.8830091688368
 30
0.0
 10
175.3305555555555
 20
166.8830091688368
 30
0.0
 10
180.9467502170138
 20
167.0485460069444
 30
0.0
 10
185.3571614583333
 20
168.8448187934026
 30
0.0
 10
188.4687717013888
 20
172.2223904079861
 30
0.0
 10
192.9649658203124
 20
177.1034016927083
 30
0.0
 10
193.3136094835069
 20
183.7202243381076
 30
0.0
 10
193.3136094835069
 20
185.6520616319443
 30
0.0
 10
193.3136094835069
 20
185.9247409396701
 30
0.0
 10
193.3070638020833
 20
186.0868326822916
 30
0.0
 10
193.3039632161458
 20
186.1548733181423
 30
0.0
  0
INSERT
  5
42E
102
{ACAD_REACTORS
330
44E
102
}
330
42C
100
AcDbEntity
  8
LAYER_1
 62
     7
100
AcDbBlockReference
  2
AI9-BLK14
 10
159.5625257703993
 20
200.5118781195744
 30
0.0
  0
INSERT
  5
42F
330
42C
100
AcDbEntity
  8
LAYER_1
 62
     7
100
AcDbBlockReference
  2
AI9-BLK13
 10
27.69615614149305
 20
179.2145562065971
 30
0.0
 42
0.9200000000000001
  0
INSERT
  5
430
102
{ACAD_REACTORS
330
43B
102
}
330
42C
100
AcDbEntity
  8
LAYER_1
 62
     7
100
AcDbBlockReference
  2
AI9-BLK11
 10
44.76591525607638
 20
179.2145562065971
 30
0.0
 42
0.9200000000000001
  0
INSERT
  5
431
102
{ACAD_REACTORS
330
449
102
}
330
42C
100
AcDbEntity
  8
LAYER_1
 62
     7
100
AcDbBlockReference
  2
AI9-BLK10
 10
54.04665798611111
 20
179.2145562065971
 30
0.0
 42
0.9200000000000001
  0
INSERT
  5
432
102
{ACAD_REACTORS
330
448
102
}
330
42C
100
AcDbEntity
  8
LAYER_1
 62
     7
100
AcDbBlockReference
  2
AI9-BLK9
 10
62.79013807508679
 20
179.2145562065971
 30
0.0
 42
0.9
  0
INSERT
  5
433
330
42C
100
AcDbEntity
  8
LAYER_1
 62
     7
100
AcDbBlockReference
  2
AI9-BLK8
 10
71.03046196831595
 20
179.2145562065971
 30
0.0
 42
0.9200000000000001
  0
INSERT
  5
434
330
42C
100
AcDbEntity
  8
LAYER_1
 62
     7
100
AcDbBlockReference
  2
AI9-BLK7
 10
76.93793945312498
 20
179.2145562065971
 30
0.0
 42
0.9200000000000001
  0
INSERT
  5
435
102
{ACAD_REACTORS
330
43C
102
}
330
42C
100
AcDbEntity
  8
LAYER_1
 62
     7
100
AcDbBlockReference
  2
AI9-BLK6
 10
82.55602891710069
 20
179.2145562065971
 30
0.0
 42
0.9
  0
INSERT
  5
436
102
{ACAD_REACTORS
330
44A
102
}
330
42C
100
AcDbEntity
  8
LAYER_1
 62
     7
100
AcDbBlockReference
  2
AI9-BLK5
 10
94.32430284288193
 20
179.2145562065971
 30
0.0
 42
0.9200000000000001
  0
INSERT
  5
437
102
{ACAD_REACTORS
330
44B
102
}
330
42C
100
AcDbEntity
  8
LAYER_1
 62
     7
100
AcDbBlockReference
  2
AI9-BLK4
 10
103.2081705729166
 20
179.2145562065971
 30
0.0
 42
0.9200000000000001
  0
INSERT
  5
438
330
42C
100
AcDbEntity
  8
LAYER_1
 62
     7
100
AcDbBlockReference
  2
AI9-BLK3
 10
108.850978597005
 20
179.2145562065971
 30
0.0
 42
0.9200000000000001
  0
INSERT
  5
439
330
42C
100
AcDbEntity
  8
LAYER_1
 62
     7
100
AcDbBlockReference
  2
AI9-BLK2
 10
114.2045708550346
 20
179.2145562065971
 30
0.0
 42
0.9200000000000001
  0
INSERT
  5
43A
330
42C
100
AcDbEntity
  8
LAYER_1
 62
     7
100
AcDbBlockReference
  2
AI9-BLK1
 10
122.4125108506944
 20
179.2145562065971
 30
0.0
 42
0.9200000000000001
  0
HATCH
  5
43B
330
42C
100
AcDbEntity
  8
0
  6
Continuous
100
AcDbHatch
 10
0.0
 20
0.0
 30
0.0
210
0.0
220
0.0
230
1.0
  2
SOLID
 70
     1
 71
     1
 91
        2
 92
       16
 93
        1
 72
     4
 94
        3
 73
     0
 74
     0
 95
       26
 96
       22
 40
0.0
 40
0.0
 40
0.0
 40
0.0
 40
1.0
 40
1.0
 40
1.0
 40
2.0
 40
2.0
 40
2.0
 40
3.0
 40
3.0
 40
3.0
 40
4.0
 40
4.0
 40
4.0
 40
5.0
 40
5.0
 40
5.0
 40
6.0
 40
6.0
 40
6.0
 40
7.0
 40
7.0
 40
7.0
 40
7.0
 10
42.12008192274304
 20
180.046229817708
 10
42.12008192274304
 20
180.046229817708
 10
42.12008192274304
 20
186.7401881510414
 10
42.12008192274304
 20
186.7401881510414
 10
42.12008192274304
 20
186.7401881510414
 10
45.23100314670138
 20
186.7401881510414
 10
45.23100314670138
 20
186.7401881510414
 10
45.66853027343749
 20
186.7401881510414
 10
46.01579589843749
 20
186.6064357638887
 10
46.27280002170138
 20
186.3401987847217
 10
46.76751573350694
 20
185.8330807291664
 10
47.01487358940972
 20
184.8822343749995
 10
47.01487358940972
 20
183.4863919270832
 10
47.01487358940972
 20
182.188169704861
 10
46.83848470052082
 20
181.2905707465276
 10
46.48639594184028
 20
180.7929611545137
 10
46.13430718315971
 20
180.2947176649304
 10
45.65888400607638
 20
180.046229817708
 10
45.06012641059028
 20
180.046229817708
 10
45.06012641059028
 20
180.046229817708
 10
42.12008192274304
 20
180.046229817708
 10
42.12008192274304
 20
180.046229817708
 97
        1
330
430
 92
        1
 93
        1
 72
     4
 94
        3
 73
     0
 74
     0
 95
       68
 96
       64
 40
0.0
 40
0.0
 40
0.0
 40
0.0
 40
1.0
 40
1.0
 40
1.0
 40
2.0
 40
2.0
 40
2.0
 40
3.0
 40
3.0
 40
3.0
 40
4.0
 40
4.0
 40
4.0
 40
5.0
 40
5.0
 40
5.0
 40
6.0
 40
6.0
 40
6.0
 40
7.0
 40
7.0
 40
7.0
 40
8.0
 40
8.0
 40
8.0
 40
9.0
 40
9.0
 40
9.0
 40
10.0
 40
10.0
 40
10.0
 40
11.0
 40
11.0
 40
11.0
 40
12.0
 40
12.0
 40
12.0
 40
13.0
 40
13.0
 40
13.0
 40
14.0
 40
14.0
 40
14.0
 40
15.0
 40
15.0
 40
15.0
 40
16.0
 40
16.0
 40
16.0
 40
17.0
 40
17.0
 40
17.0
 40
18.0
 40
18.0
 40
18.0
 40
19.0
 40
19.0
 40
19.0
 40
20.0
 40
20.0
 40
20.0
 40
21.0
 40
21.0
 40
21.0
 40
21.0
 10
40.79716525607638
 20
169.3358964843748
 10
40.79716525607638
 20
169.3358964843748
 10
42.12008192274304
 20
169.3358964843748
 10
42.12008192274304
 20
169.3358964843748
 10
42.12008192274304
 20
169.3358964843748
 10
42.12008192274304
 20
177.8149103732637
 10
42.12008192274304
 20
177.8149103732637
 10
42.12008192274304
 20
177.8149103732637
 10
45.00500488281249
 20
177.8149103732637
 10
45.00500488281249
 20
177.8149103732637
 10
45.52590332031249
 20
177.8149103732637
 10
45.90968695746528
 20
177.6938359374998
 10
46.15635579427083
 20
177.4516870659718
 10
46.58216959635415
 20
177.0117621527776
 10
46.80954589843749
 20
176.1458580729164
 10
46.83848470052082
 20
174.8539748263887
 10
46.83848470052082
 20
174.8539748263887
 10
46.92667914496527
 20
171.5564396701385
 10
46.92667914496527
 20
171.5564396701385
 10
46.94597167968749
 20
170.7843524305554
 10
46.96870930989581
 20
170.2639225260415
 10
46.99351399739582
 20
169.9951499565971
 10
47.01831868489581
 20
169.725743489583
 10
47.0548366970486
 20
169.5057810329859
 10
47.10444607204859
 20
169.3358964843748
 10
47.10444607204859
 20
169.3358964843748
 10
48.73466525607638
 20
169.3358964843748
 10
48.73466525607638
 20
169.3358964843748
 10
48.73466525607638
 20
169.3358964843748
 10
48.73466525607638
 20
169.7821603732634
 10
48.73466525607638
 20
169.7821603732634
 10
48.53278266059028
 20
169.9609194878471
 10
48.39153374565971
 20
170.3628105468748
 10
48.31160753038194
 20
170.9878335503471
 10
48.26062011718749
 20
171.3542263454858
 10
48.22548014322915
 20
171.9120562065971
 10
48.20549858940971
 20
172.6625909288193
 10
48.20549858940971
 20
172.6625909288193
 10
48.16140136718749
 20
175.3205234374999
 10
48.16140136718749
 20
175.3205234374999
 10
48.14141981336803
 20
176.4716814236109
 10
48.03462185329859
 20
177.3033550347219
 10
47.84169650607638
 20
177.814276475694
 10
47.64808213975693
 20
178.3251979166665
 10
47.35800509982638
 20
178.7372313368054
 10
46.97077636718749
 20
179.0516445312498
 10
47.4021023220486
 20
179.5086846788193
 10
47.73765462239582
 20
180.1134229600693
 10
47.97743326822915
 20
180.866493272569
 10
48.21721191406249
 20
181.6189296874999
 10
48.33779025607638
 20
182.5868912760412
 10
48.33779025607638
 20
183.7697441406248
 10
48.33779025607638
 20
186.0371957465273
 10
47.89061686197913
 20
187.5921464843749
 10
46.99695909288194
 20
188.4345963541665
 10
46.52567003038194
 20
188.8732534722221
 10
45.92966851128472
 20
189.0932159288193
 10
45.20895453559027
 20
189.0932159288193
 10
45.20895453559027
 20
189.0932159288193
 10
40.79716525607638
 20
189.0932159288193
 10
40.79716525607638
 20
189.0932159288193
 10
40.79716525607638
 20
189.0932159288193
 10
40.79716525607638
 20
169.3358964843748
 10
40.79716525607638
 20
169.3358964843748
 97
        0
 75
     0
 76
     1
 98
        0
  0
HATCH
  5
43C
330
42C
100
AcDbEntity
  8
0
  6
Continuous
100
AcDbHatch
 10
0.0
 20
0.0
 30
0.0
210
0.0
220
0.0
230
1.0
  2
SOLID
 70
     1
 71
     1
 91
        1
 92
        1
 93
        1
 72
     4
 94
        3
 73
     0
 74
     0
 95
       59
 96
       55
 40
0.0
 40
0.0
 40
0.0
 40
0.0
 40
1.0
 40
1.0
 40
1.0
 40
2.0
 40
2.0
 40
2.0
 40
3.0
 40
3.0
 40
3.0
 40
4.0
 40
4.0
 40
4.0
 40
5.0
 40
5.0
 40
5.0
 40
6.0
 40
6.0
 40
6.0
 40
7.0
 40
7.0
 40
7.0
 40
8.0
 40
8.0
 40
8.0
 40
9.0
 40
9.0
 40
9.0
 40
10.0
 40
10.0
 40
10.0
 40
11.0
 40
11.0
 40
11.0
 40
12.0
 40
12.0
 40
12.0
 40
13.0
 40
13.0
 40
13.0
 40
14.0
 40
14.0
 40
14.0
 40
15.0
 40
15.0
 40
15.0
 40
16.0
 40
16.0
 40
16.0
 40
17.0
 40
17.0
 40
17.0
 40
18.0
 40
18.0
 40
18.0
 40
18.0
 10
85.61871880425345
 20
187.4658355034721
 10
86.29120144314232
 20
186.1797124565971
 10
86.66671685112847
 20
184.7193364800346
 10
86.7452650282118
 20
183.0840874565969
 10
86.7452650282118
 20
183.0840874565969
 10
85.42234836154511
 20
183.0840874565969
 10
85.42234836154511
 20
183.0840874565969
 10
85.27696533203123
 20
184.3156401909719
 10
84.99171142578125
 20
185.2917046440971
 10
84.56589762369791
 20
186.0122808159719
 10
84.14008382161458
 20
186.7322368706594
 10
83.53994818793401
 20
187.0925249565969
 10
82.76617974175342
 20
187.0925249565969
 10
81.81740044487847
 20
187.0925249565969
 10
81.05258924696178
 20
186.4240386284721
 10
80.47243516710068
 20
185.0883062065971
 10
79.89159206814234
 20
183.7525737847219
 10
79.6015150282118
 20
181.7049468315971
 10
79.6015150282118
 20
178.9454253472221
 10
79.6015150282118
 20
176.6844780815969
 10
79.86265326605901
 20
174.8514116753471
 10
80.38561876085069
 20
173.4456060112846
 10
80.90789523654512
 20
172.0391802300344
 10
81.69199896918403
 20
171.3365874565971
 10
82.73724093967013
 20
171.3365874565971
 10
83.69497748480901
 20
171.3365874565971
 10
84.42120361328125
 20
172.0794878472221
 10
84.91523030598958
 20
173.5665288628469
 10
85.18601481119791
 20
174.3491167534719
 10
85.38445231119791
 20
175.3785112847221
 10
85.51054280598959
 20
176.6547124565971
 10
85.51054280598959
 20
176.6547124565971
 10
86.83345947265625
 20
176.6547124565971
 10
86.83345947265625
 20
176.6547124565971
 10
86.72597249348957
 20
174.6157671440971
 10
86.35114610460069
 20
172.9061040581596
 10
85.70760226779514
 20
171.526343315972
 10
84.93727891710069
 20
169.8650493706596
 10
83.90375027126735
 20
169.0347124565971
 10
82.60701633029514
 20
169.0347124565971
 10
81.48598225911458
 20
169.0347124565971
 10
80.54547119140625
 20
169.7143608940971
 10
79.78479410807292
 20
171.0742778862845
 10
78.78020426432292
 20
172.8726177300344
 10
78.27859836154512
 20
175.6495024956596
 10
78.27859836154512
 20
179.4049321831594
 10
78.27859836154512
 20
182.2562310112846
 10
78.65342475043402
 20
184.5946929253469
 10
79.40445556640622
 20
186.4196978081596
 10
80.22301025390625
 20
188.4028325737846
 10
81.34955647786458
 20
189.3943999565971
 10
82.78271620008679
 20
189.3943999565971
 10
84.00090196397568
 20
189.3943999565971
 10
84.94623616536458
 20
188.7513384331594
 10
85.61871880425345
 20
187.4658355034721
 97
        1
330
435
 75
     0
 76
     1
 98
        1
 10
0.0
 20
0.0
  0
LINE
  5
43D
102
{ACAD_REACTORS
330
44C
102
}
330
42C
100
AcDbEntity
  8
LAYER_1
 62
     7
100
AcDbLine
 10
34.65766059027778
 20
177.4497853732638
 30
0.0
 11
36.19830729166666
 21
186.1658769531249
 31
0.0
  0
LINE
  5
43E
102
{ACAD_REACTORS
330
44C
102
}
330
42C
100
AcDbEntity
  8
LAYER_1
 62
     7
100
AcDbLine
 10
36.19830729166666
 20
186.1658769531249
 30
0.0
 11
37.67556423611111
 21
177.4497853732638
 31
0.0
  0
LINE
  5
43F
102
{ACAD_REACTORS
330
44C
102
}
330
42C
100
AcDbEntity
  8
LAYER_1
 62
     7
100
AcDbLine
 10
37.67556423611111
 20
177.4497853732638
 30
0.0
 11
34.65766059027778
 21
177.4497853732638
 31
0.0
  0
LINE
  5
440
102
{ACAD_REACTORS
330
44C
102
}
330
42C
100
AcDbEntity
  8
LAYER_1
 62
     7
100
AcDbLine
 10
31.83957248263888
 20
169.3358964843748
 30
0.0
 11
33.22450086805555
 21
169.3358964843748
 31
0.0
  0
LINE
  5
441
102
{ACAD_REACTORS
330
44C
102
}
330
42C
100
AcDbEntity
  8
LAYER_1
 62
     7
100
AcDbLine
 10
33.22450086805555
 20
169.3358964843748
 30
0.0
 11
34.27043185763887
 21
175.2590353732638
 31
0.0
  0
LINE
  5
442
102
{ACAD_REACTORS
330
44C
102
}
330
42C
100
AcDbEntity
  8
LAYER_1
 62
     7
100
AcDbLine
 10
34.27043185763887
 20
175.2590353732638
 30
0.0
 11
38.04694552951389
 21
175.2590353732638
 31
0.0
  0
LINE
  5
443
102
{ACAD_REACTORS
330
44C
102
}
330
42C
100
AcDbEntity
  8
LAYER_1
 62
     7
100
AcDbLine
 10
38.04694552951389
 20
175.2590353732638
 30
0.0
 11
39.05015733506942
 21
169.3358964843748
 31
0.0
  0
LINE
  5
444
102
{ACAD_REACTORS
330
44C
102
}
330
42C
100
AcDbEntity
  8
LAYER_1
 62
     7
100
AcDbLine
 10
39.05015733506942
 20
169.3358964843748
 30
0.0
 11
40.43508572048611
 21
169.3358964843748
 31
0.0
  0
LINE
  5
445
102
{ACAD_REACTORS
330
44C
102
}
330
42C
100
AcDbEntity
  8
LAYER_1
 62
     7
100
AcDbLine
 10
40.43508572048611
 20
169.3358964843748
 30
0.0
 11
36.952783203125
 21
189.0932159288193
 31
0.0
  0
LINE
  5
446
102
{ACAD_REACTORS
330
44C
102
}
330
42C
100
AcDbEntity
  8
LAYER_1
 62
     7
100
AcDbLine
 10
36.952783203125
 20
189.0932159288193
 30
0.0
 11
35.47828233506943
 21
189.0932159288193
 31
0.0
  0
LINE
  5
447
102
{ACAD_REACTORS
330
44C
102
}
330
42C
100
AcDbEntity
  8
LAYER_1
 62
     7
100
AcDbLine
 10
35.47828233506943
 20
189.0932159288193
 30
0.0
 11
31.83957248263888
 21
169.3358964843748
 31
0.0
  0
HATCH
  5
448
330
42C
100
AcDbEntity
  8
0
  6
Continuous
100
AcDbHatch
 10
0.0
 20
0.0
 30
0.0
210
0.0
220
0.0
230
1.0
  2
SOLID
 70
     1
 71
     1
 91
        2
 92
       16
 93
        1
 72
     4
 94
        3
 73
     0
 74
     0
 95
       29
 96
       25
 40
0.0
 40
0.0
 40
0.0
 40
0.0
 40
1.0
 40
1.0
 40
1.0
 40
2.0
 40
2.0
 40
2.0
 40
3.0
 40
3.0
 40
3.0
 40
4.0
 40
4.0
 40
4.0
 40
5.0
 40
5.0
 40
5.0
 40
6.0
 40
6.0
 40
6.0
 40
7.0
 40
7.0
 40
7.0
 40
8.0
 40
8.0
 40
8.0
 40
8.0
 10
62.85697292751734
 20
171.3365874565971
 10
61.88338894314235
 20
171.3365874565971
 10
61.18058946397566
 20
172.0714263237844
 10
60.74857449001735
 20
173.5411040581594
 10
60.31587049696178
 20
175.0107817925344
 10
60.10020751953123
 20
176.8165630425342
 10
60.10020751953123
 20
178.9578276909721
 10
60.10020751953123
 20
181.6342534722221
 10
60.35101047092013
 20
183.6589360894094
 10
60.85261637369789
 20
185.0324956597219
 10
61.35422227647566
 20
186.4054351128471
 10
62.00741238064235
 20
187.0925249565969
 10
62.81218668619789
 20
187.0925249565969
 10
63.6369425455729
 20
187.0925249565969
 10
64.28806559244789
 20
186.3992339409721
 10
64.76486680772568
 20
185.0126519097221
 10
65.24166802300347
 20
183.6260698784719
 10
65.48006863064235
 20
181.7961040581594
 10
65.48006863064235
 20
179.5239946831596
 10
65.48006863064235
 20
177.3734282769096
 10
65.27336290147568
 20
175.4715288628468
 10
64.86132948133678
 20
173.8176763237846
 10
64.4492960611979
 20
172.1632036675344
 10
63.78094753689235
 20
171.3365874565971
 10
62.85697292751734
 20
171.3365874565971
 97
        1
330
432
 92
        1
 93
        1
 72
     4
 94
        3
 73
     0
 74
     0
 95
       29
 96
       25
 40
0.0
 40
0.0
 40
0.0
 40
0.0
 40
1.0
 40
1.0
 40
1.0
 40
2.0
 40
2.0
 40
2.0
 40
3.0
 40
3.0
 40
3.0
 40
4.0
 40
4.0
 40
4.0
 40
5.0
 40
5.0
 40
5.0
 40
6.0
 40
6.0
 40
6.0
 40
7.0
 40
7.0
 40
7.0
 40
8.0
 40
8.0
 40
8.0
 40
8.0
 10
62.76119927300346
 20
189.4340874565971
 10
61.47273356119789
 20
189.4340874565971
 10
60.50121663411457
 20
188.2397417534719
 10
59.84733751085068
 20
185.8516704644094
 10
59.3395304361979
 20
183.9900786675344
 10
59.08597140842012
 20
181.7514556206596
 10
59.08597140842012
 20
179.1351812065971
 10
59.08597140842012
 20
176.2379937065971
 10
59.3836276584201
 20
173.8412407769094
 10
59.9789401584201
 20
171.9449224175346
 10
60.6424655490451
 20
169.9779106987846
 10
61.5602389865451
 20
168.9950249565971
 10
62.7315714518229
 20
168.9950249565971
 10
63.9904093424479
 20
168.9950249565971
 10
64.95641411675345
 20
170.1186773003469
 10
65.63027479383679
 20
172.3659819878471
 10
66.20629475911457
 20
174.2796636284719
 10
66.49430474175345
 20
176.6813774956592
 10
66.49430474175345
 20
179.5698833550344
 10
66.49430474175345
 20
182.2388677300342
 10
66.24005669487845
 20
184.4291216362844
 10
65.73293863932289
 20
186.1412651909719
 10
65.08870578342011
 20
188.3364800347219
 10
64.09789632161457
 20
189.4340874565971
 10
62.76119927300346
 20
189.4340874565971
 97
        0
 75
     0
 76
     1
 98
        0
  0
HATCH
  5
449
330
42C
100
AcDbEntity
  8
0
  6
Continuous
100
AcDbHatch
 10
0.0
 20
0.0
 30
0.0
210
0.0
220
0.0
230
1.0
  2
SOLID
 70
     1
 71
     1
 91
        1
 92
        1
 93
        1
 72
     4
 94
        3
 73
     0
 74
     0
 95
       59
 96
       55
 40
0.0
 40
0.0
 40
0.0
 40
0.0
 40
1.0
 40
1.0
 40
1.0
 40
2.0
 40
2.0
 40
2.0
 40
3.0
 40
3.0
 40
3.0
 40
4.0
 40
4.0
 40
4.0
 40
5.0
 40
5.0
 40
5.0
 40
6.0
 40
6.0
 40
6.0
 40
7.0
 40
7.0
 40
7.0
 40
8.0
 40
8.0
 40
8.0
 40
9.0
 40
9.0
 40
9.0
 40
10.0
 40
10.0
 40
10.0
 40
11.0
 40
11.0
 40
11.0
 40
12.0
 40
12.0
 40
12.0
 40
13.0
 40
13.0
 40
13.0
 40
14.0
 40
14.0
 40
14.0
 40
15.0
 40
15.0
 40
15.0
 40
16.0
 40
16.0
 40
16.0
 40
17.0
 40
17.0
 40
17.0
 40
18.0
 40
18.0
 40
18.0
 40
18.0
 10
49.39440104166666
 20
189.0932159288193
 10
49.39440104166666
 20
189.0932159288193
 10
51.24786241319444
 20
189.0932159288193
 10
51.24786241319444
 20
189.0932159288193
 10
51.24786241319444
 20
189.0932159288193
 10
54.04665798611111
 20
172.3887471788193
 10
54.04665798611111
 20
172.3887471788193
 10
54.04665798611111
 20
172.3887471788193
 10
56.83994140624999
 20
189.0932159288193
 10
56.83994140624999
 20
189.0932159288193
 10
56.83994140624999
 20
189.0932159288193
 10
58.69891493055553
 20
189.0932159288193
 10
58.69891493055553
 20
189.0932159288193
 10
58.69891493055553
 20
189.0932159288193
 10
58.69891493055553
 20
169.3358964843748
 10
58.69891493055553
 20
169.3358964843748
 10
58.69891493055553
 20
169.3358964843748
 10
57.46419270833333
 20
169.3358964843748
 10
57.46419270833333
 20
169.3358964843748
 10
57.46419270833333
 20
169.3358964843748
 10
57.46419270833333
 20
180.9964422743054
 10
57.46419270833333
 20
180.9964422743054
 10
57.46419270833333
 20
181.3996011284721
 10
57.47108289930555
 20
182.0677291666664
 10
57.48624131944444
 20
183.0001924913193
 10
57.50071072048609
 20
183.9326558159721
 10
57.50828993055553
 20
184.932312282986
 10
57.50828993055553
 20
185.9997957899304
 10
57.50828993055553
 20
185.9997957899304
 10
54.700537109375
 20
169.3358964843748
 10
54.700537109375
 20
169.3358964843748
 10
54.700537109375
 20
169.3358964843748
 10
53.38382161458333
 20
169.3358964843748
 10
53.38382161458333
 20
169.3358964843748
 10
53.38382161458333
 20
169.3358964843748
 10
50.58502604166665
 20
185.9997957899304
 10
50.58502604166665
 20
185.9997957899304
 10
50.58502604166665
 20
185.9997957899304
 10
50.58502604166665
 20
185.3944236111109
 10
50.58502604166665
 20
185.3944236111109
 10
50.58502604166665
 20
184.9101258680554
 10
50.59191623263888
 20
184.1729029947915
 10
50.60707465277777
 20
183.1821210937498
 10
50.62154405381942
 20
182.1913391927082
 10
50.62912326388889
 20
181.4629908854165
 10
50.62912326388889
 20
180.9964422743054
 10
50.62912326388889
 20
180.9964422743054
 10
50.62912326388889
 20
169.3358964843748
 10
50.62912326388889
 20
169.3358964843748
 10
50.62912326388889
 20
169.3358964843748
 10
49.39440104166666
 20
169.3358964843748
 10
49.39440104166666
 20
169.3358964843748
 10
49.39440104166666
 20
169.3358964843748
 10
49.39440104166666
 20
189.0932159288193
 10
49.39440104166666
 20
189.0932159288193
 97
        1
330
431
 75
     0
 76
     1
 98
        1
 10
0.0
 20
0.0
  0
HATCH
  5
44A
330
42C
100
AcDbEntity
  8
0
  6
Continuous
100
AcDbHatch
 10
0.0
 20
0.0
 30
0.0
210
0.0
220
0.0
230
1.0
  2
SOLID
 70
     1
 71
     1
 91
        2
 92
       16
 93
        1
 72
     4
 94
        3
 73
     0
 74
     0
 95
       32
 96
       28
 40
0.0
 40
0.0
 40
0.0
 40
0.0
 40
1.0
 40
1.0
 40
1.0
 40
2.0
 40
2.0
 40
2.0
 40
3.0
 40
3.0
 40
3.0
 40
4.0
 40
4.0
 40
4.0
 40
5.0
 40
5.0
 40
5.0
 40
6.0
 40
6.0
 40
6.0
 40
7.0
 40
7.0
 40
7.0
 40
8.0
 40
8.0
 40
8.0
 40
9.0
 40
9.0
 40
9.0
 40
9.0
 10
91.70051812065969
 20
171.6077853732634
 10
91.70051812065969
 20
171.6077853732634
 10
91.70051812065969
 20
186.7401881510414
 10
91.70051812065969
 20
186.7401881510414
 10
91.70051812065969
 20
186.7401881510414
 10
93.98668348524305
 20
186.7401881510414
 10
93.98668348524305
 20
186.7401881510414
 10
95.02159016927082
 20
186.7401881510414
 10
95.77331000434028
 20
186.0644533420137
 10
96.24322102864582
 20
184.7142515190969
 10
96.71313205295138
 20
183.3640496961804
 10
96.94808756510417
 20
181.4680620659721
 10
96.94808756510417
 20
179.0262886284719
 10
96.94808756510417
 20
178.3911232638887
 10
96.91432562934028
 20
177.7027105034721
 10
96.84749077690971
 20
176.9604164496524
 10
96.7324245876736
 20
175.7167094184024
 10
96.55052354600693
 20
174.6974021267359
 10
96.30109863281248
 20
173.901860677083
 10
95.98414984809028
 20
172.9091770833332
 10
95.57693956163193
 20
172.2378795572914
 10
95.07877875434026
 20
171.8892358940971
 10
94.79076877170138
 20
171.7016022135415
 10
94.43178982204859
 20
171.6077853732634
 10
94.00115288628471
 20
171.6077853732634
 10
94.00115288628471
 20
171.6077853732634
 10
91.70051812065969
 20
171.6077853732634
 10
91.70051812065969
 20
171.6077853732634
 97
        1
330
436
 92
        1
 93
        1
 72
     4
 94
        3
 73
     0
 74
     0
 95
       26
 96
       22
 40
0.0
 40
0.0
 40
0.0
 40
0.0
 40
1.0
 40
1.0
 40
1.0
 40
2.0
 40
2.0
 40
2.0
 40
3.0
 40
3.0
 40
3.0
 40
4.0
 40
4.0
 40
4.0
 40
5.0
 40
5.0
 40
5.0
 40
6.0
 40
6.0
 40
6.0
 40
7.0
 40
7.0
 40
7.0
 40
7.0
 10
90.37760145399305
 20
169.3358964843748
 10
90.37760145399305
 20
169.3358964843748
 10
94.22990722656248
 20
169.3358964843748
 10
94.22990722656248
 20
169.3358964843748
 10
95.87115071614581
 20
169.3358964843748
 10
97.03008083767359
 20
170.8331625434026
 10
97.70600857204859
 20
173.8283285590274
 10
98.08221299913194
 20
175.5227367621523
 10
98.27100423177082
 20
177.4187243923609
 10
98.27100423177082
 20
179.5169253472221
 10
98.27100423177082
 20
182.233810329861
 10
97.94716525607638
 20
184.4619602864582
 10
97.30086534288195
 20
186.2013752170135
 10
96.57601725260416
 20
188.129057725694
 10
95.5576470269097
 20
189.0932159288193
 10
94.24437662760416
 20
189.0932159288193
 10
94.24437662760416
 20
189.0932159288193
 10
90.37760145399305
 20
189.0932159288193
 10
90.37760145399305
 20
189.0932159288193
 10
90.37760145399305
 20
189.0932159288193
 10
90.37760145399305
 20
169.3358964843748
 10
90.37760145399305
 20
169.3358964843748
 97
        0
 75
     0
 76
     1
 98
        0
  0
HATCH
  5
44B
330
42C
100
AcDbEntity
  8
0
  6
Continuous
100
AcDbHatch
 10
0.0
 20
0.0
 30
0.0
210
0.0
220
0.0
230
1.0
  2
SOLID
 70
     1
 71
     1
 91
        2
 92
       16
 93
        1
 72
     4
 94
        3
 73
     0
 74
     0
 95
       26
 96
       22
 40
0.0
 40
0.0
 40
0.0
 40
0.0
 40
1.0
 40
1.0
 40
1.0
 40
2.0
 40
2.0
 40
2.0
 40
3.0
 40
3.0
 40
3.0
 40
4.0
 40
4.0
 40
4.0
 40
5.0
 40
5.0
 40
5.0
 40
6.0
 40
6.0
 40
6.0
 40
7.0
 40
7.0
 40
7.0
 40
7.0
 10
100.5623372395832
 20
180.046229817708
 10
100.5623372395832
 20
180.046229817708
 10
100.5623372395832
 20
186.7401881510414
 10
100.5623372395832
 20
186.7401881510414
 10
100.5623372395832
 20
186.7401881510414
 10
103.6732584635416
 20
186.7401881510414
 10
103.6732584635416
 20
186.7401881510414
 10
104.1107855902777
 20
186.7401881510414
 10
104.4580512152777
 20
186.6064357638887
 10
104.7150553385415
 20
186.3401987847217
 10
105.2097710503471
 20
185.8330807291664
 10
105.4571289062496
 20
184.8822343749995
 10
105.4571289062496
 20
183.4863919270832
 10
105.4571289062496
 20
182.188169704861
 10
105.280740017361
 20
181.2905707465276
 10
104.9286512586804
 20
180.7929611545137
 10
104.5765624999999
 20
180.2947176649304
 10
104.1011393229166
 20
180.046229817708
 10
103.5023817274304
 20
180.046229817708
 10
103.5023817274304
 20
180.046229817708
 10
100.5623372395832
 20
180.046229817708
 10
100.5623372395832
 20
180.046229817708
 97
        1
330
437
 92
        1
 93
        1
 72
     4
 94
        3
 73
     0
 74
     0
 95
       68
 96
       64
 40
0.0
 40
0.0
 40
0.0
 40
0.0
 40
1.0
 40
1.0
 40
1.0
 40
2.0
 40
2.0
 40
2.0
 40
3.0
 40
3.0
 40
3.0
 40
4.0
 40
4.0
 40
4.0
 40
5.0
 40
5.0
 40
5.0
 40
6.0
 40
6.0
 40
6.0
 40
7.0
 40
7.0
 40
7.0
 40
8.0
 40
8.0
 40
8.0
 40
9.0
 40
9.0
 40
9.0
 40
10.0
 40
10.0
 40
10.0
 40
11.0
 40
11.0
 40
11.0
 40
12.0
 40
12.0
 40
12.0
 40
13.0
 40
13.0
 40
13.0
 40
14.0
 40
14.0
 40
14.0
 40
15.0
 40
15.0
 40
15.0
 40
16.0
 40
16.0
 40
16.0
 40
17.0
 40
17.0
 40
17.0
 40
18.0
 40
18.0
 40
18.0
 40
19.0
 40
19.0
 40
19.0
 40
20.0
 40
20.0
 40
20.0
 40
21.0
 40
21.0
 40
21.0
 40
21.0
 10
99.23942057291661
 20
169.3358964843748
 10
99.23942057291661
 20
169.3358964843748
 10
100.5623372395832
 20
169.3358964843748
 10
100.5623372395832
 20
169.3358964843748
 10
100.5623372395832
 20
169.3358964843748
 10
100.5623372395832
 20
177.8149103732637
 10
100.5623372395832
 20
177.8149103732637
 10
100.5623372395832
 20
177.8149103732637
 10
103.4472601996527
 20
177.8149103732637
 10
103.4472601996527
 20
177.8149103732637
 10
103.9681586371527
 20
177.8149103732637
 10
104.3519422743053
 20
177.6938359374998
 10
104.5986111111109
 20
177.4516870659718
 10
105.0244249131943
 20
177.0117621527776
 10
105.2518012152777
 20
176.1458580729164
 10
105.280740017361
 20
174.8539748263887
 10
105.280740017361
 20
174.8539748263887
 10
105.3689344618053
 20
171.5564396701385
 10
105.3689344618053
 20
171.5564396701385
 10
105.3882269965277
 20
170.7843524305554
 10
105.4109646267359
 20
170.2639225260415
 10
105.4357693142359
 20
169.9951499565971
 10
105.4605740017358
 20
169.725743489583
 10
105.4970920138888
 20
169.5057810329859
 10
105.5467013888887
 20
169.3358964843748
 10
105.5467013888887
 20
169.3358964843748
 10
107.1769205729166
 20
169.3358964843748
 10
107.1769205729166
 20
169.3358964843748
 10
107.1769205729166
 20
169.3358964843748
 10
107.1769205729166
 20
169.7821603732634
 10
107.1769205729166
 20
169.7821603732634
 10
106.9750379774303
 20
169.9609194878471
 10
106.8337890624996
 20
170.3628105468748
 10
106.7538628472221
 20
170.9878335503471
 10
106.7028754340274
 20
171.3542263454858
 10
106.6677354600692
 20
171.9120562065971
 10
106.6477539062496
 20
172.6625909288193
 10
106.6477539062496
 20
172.6625909288193
 10
106.6036566840277
 20
175.3205234374999
 10
106.6036566840277
 20
175.3205234374999
 10
106.5836751302082
 20
176.4716814236109
 10
106.4768771701387
 20
177.3033550347219
 10
106.2839518229166
 20
177.814276475694
 10
106.0903374565971
 20
178.3251979166665
 10
105.8002604166666
 20
178.7372313368054
 10
105.4130316840276
 20
179.0516445312498
 10
105.8443576388885
 20
179.5086846788193
 10
106.179909939236
 20
180.1134229600693
 10
106.4196885850692
 20
180.866493272569
 10
106.6594672309027
 20
181.6189296874999
 10
106.7800455729166
 20
182.5868912760412
 10
106.7800455729166
 20
183.7697441406248
 10
106.7800455729166
 20
186.0371957465273
 10
106.3328721788193
 20
187.5921464843749
 10
105.4392144097221
 20
188.4345963541665
 10
104.9679253472221
 20
188.8732534722221
 10
104.3719238281249
 20
189.0932159288193
 10
103.6512098524303
 20
189.0932159288193
 10
103.6512098524303
 20
189.0932159288193
 10
99.23942057291661
 20
189.0932159288193
 10
99.23942057291661
 20
189.0932159288193
 10
99.23942057291661
 20
189.0932159288193
 10
99.23942057291661
 20
169.3358964843748
 10
99.23942057291661
 20
169.3358964843748
 97
        0
 75
     0
 76
     1
 98
        0
  0
HATCH
  5
44C
330
42C
100
AcDbEntity
  8
0
  6
Continuous
100
AcDbHatch
 10
0.0
 20
0.0
 30
0.0
210
0.0
220
0.0
230
1.0
  2
SOLID
 70
     1
 71
     1
 91
        2
 92
        1
 93
        8
 72
     1
 10
35.47828233506943
 20
189.0932159288193
 11
31.83957248263888
 21
169.3358964843748
 72
     1
 10
31.83957248263888
 20
169.3358964843748
 11
33.22450086805555
 21
169.3358964843748
 72
     1
 10
33.22450086805555
 20
169.3358964843748
 11
34.27043185763887
 21
175.2590353732638
 72
     1
 10
34.27043185763887
 20
175.2590353732638
 11
38.04694552951389
 21
175.2590353732638
 72
     1
 10
38.04694552951389
 20
175.2590353732638
 11
39.05015733506942
 21
169.3358964843748
 72
     1
 10
39.05015733506942
 20
169.3358964843748
 11
40.43508572048611
 21
169.3358964843748
 72
     1
 10
40.43508572048611
 20
169.3358964843748
 11
36.952783203125
 21
189.0932159288193
 72
     1
 10
36.952783203125
 20
189.0932159288193
 11
35.47828233506943
 21
189.0932159288193
 97
        8
330
447
330
440
330
441
330
442
330
443
330
444
330
445
330
446
 92
       16
 93
        3
 72
     1
 10
37.67556423611111
 20
177.4497853732638
 11
34.65766059027778
 21
177.4497853732638
 72
     1
 10
34.65766059027778
 20
177.4497853732638
 11
36.19830729166666
 21
186.1658769531249
 72
     1
 10
36.19830729166666
 20
186.1658769531249
 11
37.67556423611111
 21
177.4497853732638
 97
        3
330
43F
330
43D
330
43E
 75
     0
 76
     1
 98
        1
 10
0.0
 20
0.0
  0
HATCH
  5
44D
330
42C
100
AcDbEntity
  8
0
  6
Continuous
100
AcDbHatch
 10
0.0
 20
0.0
 30
0.0
210
0.0
220
0.0
230
1.0
  2
SOLID
 70
     1
 71
     1
 91
        1
 92
        1
 93
        1
 72
     4
 94
        3
 73
     0
 74
     0
 95
      113
 96
      109
 40
0.0
 40
0.0
 40
0.0
 40
0.0
 40
1.0
 40
1.0
 40
1.0
 40
2.0
 40
2.0
 40
2.0
 40
3.0
 40
3.0
 40
3.0
 40
4.0
 40
4.0
 40
4.0
 40
5.0
 40
5.0
 40
5.0
 40
6.0
 40
6.0
 40
6.0
 40
7.0
 40
7.0
 40
7.0
 40
8.0
 40
8.0
 40
8.0
 40
9.0
 40
9.0
 40
9.0
 40
10.0
 40
10.0
 40
10.0
 40
11.0
 40
11.0
 40
11.0
 40
12.0
 40
12.0
 40
12.0
 40
13.0
 40
13.0
 40
13.0
 40
14.0
 40
14.0
 40
14.0
 40
15.0
 40
15.0
 40
15.0
 40
16.0
 40
16.0
 40
16.0
 40
17.0
 40
17.0
 40
17.0
 40
18.0
 40
18.0
 40
18.0
 40
19.0
 40
19.0
 40
19.0
 40
20.0
 40
20.0
 40
20.0
 40
21.0
 40
21.0
 40
21.0
 40
22.0
 40
22.0
 40
22.0
 40
23.0
 40
23.0
 40
23.0
 40
24.0
 40
24.0
 40
24.0
 40
25.0
 40
25.0
 40
25.0
 40
26.0
 40
26.0
 40
26.0
 40
27.0
 40
27.0
 40
27.0
 40
28.0
 40
28.0
 40
28.0
 40
29.0
 40
29.0
 40
29.0
 40
30.0
 40
30.0
 40
30.0
 40
31.0
 40
31.0
 40
31.0
 40
32.0
 40
32.0
 40
32.0
 40
33.0
 40
33.0
 40
33.0
 40
34.0
 40
34.0
 40
34.0
 40
35.0
 40
35.0
 40
35.0
 40
36.0
 40
36.0
 40
36.0
 40
36.0
 10
193.3039632161458
 20
186.1548733181423
 10
193.3039632161458
 20
186.1860514322916
 10
193.3039632161458
 20
219.6932223849826
 10
193.3039632161458
 20
219.6932223849826
 10
193.3039632161458
 20
219.6932223849826
 10
193.2974175347219
 20
219.7488606770833
 10
193.2974175347219
 20
219.7488606770833
 10
191.5293945312499
 20
235.455740017361
 10
175.1458984374999
 20
235.2467949761284
 10
174.9808783637151
 20
235.2428331163193
 10
174.9808783637151
 20
235.2428331163193
 10
125.8827555338541
 20
235.2430053710937
 10
125.8827555338541
 20
235.2430053710937
 10
125.8827555338541
 20
235.2430053710937
 10
125.8827555338541
 20
255.5278998480901
 10
125.8827555338541
 20
255.5278998480901
 10
125.8827555338541
 20
255.5278998480901
 10
84.5626247829861
 20
255.5278998480901
 10
84.5626247829861
 20
255.5278998480901
 10
84.5626247829861
 20
255.5278998480901
 10
84.55711263020829
 20
233.7919311523436
 10
84.55711263020829
 20
233.7919311523436
 10
84.55711263020829
 20
233.7919311523436
 10
64.42052951388888
 20
233.7919311523436
 10
64.42052951388888
 20
233.7919311523436
 10
64.42052951388888
 20
233.7919311523436
 10
64.41501736111111
 20
255.5278998480901
 10
64.41501736111111
 20
255.5278998480901
 10
64.41501736111111
 20
255.5278998480901
 10
23.91757541232637
 20
255.5278998480901
 10
23.91757541232637
 20
255.5278998480901
 10
23.91757541232637
 20
255.5278998480901
 10
23.91757541232637
 20
233.2393378363715
 10
23.91757541232637
 20
233.2393378363715
 10
23.91757541232637
 20
233.2393378363715
 10
43.65624999999999
 20
233.2393378363715
 10
43.65624999999999
 20
233.2393378363715
 10
43.65624999999999
 20
233.2393378363715
 10
43.65624999999999
 20
211.5188720703125
 10
43.65624999999999
 20
211.5188720703125
 10
43.65624999999999
 20
211.5188720703125
 10
23.91757541232637
 20
211.5188720703125
 10
23.91757541232637
 20
211.5188720703125
 10
23.91757541232637
 20
211.5188720703125
 10
23.91757541232637
 20
189.2303100585936
 10
23.91757541232637
 20
189.2303100585936
 10
23.91757541232637
 20
189.2303100585936
 10
64.41501736111111
 20
189.2303100585936
 10
64.41501736111111
 20
189.2303100585936
 10
64.41501736111111
 20
189.2303100585936
 10
64.42052951388888
 20
211.069976128472
 10
64.42052951388888
 20
211.069976128472
 10
64.42052951388888
 20
211.069976128472
 10
84.55711263020829
 20
211.069976128472
 10
84.55711263020829
 20
211.069976128472
 10
84.55711263020829
 20
211.069976128472
 10
84.5626247829861
 20
189.2303100585936
 10
84.5626247829861
 20
189.2303100585936
 10
84.5626247829861
 20
189.2303100585936
 10
125.8827555338541
 20
189.2303100585936
 10
125.8827555338541
 20
189.2303100585936
 10
125.8827555338541
 20
189.2303100585936
 10
125.8827555338541
 20
211.5188720703125
 10
125.8827555338541
 20
211.5188720703125
 10
125.8827555338541
 20
211.5188720703125
 10
105.3213921440971
 20
211.5188720703125
 10
105.3213921440971
 20
211.5188720703125
 10
105.3213921440971
 20
211.5188720703125
 10
105.3213921440971
 20
233.2393378363715
 10
105.3213921440971
 20
233.2393378363715
 10
105.3213921440971
 20
233.2393378363715
 10
175.0046495225693
 20
233.243127441406
 10
175.0046495225693
 20
233.243127441406
 10
175.6268337673611
 20
233.2560465494791
 10
189.7165852864583
 20
233.3962619357638
 10
191.3037407769094
 20
219.5690266927083
 10
191.3037407769094
 20
219.4332899305555
 10
191.3037407769094
 20
186.1142211914062
 10
191.3037407769094
 20
186.1142211914062
 10
191.3037407769094
 20
186.1142211914062
 10
191.3051188151039
 20
186.0880384657115
 10
191.3051188151039
 20
186.0880384657115
 10
191.3054633246526
 20
186.0787367078991
 10
191.3109754774304
 20
185.9566080729166
 10
191.3109754774304
 20
185.7399115668401
 10
191.3109754774304
 20
184.2090833875865
 10
191.0488037109374
 20
177.9643310546874
 10
186.9866916232638
 20
173.5652886284722
 10
184.2540418836804
 20
170.6064683702255
 10
180.3224989149304
 20
169.0308539496526
 10
175.300927734375
 20
168.8825425889756
 10
175.300927734375
 20
168.8825425889756
 10
107.0094889322916
 20
168.8828870985243
 10
107.0094889322916
 20
168.8828870985243
 10
107.0094889322916
 20
168.8828870985243
 10
107.0094889322916
 20
166.8830091688368
 10
107.0094889322916
 20
166.8830091688368
 10
107.0094889322916
 20
166.8830091688368
 10
175.3305555555555
 20
166.8830091688368
 10
175.3305555555555
 20
166.8830091688368
 10
180.9467502170138
 20
167.0485460069444
 10
185.3571614583333
 20
168.8448187934026
 10
188.4687717013888
 20
172.2223904079861
 10
192.9649658203124
 20
177.1034016927083
 10
193.3136094835069
 20
183.7202243381076
 10
193.3136094835069
 20
185.6520616319443
 10
193.3136094835069
 20
185.9247409396701
 10
193.3070638020833
 20
186.0868326822916
 10
193.3039632161458
 20
186.1548733181423
 97
        1
330
42D
 75
     0
 76
     1
 98
        1
 10
0.0
 20
0.0
  0
HATCH
  5
44E
330
42C
100
AcDbEntity
  8
0
  6
Continuous
100
AcDbHatch
 10
0.0
 20
0.0
 30
0.0
210
0.0
220
0.0
230
1.0
  2
SOLID
 70
     1
 71
     1
 91
        2
 92
        1
 93
        1
 72
     4
 94
        3
 73
     0
 74
     0
 95
       23
 96
       19
 40
0.0
 40
0.0
 40
0.0
 40
0.0
 40
1.0
 40
1.0
 40
1.0
 40
2.0
 40
2.0
 40
2.0
 40
3.0
 40
3.0
 40
3.0
 40
4.0
 40
4.0
 40
4.0
 40
5.0
 40
5.0
 40
5.0
 40
6.0
 40
6.0
 40
6.0
 40
6.0
 10
148.6593153211804
 20
211.3929538302948
 10
148.6593153211804
 20
211.3929538302948
 10
148.6593153211804
 20
189.6308024088539
 10
148.6593153211804
 20
189.6308024088539
 10
148.6593153211804
 20
189.6308024088539
 10
161.3152180989583
 20
189.6308024088539
 10
161.3152180989583
 20
189.6308024088539
 10
162.8431179470483
 20
189.6308024088539
 10
170.4657362196178
 20
190.1880466037321
 10
170.4657362196178
 20
201.1911648220483
 10
170.4657362196178
 20
211.1288872612844
 10
162.3356553819444
 20
211.3914035373261
 10
162.2536621093749
 20
211.3927815755205
 10
162.2536621093749
 20
211.3927815755205
 10
149.6594265407986
 20
211.3929538302948
 10
149.6594265407986
 20
211.3929538302948
 10
149.6594265407986
 20
211.3929538302948
 10
148.6593153211804
 20
211.3929538302948
 10
148.6593153211804
 20
211.3929538302948
 97
        1
330
42E
 92
       16
 93
        1
 72
     4
 94
        3
 73
     0
 74
     0
 95
       20
 96
       16
 40
0.0
 40
0.0
 40
0.0
 40
0.0
 40
1.0
 40
1.0
 40
1.0
 40
2.0
 40
2.0
 40
2.0
 40
3.0
 40
3.0
 40
3.0
 40
4.0
 40
4.0
 40
4.0
 40
5.0
 40
5.0
 40
5.0
 40
5.0
 10
162.2354031032983
 20
209.3930759006072
 10
162.467947048611
 20
209.3861857096351
 10
168.4655137803819
 20
209.1283203124997
 10
168.4655137803819
 20
201.1911648220483
 10
168.4655137803819
 20
192.3202162000865
 10
162.9926350911458
 20
191.6306803385413
 10
161.3152180989583
 20
191.6306803385413
 10
161.3152180989583
 20
191.6306803385413
 10
152.3310980902776
 20
191.6306803385413
 10
150.6595377604166
 20
191.6306803385413
 10
150.6595377604166
 20
193.3373806423608
 10
150.6595377604166
 20
207.6863755967879
 10
150.6595377604166
 20
209.3930759006072
 10
152.3538357204859
 20
209.3930759006072
 10
162.2354031032983
 20
209.3930759006072
 10
162.2354031032983
 20
209.3930759006072
 97
        0
 75
     0
 76
     1
 98
        0
  0
ENDBLK
  5
450
330
42C
100
AcDbEntity
  8
0
100
AcDbBlockEnd
  0
BLOCK
  5
453
330
451
100
AcDbEntity
  8
0
100
AcDbBlockBegin
  2
HD logo-new
 70
     0
 10
0.0
 20
0.0
 30
0.0
  3
HD logo-new
  1

  0
INSERT
  5
452
330
451
100
AcDbEntity
  8
0
 62
     3
100
AcDbBlockReference
  2
HD_LLC_logo_OT5
 10
-27.1607188578505
 20
-68.37367811463031
 30
0.0
 41
0.2999999999999971
 42
0.3000000000000007
 43
0.3
  0
ENDBLK
  5
454
330
451
100
AcDbEntity
  8
0
100
AcDbBlockEnd
  0
BLOCK
  5
457
330
455
100
AcDbEntity
  8
0
100
AcDbBlockBegin
  2
HD Logo
 70
     0
 10
0.0
 20
0.0
 30
0.0
  3
HD Logo
  1

  0
INSERT
  5
456
330
455
100
AcDbEntity
  8
0
100
AcDbBlockReference
  2
HD logo-new
 10
0.9700256734946606
 20
7.273795608420527
 30
0.0
  0
ENDBLK
  5
458
330
455
100
AcDbEntity
  8
0
100
AcDbBlockEnd
  0
BLOCK
  5
46A
330
467
100
AcDbEntity
  8
0
100
AcDbBlockBegin
  2
Notice
 70
     0
 10
0.0
 20
0.0
 30
0.0
  3
Notice
  1

  0
LWPOLYLINE
  5
468
330
467
100
AcDbEntity
  8
0
100
AcDbPolyline
 90
        8
 70
     1
 43
0.0
 10
-22.76688241418626
 20
22.02524099198581
 10
91.45032196416309
 20
22.02524099198581
 42
-0.4142135623730951
 10
93.4503219641631
 20
20.02524099198581
 10
93.4503219641631
 20
-16.65735233494911
 42
-0.4142135623730951
 10
91.45032196416309
 20
-18.65735233494911
 10
-22.76688241418631
 20
-18.65735233494911
 42
-0.4142135623730951
 10
-24.76688241418631
 20
-16.65735233494911
 10
-24.76688241418628
 20
20.02524099198581
 42
-0.4142135623730951
  0
MTEXT
  5
469
330
467
100
AcDbEntity
  8
0
  6
Continuous
370
    30
100
AcDbMText
 10
-23.02803999797197
 20
20.91357196996034
 30
0.0
 40
3.5
 41
117.8173
 71
     1
 72
     5
  3
{\fArial|b1|i0|c0|p34;Notice:\P\fArial|b0|i0|c0|p34;\H0.5714x;All specifications and dimensions shown in the drawing are subject to change without notice. This drawing is the property of Harmonic Drive LLC.   This data is believed to be accurate, how
  1
ever, Harmonic Drive LLC assumes no liability for any errors or omissions in the specifications, models, or drawings.\P\PHarmonic Drive LLC\PTel: 800-921-3332\Pwww.harmonicdrive.net}
 73
     1
 44
1.0
  0
ENDBLK
  5
46B
330
467
100
AcDbEntity
  8
0
100
AcDbBlockEnd
  0
ENDSEC
  0
SECTION
  2
ENTITIES
  0
SOLID
  5
33
330
1E
100
AcDbEntity
  8
1
 62
     3
100
AcDbTrace
 10
-22.849674528368
 20
15.5
 30
0.0
 11
-25.1429559682271
 21
18.18387441846289
 31
0.0
 12
-25.759452112239
 22
17.4988787028942
 32
0.0
 13
-25.759452112239
 23
17.4988787028942
 33
0.0
  0
SOLID
  5
34
330
1E
100
AcDbEntity
  8
1
 62
     3
100
AcDbTrace
 10
-22.849674528368
 20
-15.5
 30
0.0
 11
-25.759452112239
 21
-17.4988787028942
 31
0.0
 12
-25.1429559682271
 22
-18.18387441846289
 32
0.0
 13
-25.1429559682271
 23
-18.18387441846289
 33
0.0
  0
LINE
  5
35
330
1E
100
AcDbEntity
  8
1
  6
CENTER
 62
     3
100
AcDbLine
 10
-80.99324631753466
 20
2.8125
 30
0.0
 11
-88.78276599026545
 21
7.309781279909119
 31
0.0
  0
LINE
  5
36
330
1E
100
AcDbEntity
  8
1
  6
CENTER
 62
     3
100
AcDbLine
 10
-106.4134565189452
 20
0.0
 30
0.0
 11
-45.7013969344555
 21
0.0
 31
0.0
  0
LINE
  5
37
330
1E
100
AcDbEntity
  8
1
  6
CENTER
 62
     3
100
AcDbLine
 10
67.9300711573718
 20
40.075
 30
0.0
 11
67.9300711573718
 21
-38.5435799906137
 31
0.0
  0
LINE
  5
38
330
1E
100
AcDbEntity
  8
1
  6
CENTER
 62
     3
100
AcDbLine
 10
27.234560686798
 20
0.0
 30
0.0
 11
108.9513008200239
 21
0.0
 31
0.0
  0
LINE
  5
39
330
1E
100
AcDbEntity
  8
0
 62
     7
100
AcDbLine
 10
7.35032547592619
 20
16.9479997454034
 30
0.0
 11
-9.699674267753259
 21
16.9479997454034
 31
0.0
  0
LINE
  5
3A
330
1E
100
AcDbEntity
  8
1
  6
CENTER
 62
     3
100
AcDbLine
 10
42.56261538205854
 20
25.36745577511998
 30
0.0
 11
47.33558615506967
 21
20.59448500211269
 31
0.0
  0
LINE
  5
3B
330
1E
100
AcDbEntity
  8
1
  6
CENTER
 62
     3
100
AcDbLine
 10
35.13234775315368
 20
13.58526184879792
 30
0.0
 11
40.6756249482328
 21
11.28916125463484
 31
0.0
  0
LINE
  5
3C
330
1E
100
AcDbEntity
  8
1
  6
CENTER
 62
     3
100
AcDbLine
 10
35.13234775328857
 20
-13.58526184912353
 30
0.0
 11
40.67562494834489
 21
-11.28916125490548
 31
0.0
  0
LINE
  5
3D
330
1E
100
AcDbEntity
  8
1
  6
CENTER
 62
     3
100
AcDbLine
 10
42.56261538207896
 20
-25.36745577501478
 30
0.0
 11
47.33558615508622
 21
-20.59448500200363
 31
0.0
  0
LINE
  5
3E
330
1E
100
AcDbEntity
  8
1
  6
CENTER
 62
     3
100
AcDbLine
 10
54.34480930857392
 20
-32.79772340421811
 30
0.0
 11
56.64090990273692
 21
-27.25444620913902
 31
0.0
  0
LINE
  5
3F
330
1E
100
AcDbEntity
  8
1
  6
CENTER
 62
     3
100
AcDbLine
 10
81.51533300649527
 20
-32.79772340408329
 30
0.0
 11
79.21923241227722
 21
-27.25444620902692
 31
0.0
  0
LINE
  5
40
330
1E
100
AcDbEntity
  8
1
  6
CENTER
 62
     3
100
AcDbLine
 10
93.29752693221378
 20
-25.36745577499437
 30
0.0
 11
88.52455615920263
 21
-20.5944850019871
 31
0.0
  0
LINE
  5
41
330
1E
100
AcDbEntity
  8
1
  6
CENTER
 62
     3
100
AcDbLine
 10
100.7277945615899
 20
-13.58526184879792
 30
0.0
 11
95.18451736651078
 21
-11.28916125463491
 31
0.0
  0
LINE
  5
42
330
1E
100
AcDbEntity
  8
1
  6
CENTER
 62
     3
100
AcDbLine
 10
100.7277945614549
 20
13.58526184912353
 30
0.0
 11
95.18451736639873
 21
11.28916125490541
 31
0.0
  0
LINE
  5
43
330
1E
100
AcDbEntity
  8
1
  6
CENTER
 62
     3
100
AcDbLine
 10
93.29752693219331
 20
25.36745577514046
 30
0.0
 11
88.52455615918604
 21
20.59448500212932
 31
0.0
  0
LINE
  5
44
330
1E
100
AcDbEntity
  8
1
  6
CENTER
 62
     3
100
AcDbLine
 10
54.3448093082483
 20
32.79772340408317
 30
0.0
 11
56.64090990246638
 21
27.25444620902692
 31
0.0
  0
LINE
  5
45
330
1E
100
AcDbEntity
  8
1
  6
CENTER
 62
     3
100
AcDbLine
 10
81.51533300616966
 20
32.79772340421811
 30
0.0
 11
79.21923241200666
 21
27.2544462091389
 31
0.0
  0
LINE
  5
46
330
1E
100
AcDbEntity
  8
1
  6
CENTER
 62
     3
100
AcDbLine
 10
10.15032547163202
 20
7.799999882858997
 30
0.0
 11
10.15032547163202
 21
-2.400000000000009
 31
0.0
  0
LINE
  5
47
330
1E
100
AcDbEntity
  8
1
 62
     3
100
AcDbLine
 10
-22.849674528368
 20
15.5
 30
0.0
 11
-25.1429559682271
 21
18.18387441846289
 31
0.0
  0
LINE
  5
48
330
1E
100
AcDbEntity
  8
1
 62
     3
100
AcDbLine
 10
-25.759452112239
 20
17.4988787028942
 30
0.0
 11
-22.849674528368
 21
15.5
 31
0.0
  0
LINE
  5
49
330
1E
100
AcDbEntity
  8
1
 62
     3
100
AcDbLine
 10
-25.1429559682271
 20
18.18387441846289
 30
0.0
 11
-25.759452112239
 21
17.4988787028942
 31
0.0
  0
LINE
  5
4A
330
1E
100
AcDbEntity
  8
1
 62
     3
100
AcDbLine
 10
-22.849674528368
 20
-15.5
 30
0.0
 11
-25.759452112239
 21
-17.4988787028942
 31
0.0
  0
LINE
  5
4B
330
1E
100
AcDbEntity
  8
1
 62
     3
100
AcDbLine
 10
-25.1429559682271
 20
-18.18387441846289
 30
0.0
 11
-22.849674528368
 21
-15.5
 31
0.0
  0
LINE
  5
4C
330
1E
100
AcDbEntity
  8
1
 62
     3
100
AcDbLine
 10
-25.759452112239
 20
-17.4988787028942
 30
0.0
 11
-25.1429559682271
 21
-18.18387441846289
 31
0.0
  0
LINE
  5
4D
330
1E
100
AcDbEntity
  8
1
 62
     3
100
AcDbLine
 10
-27.849674528368
 20
20.0
 30
0.0
 11
-22.849674528368
 21
15.5
 31
0.0
  0
LINE
  5
4E
330
1E
100
AcDbEntity
  8
1
 62
     3
100
AcDbLine
 10
-27.849674528368
 20
-20.0
 30
0.0
 11
-22.849674528368
 21
-15.5
 31
0.0
  0
LINE
  5
4F
330
1E
100
AcDbEntity
  8
1
 62
     3
100
AcDbLine
 10
-75.97185342124721
 20
-7.5
 30
0.0
 11
-76.12185342124721
 21
-7.5
 31
0.0
  0
LINE
  5
54
330
1E
100
AcDbEntity
  8
1
 62
     7
100
AcDbLine
 10
-26.64967452836798
 20
-21.75
 30
0.0
 11
-26.64967452836798
 21
-27.25
 31
0.0
  0
LINE
  5
55
330
1E
100
AcDbEntity
  8
1
 62
     7
100
AcDbLine
 10
-14.249674528368
 20
-26.0
 30
0.0
 11
-14.249674528368
 21
-23.0
 31
0.0
  0
LINE
  5
56
330
1E
100
AcDbEntity
  8
1
 62
     7
100
AcDbLine
 10
-22.849674528368
 20
-23.0
 30
0.0
 11
-22.849674528368
 21
-26.0
 31
0.0
  0
LINE
  5
57
330
1E
100
AcDbEntity
  8
1
 62
     7
100
AcDbLine
 10
-14.249674528368
 20
-23.0
 30
0.0
 11
-23.749674528368
 21
-23.0
 31
0.0
  0
LINE
  5
58
330
1E
100
AcDbEntity
  8
1
 62
     7
100
AcDbLine
 10
-13.849674528368
 20
-23.39999999999999
 30
0.0
 11
-14.249674528368
 21
-23.0
 31
0.0
  0
LINE
  5
59
330
1E
100
AcDbEntity
  8
1
 62
     7
100
AcDbLine
 10
-13.849674528368
 20
-25.6
 30
0.0
 11
-13.849674528368
 21
-23.39999999999999
 31
0.0
  0
LINE
  5
5A
330
1E
100
AcDbEntity
  8
1
 62
     7
100
AcDbLine
 10
-14.249674528368
 20
-26.0
 30
0.0
 11
-13.849674528368
 21
-25.6
 31
0.0
  0
LINE
  5
5B
330
1E
100
AcDbEntity
  8
1
 62
     7
100
AcDbLine
 10
-23.749674528368
 20
-26.0
 30
0.0
 11
-14.249674528368
 21
-26.0
 31
0.0
  0
LINE
  5
5C
330
1E
100
AcDbEntity
  8
1
 62
     7
100
AcDbLine
 10
-26.64967452836798
 20
-27.25
 30
0.0
 11
-23.849674528368
 21
-27.25
 31
0.0
  0
LINE
  5
5D
330
1E
100
AcDbEntity
  8
1
 62
     7
100
AcDbLine
 10
-26.849674528368
 20
-27.05
 30
0.0
 11
-26.64967452836798
 21
-27.25
 31
0.0
  0
LINE
  5
5E
330
1E
100
AcDbEntity
  8
1
 62
     7
100
AcDbLine
 10
-26.849674528368
 20
-21.94999999999999
 30
0.0
 11
-26.849674528368
 21
-27.05
 31
0.0
  0
LINE
  5
5F
330
1E
100
AcDbEntity
  8
1
 62
     7
100
AcDbLine
 10
-26.64967452836798
 20
-21.75
 30
0.0
 11
-26.849674528368
 21
-21.94999999999999
 31
0.0
  0
LINE
  5
60
330
1E
100
AcDbEntity
  8
1
 62
     7
100
AcDbLine
 10
-23.849674528368
 20
-21.75
 30
0.0
 11
-26.64967452836798
 21
-21.75
 31
0.0
  0
LINE
  5
61
330
1E
100
AcDbEntity
  8
1
 62
     7
100
AcDbLine
 10
-23.849674528368
 20
-27.25
 30
0.0
 11
-23.849674528368
 21
-21.75
 31
0.0
  0
LINE
  5
62
330
1E
100
AcDbEntity
  8
1
 62
     3
100
AcDbLine
 10
-22.849674528368
 20
-25.6
 30
0.0
 11
-23.5424948513955
 21
-26.0
 31
0.0
  0
LINE
  5
63
330
1E
100
AcDbEntity
  8
1
 62
     3
100
AcDbLine
 10
-22.849674528368
 20
-23.39999999999999
 30
0.0
 11
-23.5424948513955
 21
-23.0
 31
0.0
  0
LINE
  5
64
330
1E
100
AcDbEntity
  8
1
 62
     3
100
AcDbLine
 10
-22.849674528368
 20
-25.6
 30
0.0
 11
-13.849674528368
 21
-25.6
 31
0.0
  0
LINE
  5
65
330
1E
100
AcDbEntity
  8
1
 62
     3
100
AcDbLine
 10
-22.849674528368
 20
-23.39999999999999
 30
0.0
 11
-13.849674528368
 21
-23.39999999999999
 31
0.0
  0
LINE
  5
66
330
1E
100
AcDbEntity
  8
1
 62
     7
100
AcDbLine
 10
-76.8435412577342
 20
23.25
 30
0.0
 11
-75.40016558476009
 21
23.25
 31
0.0
  0
LINE
  5
67
330
1E
100
AcDbEntity
  8
1
 62
     7
100
AcDbLine
 10
-77.5652290942212
 20
24.5
 30
0.0
 11
-76.8435412577342
 21
23.25
 31
0.0
  0
LINE
  5
68
330
1E
100
AcDbEntity
  8
1
 62
     7
100
AcDbLine
 10
-76.8435412577342
 20
25.75
 30
0.0
 11
-77.5652290942212
 21
24.5
 31
0.0
  0
LINE
  5
69
330
1E
100
AcDbEntity
  8
1
 62
     7
100
AcDbLine
 10
-75.40016558476009
 20
25.75
 30
0.0
 11
-76.8435412577342
 21
25.75
 31
0.0
  0
LINE
  5
6A
330
1E
100
AcDbEntity
  8
1
 62
     7
100
AcDbLine
 10
-74.67847774827309
 20
24.5
 30
0.0
 11
-75.40016558476009
 21
25.75
 31
0.0
  0
LINE
  5
6B
330
1E
100
AcDbEntity
  8
1
 62
     7
100
AcDbLine
 10
-75.40016558476009
 20
23.25
 30
0.0
 11
-74.67847774827309
 21
24.5
 31
0.0
  0
LINE
  5
6C
330
1E
100
AcDbEntity
  8
1
 62
     7
100
AcDbLine
 10
-94.1676573968046
 20
16.07411613907049
 30
0.0
 11
-92.72428172383058
 21
16.07411613907049
 31
0.0
  0
LINE
  5
6D
330
1E
100
AcDbEntity
  8
1
 62
     7
100
AcDbLine
 10
-94.88934523329172
 20
17.32411613907049
 30
0.0
 11
-94.1676573968046
 21
16.07411613907049
 31
0.0
  0
LINE
  5
6E
330
1E
100
AcDbEntity
  8
1
 62
     7
100
AcDbLine
 10
-94.1676573968046
 20
18.57411613907049
 30
0.0
 11
-94.88934523329172
 21
17.32411613907049
 31
0.0
  0
LINE
  5
6F
330
1E
100
AcDbEntity
  8
1
 62
     7
100
AcDbLine
 10
-92.72428172383058
 20
18.57411613907049
 30
0.0
 11
-94.1676573968046
 21
18.57411613907049
 31
0.0
  0
LINE
  5
70
330
1E
100
AcDbEntity
  8
1
 62
     7
100
AcDbLine
 10
-92.00259388734348
 20
17.32411613907049
 30
0.0
 11
-92.72428172383058
 21
18.57411613907049
 31
0.0
  0
LINE
  5
71
330
1E
100
AcDbEntity
  8
1
 62
     7
100
AcDbLine
 10
-92.72428172383058
 20
16.07411613907049
 30
0.0
 11
-92.00259388734348
 21
17.32411613907049
 31
0.0
  0
LINE
  5
72
330
1E
100
AcDbEntity
  8
1
 62
     7
100
AcDbLine
 10
-101.3435412577339
 20
-1.25
 30
0.0
 11
-99.90016558476007
 21
-1.25
 31
0.0
  0
LINE
  5
73
330
1E
100
AcDbEntity
  8
1
 62
     7
100
AcDbLine
 10
-102.0652290942209
 20
0.0
 30
0.0
 11
-101.3435412577339
 21
-1.25
 31
0.0
  0
LINE
  5
74
330
1E
100
AcDbEntity
  8
1
 62
     7
100
AcDbLine
 10
-101.3435412577339
 20
1.25
 30
0.0
 11
-102.0652290942209
 21
0.0
 31
0.0
  0
LINE
  5
75
330
1E
100
AcDbEntity
  8
1
 62
     7
100
AcDbLine
 10
-99.90016558476007
 20
1.25
 30
0.0
 11
-101.3435412577339
 21
1.25
 31
0.0
  0
LINE
  5
76
330
1E
100
AcDbEntity
  8
1
 62
     7
100
AcDbLine
 10
-99.17847774827308
 20
0.0
 30
0.0
 11
-99.90016558476007
 21
1.25
 31
0.0
  0
LINE
  5
77
330
1E
100
AcDbEntity
  8
1
 62
     7
100
AcDbLine
 10
-99.90016558476007
 20
-1.25
 30
0.0
 11
-99.17847774827308
 21
0.0
 31
0.0
  0
LINE
  5
78
330
1E
100
AcDbEntity
  8
1
 62
     7
100
AcDbLine
 10
-94.1676573968046
 20
-18.57411613907039
 30
0.0
 11
-92.72428172383058
 21
-18.57411613907039
 31
0.0
  0
LINE
  5
79
330
1E
100
AcDbEntity
  8
1
 62
     7
100
AcDbLine
 10
-94.88934523329172
 20
-17.3241161390704
 30
0.0
 11
-94.1676573968046
 21
-18.57411613907039
 31
0.0
  0
LINE
  5
7A
330
1E
100
AcDbEntity
  8
1
 62
     7
100
AcDbLine
 10
-94.1676573968046
 20
-16.0741161390704
 30
0.0
 11
-94.88934523329172
 21
-17.3241161390704
 31
0.0
  0
LINE
  5
7B
330
1E
100
AcDbEntity
  8
1
 62
     7
100
AcDbLine
 10
-92.72428172383058
 20
-16.0741161390704
 30
0.0
 11
-94.1676573968046
 21
-16.0741161390704
 31
0.0
  0
LINE
  5
7C
330
1E
100
AcDbEntity
  8
1
 62
     7
100
AcDbLine
 10
-92.00259388734348
 20
-17.3241161390704
 30
0.0
 11
-92.72428172383058
 21
-16.0741161390704
 31
0.0
  0
LINE
  5
7D
330
1E
100
AcDbEntity
  8
1
 62
     7
100
AcDbLine
 10
-92.72428172383058
 20
-18.57411613907039
 30
0.0
 11
-92.00259388734348
 21
-17.3241161390704
 31
0.0
  0
LINE
  5
7E
330
1E
100
AcDbEntity
  8
1
 62
     7
100
AcDbLine
 10
-76.8435412577342
 20
-25.75
 30
0.0
 11
-75.40016558476009
 21
-25.75
 31
0.0
  0
LINE
  5
7F
330
1E
100
AcDbEntity
  8
1
 62
     7
100
AcDbLine
 10
-77.5652290942212
 20
-24.5
 30
0.0
 11
-76.8435412577342
 21
-25.75
 31
0.0
  0
LINE
  5
80
330
1E
100
AcDbEntity
  8
1
 62
     7
100
AcDbLine
 10
-76.8435412577342
 20
-23.25
 30
0.0
 11
-77.5652290942212
 21
-24.5
 31
0.0
  0
LINE
  5
81
330
1E
100
AcDbEntity
  8
1
 62
     7
100
AcDbLine
 10
-75.40016558476009
 20
-23.25
 30
0.0
 11
-76.8435412577342
 21
-23.25
 31
0.0
  0
LINE
  5
82
330
1E
100
AcDbEntity
  8
1
 62
     7
100
AcDbLine
 10
-74.67847774827309
 20
-24.5
 30
0.0
 11
-75.40016558476009
 21
-23.25
 31
0.0
  0
LINE
  5
83
330
1E
100
AcDbEntity
  8
1
 62
     7
100
AcDbLine
 10
-75.40016558476009
 20
-25.75
 30
0.0
 11
-74.67847774827309
 21
-24.5
 31
0.0
  0
LINE
  5
84
330
1E
100
AcDbEntity
  8
1
 62
     7
100
AcDbLine
 10
-59.5194251186638
 20
-18.57411613907039
 30
0.0
 11
-58.07604944568971
 21
-18.57411613907039
 31
0.0
  0
LINE
  5
85
330
1E
100
AcDbEntity
  8
1
 62
     7
100
AcDbLine
 10
-60.2411129551508
 20
-17.3241161390704
 30
0.0
 11
-59.5194251186638
 21
-18.57411613907039
 31
0.0
  0
LINE
  5
86
330
1E
100
AcDbEntity
  8
1
 62
     7
100
AcDbLine
 10
-59.5194251186638
 20
-16.0741161390704
 30
0.0
 11
-60.2411129551508
 21
-17.3241161390704
 31
0.0
  0
LINE
  5
87
330
1E
100
AcDbEntity
  8
1
 62
     7
100
AcDbLine
 10
-58.07604944568971
 20
-16.0741161390704
 30
0.0
 11
-59.5194251186638
 21
-16.0741161390704
 31
0.0
  0
LINE
  5
88
330
1E
100
AcDbEntity
  8
1
 62
     7
100
AcDbLine
 10
-57.35436160920269
 20
-17.3241161390704
 30
0.0
 11
-58.07604944568971
 21
-16.0741161390704
 31
0.0
  0
LINE
  5
89
330
1E
100
AcDbEntity
  8
1
 62
     7
100
AcDbLine
 10
-58.07604944568971
 20
-18.57411613907039
 30
0.0
 11
-57.35436160920269
 21
-17.3241161390704
 31
0.0
  0
LINE
  5
8A
330
1E
100
AcDbEntity
  8
1
 62
     7
100
AcDbLine
 10
-52.3435412577342
 20
-1.25
 30
0.0
 11
-50.9001655847601
 21
-1.25
 31
0.0
  0
LINE
  5
8B
330
1E
100
AcDbEntity
  8
1
 62
     7
100
AcDbLine
 10
-53.0652290942212
 20
0.0
 30
0.0
 11
-52.3435412577342
 21
-1.25
 31
0.0
  0
LINE
  5
8C
330
1E
100
AcDbEntity
  8
1
 62
     7
100
AcDbLine
 10
-52.3435412577342
 20
1.25
 30
0.0
 11
-53.0652290942212
 21
0.0
 31
0.0
  0
LINE
  5
8D
330
1E
100
AcDbEntity
  8
1
 62
     7
100
AcDbLine
 10
-50.9001655847601
 20
1.25
 30
0.0
 11
-52.3435412577342
 21
1.25
 31
0.0
  0
LINE
  5
8E
330
1E
100
AcDbEntity
  8
1
 62
     7
100
AcDbLine
 10
-50.1784777482731
 20
0.0
 30
0.0
 11
-50.9001655847601
 21
1.25
 31
0.0
  0
LINE
  5
8F
330
1E
100
AcDbEntity
  8
1
 62
     7
100
AcDbLine
 10
-50.9001655847601
 20
-1.25
 30
0.0
 11
-50.1784777482731
 21
0.0
 31
0.0
  0
LINE
  5
90
330
1E
100
AcDbEntity
  8
1
 62
     7
100
AcDbLine
 10
-59.5194251186638
 20
16.0741161390704
 30
0.0
 11
-58.07604944568971
 21
16.0741161390704
 31
0.0
  0
LINE
  5
91
330
1E
100
AcDbEntity
  8
1
 62
     7
100
AcDbLine
 10
-60.2411129551508
 20
17.3241161390704
 30
0.0
 11
-59.5194251186638
 21
16.0741161390704
 31
0.0
  0
LINE
  5
92
330
1E
100
AcDbEntity
  8
1
 62
     7
100
AcDbLine
 10
-59.5194251186638
 20
18.57411613907039
 30
0.0
 11
-60.2411129551508
 21
17.3241161390704
 31
0.0
  0
LINE
  5
93
330
1E
100
AcDbEntity
  8
1
 62
     7
100
AcDbLine
 10
-58.07604944568971
 20
18.57411613907039
 30
0.0
 11
-59.5194251186638
 21
18.57411613907039
 31
0.0
  0
LINE
  5
94
330
1E
100
AcDbEntity
  8
1
 62
     7
100
AcDbLine
 10
-57.35436160920269
 20
17.3241161390704
 30
0.0
 11
-58.07604944568971
 21
18.57411613907039
 31
0.0
  0
LINE
  5
95
330
1E
100
AcDbEntity
  8
1
 62
     7
100
AcDbLine
 10
-58.07604944568971
 20
16.0741161390704
 30
0.0
 11
-57.35436160920269
 21
17.3241161390704
 31
0.0
  0
LINE
  5
96
330
1E
100
AcDbEntity
  8
1
 62
     7
100
AcDbLine
 10
-85.68599584472829
 20
21.20402115252439
 30
0.0
 11
-84.35249060274278
 21
21.75637710925039
 31
0.0
  0
LINE
  5
97
330
1E
100
AcDbEntity
  8
1
 62
     7
100
AcDbLine
 10
-86.83110275617741
 20
22.0826925898005
 30
0.0
 11
-85.68599584472829
 21
21.20402115252439
 31
0.0
  0
LINE
  5
98
330
1E
100
AcDbEntity
  8
1
 62
     7
100
AcDbLine
 10
-86.64270442564102
 20
23.5137199838026
 30
0.0
 11
-86.83110275617741
 21
22.0826925898005
 31
0.0
  0
LINE
  5
99
330
1E
100
AcDbEntity
  8
1
 62
     7
100
AcDbLine
 10
-85.30919918365546
 20
24.0660759405286
 30
0.0
 11
-86.64270442564102
 21
23.5137199838026
 31
0.0
  0
LINE
  5
9A
330
1E
100
AcDbEntity
  8
1
 62
     7
100
AcDbLine
 10
-84.1640922722065
 20
23.1874045032525
 30
0.0
 11
-85.30919918365546
 21
24.0660759405286
 31
0.0
  0
LINE
  5
9B
330
1E
100
AcDbEntity
  8
1
 62
     7
100
AcDbLine
 10
-84.35249060274278
 20
21.75637710925039
 30
0.0
 11
-84.1640922722065
 21
23.1874045032525
 31
0.0
  0
LINE
  5
9C
330
1E
100
AcDbEntity
  8
1
 62
     7
100
AcDbLine
 10
-98.9453002983101
 20
-10.8067714869468
 30
0.0
 11
-97.6117950563246
 21
-10.2544155302208
 31
0.0
  0
LINE
  5
9D
330
1E
100
AcDbEntity
  8
1
 62
     7
100
AcDbLine
 10
-100.090407209759
 20
-9.928100049670687
 30
0.0
 11
-98.9453002983101
 21
-10.8067714869468
 31
0.0
  0
LINE
  5
9E
330
1E
100
AcDbEntity
  8
1
 62
     7
100
AcDbLine
 10
-99.90200887922272
 20
-8.49707265566859
 30
0.0
 11
-100.090407209759
 21
-9.928100049670687
 31
0.0
  0
LINE
  5
9F
330
1E
100
AcDbEntity
  8
1
 62
     7
100
AcDbLine
 10
-98.56850363723742
 20
-7.944716698942597
 30
0.0
 11
-99.90200887922272
 21
-8.49707265566859
 31
0.0
  0
LINE
  5
A0
330
1E
100
AcDbEntity
  8
1
 62
     7
100
AcDbLine
 10
-97.42339672578829
 20
-8.82338813621871
 30
0.0
 11
-98.56850363723742
 21
-7.944716698942597
 31
0.0
  0
LINE
  5
A1
330
1E
100
AcDbEntity
  8
1
 62
     7
100
AcDbLine
 10
-97.6117950563246
 20
-10.2544155302208
 30
0.0
 11
-97.42339672578829
 21
-8.82338813621871
 31
0.0
  0
LINE
  5
A2
330
1E
100
AcDbEntity
  8
1
 62
     7
100
AcDbLine
 10
-66.9345076588388
 20
-24.0660759405286
 30
0.0
 11
-65.6010024168534
 21
-23.5137199838026
 31
0.0
  0
LINE
  5
A3
330
1E
100
AcDbEntity
  8
1
 62
     7
100
AcDbLine
 10
-68.0796145702879
 20
-23.1874045032525
 30
0.0
 11
-66.9345076588388
 21
-24.0660759405286
 31
0.0
  0
LINE
  5
A4
330
1E
100
AcDbEntity
  8
1
 62
     7
100
AcDbLine
 10
-67.8912162397516
 20
-21.75637710925039
 30
0.0
 11
-68.0796145702879
 21
-23.1874045032525
 31
0.0
  0
LINE
  5
A5
330
1E
100
AcDbEntity
  8
1
 62
     7
100
AcDbLine
 10
-66.55771099776609
 20
-21.20402115252439
 30
0.0
 11
-67.8912162397516
 21
-21.75637710925039
 31
0.0
  0
LINE
  5
A6
330
1E
100
AcDbEntity
  8
1
 62
     7
100
AcDbLine
 10
-65.41260408631699
 20
-22.0826925898005
 30
0.0
 11
-66.55771099776609
 21
-21.20402115252439
 31
0.0
  0
LINE
  5
A7
330
1E
100
AcDbEntity
  8
1
 62
     7
100
AcDbLine
 10
-65.6010024168534
 20
-23.5137199838026
 30
0.0
 11
-65.41260408631699
 21
-22.0826925898005
 31
0.0
  0
LINE
  5
A8
330
1E
100
AcDbEntity
  8
1
 62
     7
100
AcDbLine
 10
-53.675203205257
 20
7.944716698942597
 30
0.0
 11
-52.3416979632716
 21
8.49707265566859
 31
0.0
  0
LINE
  5
A9
330
1E
100
AcDbEntity
  8
1
 62
     7
100
AcDbLine
 10
-54.8203101167061
 20
8.823388136218717
 30
0.0
 11
-53.675203205257
 21
7.944716698942597
 31
0.0
  0
LINE
  5
AA
330
1E
100
AcDbEntity
  8
1
 62
     7
100
AcDbLine
 10
-54.6319117861697
 20
10.2544155302208
 30
0.0
 11
-54.8203101167061
 21
8.823388136218717
 31
0.0
  0
LINE
  5
AB
330
1E
100
AcDbEntity
  8
1
 62
     7
100
AcDbLine
 10
-53.29840654418429
 20
10.8067714869468
 30
0.0
 11
-54.6319117861697
 21
10.2544155302208
 31
0.0
  0
LINE
  5
AC
330
1E
100
AcDbEntity
  8
1
 62
     7
100
AcDbLine
 10
-52.15329963273521
 20
9.928100049670687
 30
0.0
 11
-53.29840654418429
 21
10.8067714869468
 31
0.0
  0
LINE
  5
AD
330
1E
100
AcDbEntity
  8
1
 62
     7
100
AcDbLine
 10
-52.3416979632716
 20
8.49707265566859
 30
0.0
 11
-52.15329963273521
 21
9.928100049670687
 31
0.0
  0
LINE
  5
AE
330
1E
100
AcDbEntity
  8
1
 62
     7
100
AcDbLine
 10
-26.64967452836798
 20
27.25
 30
0.0
 11
-26.64967452836798
 21
21.75
 31
0.0
  0
LINE
  5
AF
330
1E
100
AcDbEntity
  8
1
 62
     7
100
AcDbLine
 10
-8.249674528367988
 20
23.0
 30
0.0
 11
-8.249674528367988
 21
26.0
 31
0.0
  0
LINE
  5
B0
330
1E
100
AcDbEntity
  8
1
 62
     7
100
AcDbLine
 10
-22.849674528368
 20
26.0
 30
0.0
 11
-22.849674528368
 21
23.0
 31
0.0
  0
LINE
  5
B1
330
1E
100
AcDbEntity
  8
1
 62
     7
100
AcDbLine
 10
-8.249674528367988
 20
26.0
 30
0.0
 11
-23.749674528368
 21
26.0
 31
0.0
  0
LINE
  5
B2
330
1E
100
AcDbEntity
  8
1
 62
     7
100
AcDbLine
 10
-7.84967452836798
 20
25.6
 30
0.0
 11
-8.249674528367988
 21
26.0
 31
0.0
  0
LINE
  5
B3
330
1E
100
AcDbEntity
  8
1
 62
     7
100
AcDbLine
 10
-7.84967452836798
 20
23.39999999999999
 30
0.0
 11
-7.84967452836798
 21
25.6
 31
0.0
  0
LINE
  5
B4
330
1E
100
AcDbEntity
  8
1
 62
     7
100
AcDbLine
 10
-8.249674528367988
 20
23.0
 30
0.0
 11
-7.84967452836798
 21
23.39999999999999
 31
0.0
  0
LINE
  5
B5
330
1E
100
AcDbEntity
  8
1
 62
     7
100
AcDbLine
 10
-23.749674528368
 20
23.0
 30
0.0
 11
-8.249674528367988
 21
23.0
 31
0.0
  0
LINE
  5
B6
330
1E
100
AcDbEntity
  8
1
 62
     7
100
AcDbLine
 10
-26.64967452836798
 20
21.75
 30
0.0
 11
-23.849674528368
 21
21.75
 31
0.0
  0
LINE
  5
B7
330
1E
100
AcDbEntity
  8
1
 62
     7
100
AcDbLine
 10
-26.849674528368
 20
21.94999999999999
 30
0.0
 11
-26.64967452836798
 21
21.75
 31
0.0
  0
LINE
  5
B8
330
1E
100
AcDbEntity
  8
1
 62
     7
100
AcDbLine
 10
-26.849674528368
 20
27.05
 30
0.0
 11
-26.849674528368
 21
21.94999999999999
 31
0.0
  0
LINE
  5
B9
330
1E
100
AcDbEntity
  8
1
 62
     7
100
AcDbLine
 10
-26.64967452836798
 20
27.25
 30
0.0
 11
-26.849674528368
 21
27.05
 31
0.0
  0
LINE
  5
BA
330
1E
100
AcDbEntity
  8
1
 62
     7
100
AcDbLine
 10
-23.849674528368
 20
27.25
 30
0.0
 11
-26.64967452836798
 21
27.25
 31
0.0
  0
LINE
  5
BB
330
1E
100
AcDbEntity
  8
1
 62
     7
100
AcDbLine
 10
-23.849674528368
 20
21.75
 30
0.0
 11
-23.849674528368
 21
27.25
 31
0.0
  0
LINE
  5
BC
330
1E
100
AcDbEntity
  8
1
 62
     3
100
AcDbLine
 10
-22.849674528368
 20
23.39999999999999
 30
0.0
 11
-23.5424948513955
 21
23.0
 31
0.0
  0
LINE
  5
BD
330
1E
100
AcDbEntity
  8
1
 62
     3
100
AcDbLine
 10
-22.849674528368
 20
25.6
 30
0.0
 11
-23.5424948513955
 21
26.0
 31
0.0
  0
LINE
  5
BE
330
1E
100
AcDbEntity
  8
1
 62
     3
100
AcDbLine
 10
-22.849674528368
 20
23.39999999999999
 30
0.0
 11
-7.84967452836798
 21
23.39999999999999
 31
0.0
  0
LINE
  5
BF
330
1E
100
AcDbEntity
  8
1
 62
     3
100
AcDbLine
 10
-22.849674528368
 20
25.6
 30
0.0
 11
-7.84967452836798
 21
25.6
 31
0.0
  0
LINE
  5
C0
330
1E
100
AcDbEntity
  8
1
 62
     7
100
AcDbLine
 10
-7.24967447420079
 20
5.0
 30
0.0
 11
-7.24967447420079
 21
12.0
 31
0.0
  0
LINE
  5
C1
330
1E
100
AcDbEntity
  8
1
 62
     7
100
AcDbLine
 10
-22.3496744742008
 20
10.5
 30
0.0
 11
-22.3496744742008
 21
6.5
 31
0.0
  0
LINE
  5
C2
330
1E
100
AcDbEntity
  8
1
 62
     7
100
AcDbLine
 10
-12.3496744742008
 20
6.5
 30
0.0
 11
-12.3496744742008
 21
10.5
 31
0.0
  0
LINE
  5
C3
330
1E
100
AcDbEntity
  8
1
 62
     7
100
AcDbLine
 10
-10.9496744742008
 20
6.5
 30
0.0
 11
-10.9496744742008
 21
5.0
 31
0.0
  0
LINE
  5
C4
330
1E
100
AcDbEntity
  8
1
 62
     7
100
AcDbLine
 10
-22.3496744742008
 20
6.5
 30
0.0
 11
-11.1496744742008
 21
6.5
 31
0.0
  0
LINE
  5
C5
330
1E
100
AcDbEntity
  8
1
 62
     7
100
AcDbLine
 10
-22.9496744742008
 20
7.099999999999997
 30
0.0
 11
-22.3496744742008
 21
6.5
 31
0.0
  0
LINE
  5
C6
330
1E
100
AcDbEntity
  8
1
 62
     7
100
AcDbLine
 10
-22.9496744742008
 20
9.9
 30
0.0
 11
-22.9496744742008
 21
7.099999999999997
 31
0.0
  0
LINE
  5
C7
330
1E
100
AcDbEntity
  8
1
 62
     7
100
AcDbLine
 10
-22.3496744742008
 20
10.5
 30
0.0
 11
-22.9496744742008
 21
9.9
 31
0.0
  0
LINE
  5
C8
330
1E
100
AcDbEntity
  8
1
 62
     7
100
AcDbLine
 10
-11.1496744742008
 20
10.5
 30
0.0
 11
-22.3496744742008
 21
10.5
 31
0.0
  0
LINE
  5
C9
330
1E
100
AcDbEntity
  8
1
 62
     7
100
AcDbLine
 10
-7.24967447420079
 20
12.0
 30
0.0
 11
-10.9496744742008
 21
12.0
 31
0.0
  0
LINE
  5
CA
330
1E
100
AcDbEntity
  8
1
 62
     7
100
AcDbLine
 10
-6.94967447420078
 20
11.69999999999999
 30
0.0
 11
-7.24967447420079
 21
12.0
 31
0.0
  0
LINE
  5
CB
330
1E
100
AcDbEntity
  8
1
 62
     7
100
AcDbLine
 10
-6.94967447420078
 20
5.299999999999998
 30
0.0
 11
-6.94967447420078
 21
11.69999999999999
 31
0.0
  0
LINE
  5
CC
330
1E
100
AcDbEntity
  8
1
 62
     7
100
AcDbLine
 10
-7.24967447420079
 20
5.0
 30
0.0
 11
-6.94967447420078
 21
5.299999999999998
 31
0.0
  0
LINE
  5
CD
330
1E
100
AcDbEntity
  8
1
 62
     7
100
AcDbLine
 10
-10.9496744742008
 20
5.0
 30
0.0
 11
-7.24967447420079
 21
5.0
 31
0.0
  0
LINE
  5
CE
330
1E
100
AcDbEntity
  8
1
 62
     3
100
AcDbLine
 10
-12.3496744742008
 20
9.9
 30
0.0
 11
-11.31044398965949
 21
10.5
 31
0.0
  0
LINE
  5
CF
330
1E
100
AcDbEntity
  8
1
 62
     3
100
AcDbLine
 10
-12.3496744742008
 20
7.099999999999997
 30
0.0
 11
-11.31044398965949
 21
6.5
 31
0.0
  0
LINE
  5
D0
330
1E
100
AcDbEntity
  8
1
 62
     3
100
AcDbLine
 10
-12.3496744742008
 20
9.9
 30
0.0
 11
-22.9496744742008
 21
9.9
 31
0.0
  0
LINE
  5
D1
330
1E
100
AcDbEntity
  8
1
 62
     3
100
AcDbLine
 10
-12.3496744742008
 20
7.099999999999997
 30
0.0
 11
-22.9496744742008
 21
7.099999999999997
 31
0.0
  0
LINE
  5
D2
330
1E
100
AcDbEntity
  8
0
 62
     7
100
AcDbLine
 10
68.16340448720049
 20
-6.972483617115807
 30
0.0
 11
68.16340448720049
 21
-8.749999868556299
 31
0.0
  0
LINE
  5
D3
330
1E
100
AcDbEntity
  8
0
 62
     7
100
AcDbLine
 10
68.16340448720049
 20
-8.749999868556299
 30
0.0
 11
69.70340446407771
 21
-8.749999868556299
 31
0.0
  0
LINE
  5
D4
330
1E
100
AcDbEntity
  8
0
 62
     7
100
AcDbLine
 10
70.17007112372749
 20
-8.283333208888736
 30
0.0
 11
70.17007112372749
 21
-7.3338427148463
 31
0.0
  0
LINE
  5
D5
330
1E
100
AcDbEntity
  8
0
 62
     7
100
AcDbLine
 10
67.696737827544
 20
-6.972483617115807
 30
0.0
 11
67.696737827544
 21
-8.749999868556299
 31
0.0
  0
LINE
  5
D6
330
1E
100
AcDbEntity
  8
0
 62
     7
100
AcDbLine
 10
67.696737827544
 20
-8.749999868556299
 30
0.0
 11
66.15673785066832
 21
-8.749999868556299
 31
0.0
  0
LINE
  5
D7
330
1E
100
AcDbEntity
  8
0
 62
     7
100
AcDbLine
 10
65.6900711910245
 20
-8.283333208888736
 30
0.0
 11
65.6900711910245
 21
-7.3338427148463
 31
0.0
  0
LINE
  5
D8
330
1E
100
AcDbEntity
  8
0
 62
     7
100
AcDbLine
 10
-15.8496744742008
 20
5.5
 30
0.0
 11
-15.8496744742008
 21
6.24994584792529
 31
0.0
  0
LINE
  5
D9
330
1E
100
AcDbEntity
  8
0
 62
     7
100
AcDbLine
 10
-13.4496744742008
 20
-5.5
 30
0.0
 11
-13.4496744742008
 21
-6.25
 31
0.0
  0
LINE
  5
DA
330
1E
100
AcDbEntity
  8
0
 62
     7
100
AcDbLine
 10
-15.8496744742008
 20
-6.25
 30
0.0
 11
-15.8496744742008
 21
-5.5
 31
0.0
  0
LINE
  5
DB
330
1E
100
AcDbEntity
  8
0
 62
     7
100
AcDbLine
 10
-13.4496744742008
 20
-8.75
 30
0.0
 11
-13.4496744742008
 21
-16.54799975141989
 31
0.0
  0
LINE
  5
DC
330
1E
100
AcDbEntity
  8
0
 62
     7
100
AcDbLine
 10
-15.8496744742008
 20
10.74994584792529
 30
0.0
 11
-15.8496744742008
 21
11.49994567519968
 31
0.0
  0
LINE
  5
DD
330
1E
100
AcDbEntity
  8
0
 62
     7
100
AcDbLine
 10
-13.4496744742008
 20
6.25
 30
0.0
 11
-13.4496744742008
 21
5.5
 31
0.0
  0
LINE
  5
DE
330
1E
100
AcDbEntity
  8
1
 62
     7
100
AcDbLine
 10
-15.8496744742008
 20
10.74994584792529
 30
0.0
 11
-13.4496744742008
 21
10.74999999999999
 31
0.0
  0
LINE
  5
DF
330
1E
100
AcDbEntity
  8
1
 62
     7
100
AcDbLine
 10
-15.8496744742008
 20
6.24994584792529
 30
0.0
 11
-13.4496744742008
 21
6.25
 31
0.0
  0
LINE
  5
E0
330
1E
100
AcDbEntity
  8
0
 62
     7
100
AcDbLine
 10
-15.8496744742008
 20
-11.5000539793414
 30
0.0
 11
-15.8496744742008
 21
-8.75
 31
0.0
  0
LINE
  5
E1
330
1E
100
AcDbEntity
  8
0
 62
     7
100
AcDbLine
 10
-13.4496744742008
 20
16.5479997514226
 30
0.0
 11
-13.4496744742008
 21
10.74999999999999
 31
0.0
  0
LINE
  5
E2
330
1E
100
AcDbEntity
  8
0
 62
     7
100
AcDbLine
 10
7.65032547149582
 20
-17.06222929585558
 30
0.0
 11
7.650325471571539
 21
-14.9902132731684
 31
0.0
  0
LINE
  5
E3
330
1E
100
AcDbEntity
  8
0
 62
     7
100
AcDbLine
 10
-13.8996744404063
 20
-11.7499998235111
 30
0.0
 11
-13.8996744404122
 21
-16.54399975155519
 31
0.0
  0
LINE
  5
E4
330
1E
100
AcDbEntity
  8
0
 62
     7
100
AcDbLine
 10
-13.8996744404063
 20
11.74999982351367
 30
0.0
 11
-13.8996744404122
 21
16.543999751563
 31
0.0
  0
LINE
  5
E5
330
1E
100
AcDbEntity
  8
0
 62
     7
100
AcDbLine
 10
-13.9496744666655
 20
-5.4999999173763
 30
0.0
 11
-13.4496744741836
 21
-5.999999909865007
 31
0.0
  0
LINE
  5
E6
330
1E
100
AcDbEntity
  8
0
 62
     7
100
AcDbLine
 10
-15.3496744817161
 20
-5.500054069451008
 30
0.0
 11
-13.9496744666655
 21
-5.4999999173763
 31
0.0
  0
LINE
  5
E7
330
1E
100
AcDbEntity
  8
0
 62
     7
100
AcDbLine
 10
-15.8496744742008
 20
-6.000054061939717
 30
0.0
 11
-15.3496744817161
 21
-5.500054069451008
 31
0.0
  0
LINE
  5
E8
330
1E
100
AcDbEntity
  8
0
 62
     7
100
AcDbLine
 10
7.35032547592619
 20
-16.94799974538559
 30
0.0
 11
-13.04967448021379
 21
-16.9479997454109
 31
0.0
  0
LINE
  5
E9
330
1E
100
AcDbEntity
  8
0
 62
     7
100
AcDbLine
 10
7.557301120384577
 20
-16.96247289232038
 30
0.0
 11
7.35032547592619
 21
-16.94799974538559
 31
0.0
  0
LINE
  5
EA
330
1E
100
AcDbEntity
  8
0
 62
     7
100
AcDbLine
 10
7.65032547149582
 20
-17.17997898828
 30
0.0
 11
7.65032547149582
 21
-17.06222929585558
 31
0.0
  0
LINE
  5
EB
330
1E
100
AcDbEntity
  8
0
 62
     7
100
AcDbLine
 10
0.6503254867892011
 20
-17.7499997334015
 30
0.0
 11
7.1217260818944
 21
-17.7499997334512
 31
0.0
  0
LINE
  5
EC
330
1E
100
AcDbEntity
  8
0
 62
     7
100
AcDbLine
 10
-9.699674267753259
 20
-17.3939997417652
 30
0.0
 11
-4.666294312756178
 21
-17.39399974181599
 31
0.0
  0
LINE
  5
ED
330
1E
100
AcDbEntity
  8
0
 62
     7
100
AcDbLine
 10
-15.8496744742008
 20
-11.5000539793414
 30
0.0
 11
-14.1496744366502
 21
-11.4999998272667
 31
0.0
  0
LINE
  5
EE
330
1E
100
AcDbEntity
  8
0
 62
     7
100
AcDbLine
 10
-13.9496744666655
 20
5.49999991738648
 30
0.0
 11
-13.4496744741836
 21
5.99999990988539
 31
0.0
  0
LINE
  5
EF
330
1E
100
AcDbEntity
  8
0
 62
     7
100
AcDbLine
 10
-15.3496744817161
 20
5.499945765324499
 30
0.0
 11
-13.9496744666655
 21
5.49999991738648
 31
0.0
  0
LINE
  5
F0
330
1E
100
AcDbEntity
  8
0
 62
     7
100
AcDbLine
 10
-15.8496744742008
 20
5.999945757810677
 30
0.0
 11
-15.3496744817161
 21
5.499945765324499
 31
0.0
  0
LINE
  5
F1
330
1E
100
AcDbEntity
  8
0
 62
     7
100
AcDbLine
 10
7.557301120384577
 20
16.9624728923281
 30
0.0
 11
7.35032547592619
 21
16.9479997454034
 31
0.0
  0
LINE
  5
F2
330
1E
100
AcDbEntity
  8
0
 62
     7
100
AcDbLine
 10
7.65032547149582
 20
17.17997898830039
 30
0.0
 11
7.65032547149582
 21
14.7929658130207
 31
0.0
  0
LINE
  5
F3
330
1E
100
AcDbEntity
  8
0
 62
     7
100
AcDbLine
 10
0.6503254867892011
 20
17.74999973341169
 30
0.0
 11
7.1217260819085
 21
17.74999973345739
 31
0.0
  0
LINE
  5
F4
330
1E
100
AcDbEntity
  8
0
 62
     7
100
AcDbLine
 10
-9.699674267753259
 20
17.39399974178298
 30
0.0
 11
-4.666294312756178
 21
17.3939997418288
 31
0.0
  0
LINE
  5
F5
330
1E
100
AcDbEntity
  8
0
 62
     7
100
AcDbLine
 10
-15.8496744742008
 20
11.49994567519968
 30
0.0
 11
-14.1496744366502
 21
11.4999998272744
 31
0.0
  0
LINE
  5
F6
330
1E
100
AcDbEntity
  8
0
 62
     7
100
AcDbLine
 10
12.1503254791331
 20
-2.999999954932517
 30
0.0
 11
12.650325471632
 21
-3.4999999474212
 31
0.0
  0
LINE
  5
F7
330
1E
100
AcDbEntity
  8
0
 62
     7
100
AcDbLine
 10
-5.421674535879087
 20
-2.999999954932517
 30
0.0
 11
12.1503254791331
 21
-2.999999954932517
 31
0.0
  0
LINE
  5
F8
330
1E
100
AcDbEntity
  8
0
 62
     7
100
AcDbLine
 10
-5.849674528367932
 20
-3.499999947395898
 30
0.0
 11
-5.421674535879087
 21
-2.999999954932517
 31
0.0
  0
LINE
  5
F9
330
1E
100
AcDbEntity
  8
0
 62
     7
100
AcDbLine
 10
12.1503254791432
 20
2.9999999549427
 30
0.0
 11
12.650325471632
 21
3.49999994742388
 31
0.0
  0
LINE
  5
FA
330
1E
100
AcDbEntity
  8
0
 62
     7
100
AcDbLine
 10
-5.849674528317112
 20
3.49999994733239
 30
0.0
 11
-5.421674535929908
 21
2.999999954947778
 31
0.0
  0
LINE
  5
FB
330
1E
100
AcDbEntity
  8
0
 62
     7
100
AcDbLine
 10
6.350325468057302
 20
-8.699999869329699
 30
0.0
 11
6.350325468108231
 21
-6.99999989486792
 31
0.0
  0
LINE
  5
FC
330
1E
100
AcDbEntity
  8
0
 62
     7
100
AcDbLine
 10
5.200325485333233
 20
-8.699999869329699
 30
0.0
 11
6.350325468057302
 21
-8.699999869329699
 31
0.0
  0
LINE
  5
FD
330
1E
100
AcDbEntity
  8
0
 62
     7
100
AcDbLine
 10
5.200325485333233
 20
-9.999999849800419
 30
0.0
 11
5.200325485383991
 21
-6.99999989486792
 31
0.0
  0
LINE
  5
FE
330
1E
100
AcDbEntity
  8
0
 62
     7
100
AcDbLine
 10
4.750325492093293
 20
-9.999999849800419
 30
0.0
 11
5.200325485333233
 21
-9.999999849800419
 31
0.0
  0
LINE
  5
FF
330
1E
100
AcDbEntity
  8
0
 62
     7
100
AcDbLine
 10
4.750325492093293
 20
-10.9999998347526
 30
0.0
 11
4.750325492093293
 21
-6.99999989486792
 31
0.0
  0
LINE
  5
100
330
1E
100
AcDbEntity
  8
0
 62
     7
100
AcDbLine
 10
6.250325469585003
 20
-10.9999998347526
 30
0.0
 11
4.750325492093293
 21
-10.9999998347526
 31
0.0
  0
LINE
  5
101
330
1E
100
AcDbEntity
  8
0
 62
     7
100
AcDbLine
 10
6.250325469585003
 20
-12.5349998117209
 30
0.0
 11
6.250325469585003
 21
-9.999999849800419
 31
0.0
  0
LINE
  5
102
330
1E
100
AcDbEntity
  8
0
 62
     7
100
AcDbLine
 10
6.350325468057302
 20
8.699999869362789
 30
0.0
 11
6.350325468108231
 21
6.999999894873098
 31
0.0
  0
LINE
  5
103
330
1E
100
AcDbEntity
  8
0
 62
     7
100
AcDbLine
 10
5.200325485333233
 20
8.699999869362789
 30
0.0
 11
6.350325468057302
 21
8.699999869362789
 31
0.0
  0
LINE
  5
104
330
1E
100
AcDbEntity
  8
0
 62
     7
100
AcDbLine
 10
5.200325485333233
 20
9.99999984982338
 30
0.0
 11
5.200325485383991
 21
6.999999894873098
 31
0.0
  0
LINE
  5
105
330
1E
100
AcDbEntity
  8
0
 62
     7
100
AcDbLine
 10
4.750325492093293
 20
9.99999984982338
 30
0.0
 11
5.200325485333233
 21
9.99999984982338
 31
0.0
  0
LINE
  5
106
330
1E
100
AcDbEntity
  8
0
 62
     7
100
AcDbLine
 10
4.750325492093293
 20
10.9999998347983
 30
0.0
 11
4.750325492093293
 21
6.999999894873098
 31
0.0
  0
LINE
  5
107
330
1E
100
AcDbEntity
  8
0
 62
     7
100
AcDbLine
 10
6.250325469585003
 20
10.9999998347983
 30
0.0
 11
4.750325492093293
 21
10.9999998347983
 31
0.0
  0
LINE
  5
108
330
1E
100
AcDbEntity
  8
0
 62
     7
100
AcDbLine
 10
6.250325469585003
 20
12.53499981173668
 30
0.0
 11
6.250325469585003
 21
9.99999984982338
 31
0.0
  0
LINE
  5
109
330
1E
100
AcDbEntity
  8
0
 62
     7
100
AcDbLine
 10
2.35032552814733
 20
-8.499999872308816
 30
0.0
 11
-0.1496744342965067
 21
-8.499999872308816
 31
0.0
  0
LINE
  5
10A
330
1E
100
AcDbEntity
  8
0
 62
     7
100
AcDbLine
 10
2.35032552814733
 20
-11.99999981973
 30
0.0
 11
2.35032552814733
 21
-8.499999872308816
 31
0.0
  0
LINE
  5
10B
330
1E
100
AcDbEntity
  8
0
 62
     7
100
AcDbLine
 10
2.45032552664509
 20
-7.24999989111231
 30
0.0
 11
2.45032552664509
 21
-12.5349998117209
 31
0.0
  0
LINE
  5
10C
330
1E
100
AcDbEntity
  8
0
 62
     7
100
AcDbLine
 10
-0.3496744312919797
 20
-11.99999981973
 30
0.0
 11
2.35032552814733
 21
-11.99999981973
 31
0.0
  0
LINE
  5
10D
330
1E
100
AcDbEntity
  8
0
 62
     7
100
AcDbLine
 10
-0.3496744312919797
 20
-14.99999977468799
 30
0.0
 11
-0.3496744312919797
 21
-11.99999981973
 31
0.0
  0
LINE
  5
10E
330
1E
100
AcDbEntity
  8
0
 62
     7
100
AcDbLine
 10
-2.949674392258877
 20
-14.99999977468799
 30
0.0
 11
-0.3496744312919797
 21
-14.99999977468799
 31
0.0
  0
LINE
  5
10F
330
1E
100
AcDbEntity
  8
0
 62
     7
100
AcDbLine
 10
-2.949674392258877
 20
-11.99999981973
 30
0.0
 11
-2.949674392258877
 21
-14.99999977468799
 31
0.0
  0
LINE
  5
110
330
1E
100
AcDbEntity
  8
0
 62
     7
100
AcDbLine
 10
-3.149674389254298
 20
-11.99999981973
 30
0.0
 11
-2.949674392258877
 21
-11.99999981973
 31
0.0
  0
LINE
  5
111
330
1E
100
AcDbEntity
  8
0
 62
     7
100
AcDbLine
 10
-0.3496744312919797
 20
11.99999981977329
 30
0.0
 11
-0.1496744342965067
 21
11.99999981977329
 31
0.0
  0
LINE
  5
112
330
1E
100
AcDbEntity
  8
0
 62
     7
100
AcDbLine
 10
-0.3496744312919797
 20
14.99999977474649
 30
0.0
 11
-0.3496744312919797
 21
11.99999981977329
 31
0.0
  0
LINE
  5
113
330
1E
100
AcDbEntity
  8
0
 62
     7
100
AcDbLine
 10
-2.949674392258877
 20
14.99999977474649
 30
0.0
 11
-0.3496744312919797
 21
14.99999977474649
 31
0.0
  0
LINE
  5
114
330
1E
100
AcDbEntity
  8
0
 62
     7
100
AcDbLine
 10
-2.949674392258877
 20
11.99999981977329
 30
0.0
 11
-2.949674392258877
 21
14.99999977474649
 31
0.0
  0
LINE
  5
115
330
1E
100
AcDbEntity
  8
0
 62
     7
100
AcDbLine
 10
-5.622174351723608
 20
11.99999981977329
 30
0.0
 11
-2.949674392258877
 21
11.99999981977329
 31
0.0
  0
LINE
  5
116
330
1E
100
AcDbEntity
  8
0
 62
     7
100
AcDbLine
 10
-5.622174351723608
 20
8.49999987232408
 30
0.0
 11
-5.622174351723608
 21
11.99999981977329
 31
0.0
  0
LINE
  5
117
330
1E
100
AcDbEntity
  8
0
 62
     7
100
AcDbLine
 10
-3.149674389254298
 20
8.49999987232408
 30
0.0
 11
-5.622174351723608
 21
8.49999987232408
 31
0.0
  0
LINE
  5
118
330
1E
100
AcDbEntity
  8
0
 62
     7
100
AcDbLine
 10
-3.149674389254298
 20
-7.24999989111231
 30
0.0
 11
-2.949674392258877
 21
-7.24999989111231
 31
0.0
  0
LINE
  5
119
330
1E
100
AcDbEntity
  8
0
 62
     7
100
AcDbLine
 10
-3.149674389254298
 20
-7.24999989111231
 30
0.0
 11
5.200325485333233
 21
-7.24999989111231
 31
0.0
  0
LINE
  5
11A
330
1E
100
AcDbEntity
  8
0
 62
     7
100
AcDbLine
 10
-5.849674528367932
 20
7.2499998911124
 30
0.0
 11
5.200325485333233
 21
7.2499998911124
 31
0.0
  0
LINE
  5
11B
330
1E
100
AcDbEntity
  8
0
 62
     7
100
AcDbLine
 10
12.1503254791432
 20
-6.99999989486792
 30
0.0
 11
12.650325471632
 21
-6.499999902353799
 31
0.0
  0
LINE
  5
11C
330
1E
100
AcDbEntity
  8
0
 62
     7
100
AcDbLine
 10
7.35032547627583
 20
-6.99999989486792
 30
0.0
 11
12.1503254791432
 21
-6.99999989486792
 31
0.0
  0
LINE
  5
11D
330
1E
100
AcDbEntity
  8
0
 62
     7
100
AcDbLine
 10
6.350325468108231
 20
-6.699999899374597
 30
0.0
 11
6.350325468108231
 21
-6.99999989486792
 31
0.0
  0
LINE
  5
11E
330
1E
100
AcDbEntity
  8
0
 62
     7
100
AcDbLine
 10
5.200325485383991
 20
-6.699999899374597
 30
0.0
 11
6.350325468108231
 21
-6.699999899374597
 31
0.0
  0
LINE
  5
11F
330
1E
100
AcDbEntity
  8
0
 62
     7
100
AcDbLine
 10
5.200325485383991
 20
-6.99999989486792
 30
0.0
 11
5.200325485383991
 21
-6.699999899374597
 31
0.0
  0
LINE
  5
120
330
1E
100
AcDbEntity
  8
0
 62
     7
100
AcDbLine
 10
-3.149674389203587
 20
-6.99999989486792
 30
0.0
 11
5.200325485383991
 21
-6.99999989486792
 31
0.0
  0
LINE
  5
121
330
1E
100
AcDbEntity
  8
0
 62
     7
100
AcDbLine
 10
-3.149674389203587
 20
-12.49999981226959
 30
0.0
 11
-3.149674389203587
 21
-6.99999989486792
 31
0.0
  0
LINE
  5
122
330
1E
100
AcDbEntity
  8
0
 62
     7
100
AcDbLine
 10
-5.849674528367932
 20
-12.49999981226959
 30
0.0
 11
-3.149674389203587
 21
-12.49999981226959
 31
0.0
  0
LINE
  5
123
330
1E
100
AcDbEntity
  8
0
 62
     7
100
AcDbLine
 10
12.650325471632
 20
6.499999902374097
 30
0.0
 11
12.650325471632
 21
-6.499999902353799
 31
0.0
  0
LINE
  5
124
330
1E
100
AcDbEntity
  8
0
 62
     7
100
AcDbLine
 10
12.1503254791432
 20
6.999999894873098
 30
0.0
 11
12.650325471632
 21
6.499999902374097
 31
0.0
  0
LINE
  5
125
330
1E
100
AcDbEntity
  8
0
 62
     7
100
AcDbLine
 10
6.350325468108231
 20
6.69999989938748
 30
0.0
 11
6.350325468108231
 21
6.999999894873098
 31
0.0
  0
LINE
  5
126
330
1E
100
AcDbEntity
  8
0
 62
     7
100
AcDbLine
 10
5.200325485383991
 20
6.69999989938748
 30
0.0
 11
6.350325468108231
 21
6.69999989938748
 31
0.0
  0
LINE
  5
127
330
1E
100
AcDbEntity
  8
0
 62
     7
100
AcDbLine
 10
5.200325485383991
 20
6.999999894873098
 30
0.0
 11
5.200325485383991
 21
6.69999989938748
 31
0.0
  0
LINE
  5
128
330
1E
100
AcDbEntity
  8
0
 62
     7
100
AcDbLine
 10
-3.149674389203587
 20
6.999999894873098
 30
0.0
 11
5.200325485383991
 21
6.999999894873098
 31
0.0
  0
LINE
  5
129
330
1E
100
AcDbEntity
  8
0
 62
     7
100
AcDbLine
 10
-3.149674389203587
 20
12.4999998122722
 30
0.0
 11
-3.149674389203587
 21
6.999999894873098
 31
0.0
  0
LINE
  5
12A
330
1E
100
AcDbEntity
  8
0
 62
     7
100
AcDbLine
 10
-5.849674528367932
 20
12.4999998122722
 30
0.0
 11
-3.149674389203587
 21
12.4999998122722
 31
0.0
  0
LINE
  5
12B
330
1E
100
AcDbEntity
  8
0
 62
     7
100
AcDbLine
 10
-5.849674528367932
 20
12.4999998122722
 30
0.0
 11
-5.849674528367932
 21
-12.49999981226959
 31
0.0
  0
LINE
  5
12C
330
1E
100
AcDbEntity
  8
1
 62
     3
100
AcDbLine
 10
8.650325471632042
 20
6.999999894873098
 30
0.0
 11
8.650325471632042
 21
6.826794814116198
 31
0.0
  0
LINE
  5
12D
330
1E
100
AcDbEntity
  8
1
 62
     3
100
AcDbLine
 10
11.6503253905967
 20
6.999999894873098
 30
0.0
 11
11.6503253905967
 21
6.826794814116198
 31
0.0
  0
LINE
  5
12E
330
1E
100
AcDbEntity
  8
0
 62
     7
100
AcDbLine
 10
11.6503253905967
 20
2.999999954943379
 30
0.0
 11
12.1503254791432
 21
2.9999999549427
 31
0.0
  0
LINE
  5
12F
330
1E
100
AcDbEntity
  8
1
 62
     3
100
AcDbLine
 10
8.950325471632062
 20
6.999999894873098
 30
0.0
 11
8.950325471632062
 21
2.999999954943379
 31
0.0
  0
LINE
  5
130
330
1E
100
AcDbEntity
  8
0
 62
     7
100
AcDbLine
 10
6.350325468108231
 20
6.999999894873098
 30
0.0
 11
11.35032547163202
 21
6.999999894873098
 31
0.0
  0
LINE
  5
131
330
1E
100
AcDbEntity
  8
0
 62
     7
100
AcDbLine
 10
-5.421674535929908
 20
2.999999954947778
 30
0.0
 11
11.35032547163202
 21
2.999999954943379
 31
0.0
  0
LINE
  5
132
330
1E
100
AcDbEntity
  8
1
 62
     3
100
AcDbLine
 10
11.35032547163202
 20
6.999999894873098
 30
0.0
 11
11.35032547163202
 21
2.999999954943379
 31
0.0
  0
LINE
  5
133
330
1E
100
AcDbEntity
  8
0
 62
     7
100
AcDbLine
 10
11.3503253905967
 20
6.999999894873098
 30
0.0
 11
12.1503254791432
 21
6.999999894873098
 31
0.0
  0
LINE
  5
134
330
1E
100
AcDbEntity
  8
0
 62
     7
100
AcDbLine
 10
11.3503253905967
 20
2.999999954943379
 30
0.0
 11
11.6503253905967
 21
2.999999954943379
 31
0.0
  0
LINE
  5
135
330
1E
100
AcDbEntity
  8
1
 62
     7
100
AcDbLine
 10
8.650325471632042
 20
6.826794814116198
 30
0.0
 11
11.6503253905967
 21
6.826794814116198
 31
0.0
  0
LINE
  5
136
330
1E
100
AcDbEntity
  8
1
 62
     7
100
AcDbLine
 10
8.650325471632042
 20
6.826794814116198
 30
0.0
 11
8.650325471632042
 21
3.299999954943497
 31
0.0
  0
LINE
  5
137
330
1E
100
AcDbEntity
  8
1
 62
     7
100
AcDbLine
 10
11.6503253905967
 20
6.826794814116198
 30
0.0
 11
11.6503253905967
 21
3.299999954943497
 31
0.0
  0
LINE
  5
138
330
1E
100
AcDbEntity
  8
1
 62
     7
100
AcDbLine
 10
11.6503253905967
 20
3.299999954943497
 30
0.0
 11
8.650325471632042
 21
3.299999954943497
 31
0.0
  0
LINE
  5
139
330
1E
100
AcDbEntity
  8
1
 62
     3
100
AcDbLine
 10
11.6503253905967
 20
3.299999954943497
 30
0.0
 11
11.6503253905967
 21
2.999999954943379
 31
0.0
  0
LINE
  5
13A
330
1E
100
AcDbEntity
  8
1
 62
     3
100
AcDbLine
 10
8.650325471632042
 20
3.299999954943497
 30
0.0
 11
8.650325471632042
 21
2.999999954943379
 31
0.0
  0
LINE
  5
13B
330
1E
100
AcDbEntity
  8
1
 62
     7
100
AcDbLine
 10
8.650325471632042
 20
6.826794814116198
 30
0.0
 11
8.950325471632062
 21
6.999999894873098
 31
0.0
  0
LINE
  5
13C
330
1E
100
AcDbEntity
  8
1
 62
     7
100
AcDbLine
 10
11.3503253905967
 20
6.999999894873098
 30
0.0
 11
11.6503253905967
 21
6.826794814116198
 31
0.0
  0
LINE
  5
13D
330
1E
100
AcDbEntity
  8
1
 62
     7
100
AcDbLine
 10
11.6503253905967
 20
3.299999954943497
 30
0.0
 11
11.3503253905967
 21
2.999999954943379
 31
0.0
  0
LINE
  5
13E
330
1E
100
AcDbEntity
  8
1
 62
     7
100
AcDbLine
 10
8.950325471632062
 20
2.999999954943379
 30
0.0
 11
8.650325471632042
 21
3.299999954943497
 31
0.0
  0
LINE
  5
13F
330
1E
100
AcDbEntity
  8
1
  6
DASHED
 62
     3
100
AcDbLine
 10
66.4300711573718
 20
6.83739705806048
 30
0.0
 11
66.4300711573718
 21
2.59807615946068
 31
0.0
  0
LINE
  5
140
330
1E
100
AcDbEntity
  8
1
  6
DASHED
 62
     3
100
AcDbLine
 10
69.4300711573718
 20
6.83739705806048
 30
0.0
 11
69.4300711573718
 21
2.59807615946068
 31
0.0
  0
LINE
  5
141
330
1E
100
AcDbEntity
  8
1
  6
DASHED
 62
     7
100
AcDbLine
 10
66.73007115737189
 20
6.8963757532182
 30
0.0
 11
66.73007115737189
 21
2.74954536793948
 31
0.0
  0
LINE
  5
142
330
1E
100
AcDbEntity
  8
1
  6
DASHED
 62
     7
100
AcDbLine
 10
69.1300711573718
 20
6.8963757532182
 30
0.0
 11
69.1300711573718
 21
2.74954536793948
 31
0.0
  0
LINE
  5
143
330
1E
100
AcDbEntity
  8
1
  6
DASHED
 62
     3
100
AcDbLine
 10
70.5281473168325
 20
-1.5
 30
0.0
 11
74.7674682154323
 21
-1.5
 31
0.0
  0
LINE
  5
144
330
1E
100
AcDbEntity
  8
1
  6
DASHED
 62
     3
100
AcDbLine
 10
70.5281473168325
 20
1.5
 30
0.0
 11
74.7674682154323
 21
1.5
 31
0.0
  0
LINE
  5
145
330
1E
100
AcDbEntity
  8
1
  6
DASHED
 62
     7
100
AcDbLine
 10
70.6796165253113
 20
-1.199999999999899
 30
0.0
 11
74.8264469105899
 21
-1.199999999999899
 31
0.0
  0
LINE
  5
146
330
1E
100
AcDbEntity
  8
1
  6
DASHED
 62
     7
100
AcDbLine
 10
70.6796165253113
 20
1.199999999999989
 30
0.0
 11
74.8264469105899
 21
1.199999999999989
 31
0.0
  0
LINE
  5
147
330
1E
100
AcDbEntity
  8
0
 62
     7
100
AcDbLine
 10
-13.0496744501708
 20
17.3939997418059
 30
0.0
 11
-9.699674267753259
 21
17.39399974178298
 31
0.0
  0
LINE
  5
148
330
1E
100
AcDbEntity
  8
0
 62
     7
100
AcDbLine
 10
-13.04967448020899
 20
16.9479997454161
 30
0.0
 11
-9.699674267753259
 21
16.9479997454034
 31
0.0
  0
LINE
  5
149
330
1E
100
AcDbEntity
  8
0
 62
     7
100
AcDbLine
 10
-13.0496744501656
 20
-17.3939997417906
 30
0.0
 11
-9.699674267753259
 21
-17.3939997417652
 31
0.0
  0
LINE
  5
14A
330
1E
100
AcDbEntity
  8
1
 62
     7
100
AcDbLine
 10
7.621036149991089
 20
-17.2506896653545
 30
0.0
 11
7.1217260818944
 21
-17.7499997334512
 31
0.0
  0
LINE
  5
14B
330
1E
100
AcDbEntity
  8
1
 62
     7
100
AcDbLine
 10
7.621036149991089
 20
17.2506896653749
 30
0.0
 11
7.1217260819085
 21
17.74999973345739
 31
0.0
  0
LINE
  5
14C
330
1E
100
AcDbEntity
  8
1
  6
CENTER
 62
     3
100
AcDbLine
 10
-63.4609408522289
 20
7.309781279909119
 30
0.0
 11
-71.25046052495971
 21
2.8125
 31
0.0
  0
LINE
  5
14D
330
1E
100
AcDbEntity
  8
1
  6
CENTER
 62
     3
100
AcDbLine
 10
-81.8718534212472
 20
9.959292143521027
 30
0.0
 11
-78.87185342124721
 21
4.763139720814398
 31
0.0
  0
LINE
  5
14E
330
1E
100
AcDbEntity
  8
1
  6
CENTER
 62
     3
100
AcDbLine
 10
-70.37185342124721
 20
9.959292143521052
 30
0.0
 11
-73.37185342124721
 21
4.76313972081441
 31
0.0
  0
LINE
  5
14F
330
1E
100
AcDbEntity
  8
1
  6
CENTER
 62
     3
100
AcDbLine
 10
-70.37185342124721
 20
-9.959292143521027
 30
0.0
 11
-73.37185342124721
 21
-4.763139720814398
 31
0.0
  0
LINE
  5
150
330
1E
100
AcDbEntity
  8
1
  6
CENTER
 62
     3
100
AcDbLine
 10
-81.8718534212472
 20
-9.959292143521027
 30
0.0
 11
-78.87185342124721
 21
-4.763139720814398
 31
0.0
  0
LINE
  5
151
330
1E
100
AcDbEntity
  8
1
  6
CENTER
 62
     3
100
AcDbLine
 10
-63.5644850663729
 20
-7.24999999999999
 30
0.0
 11
-68.7606374890795
 21
-4.24999999999999
 31
0.0
  0
LINE
  5
152
330
1E
100
AcDbEntity
  8
1
  6
CENTER
 62
     3
100
AcDbLine
 10
-88.67922177612149
 20
-7.25
 30
0.0
 11
-83.4830693534149
 21
-4.25
 31
0.0
  0
LINE
  5
153
330
1E
100
AcDbEntity
  8
1
  6
CENTER
 62
     3
100
AcDbLine
 10
-76.12185342124718
 20
-30.5
 30
0.0
 11
-76.12185342124721
 21
30.3596707323712
 31
0.0
  0
LINE
  5
154
330
1E
100
AcDbEntity
  8
1
  6
CENTER
 62
     3
100
AcDbLine
 10
-55.79253346213389
 20
20.3293199591132
 30
0.0
 11
-62.15649449281277
 21
13.9653589284343
 31
0.0
  0
LINE
  5
155
330
1E
100
AcDbEntity
  8
1
  6
CENTER
 62
     3
100
AcDbLine
 10
-55.79253346213389
 20
-20.3293199591132
 30
0.0
 11
-62.1564944928129
 21
-13.9653589284343
 31
0.0
  0
LINE
  5
156
330
1E
100
AcDbEntity
  8
1
  6
CENTER
 62
     3
100
AcDbLine
 10
-96.45117338036042
 20
-20.3293199591132
 30
0.0
 11
-90.08721234968149
 21
-13.9653589284343
 31
0.0
  0
LINE
  5
157
330
1E
100
AcDbEntity
  8
1
  6
CENTER
 62
     3
100
AcDbLine
 10
-96.45117338036042
 20
20.3293199591132
 30
0.0
 11
-90.08721234968149
 21
13.9653589284343
 31
0.0
  0
LINE
  5
158
330
1E
100
AcDbEntity
  8
1
 62
     7
100
AcDbLine
 10
-0.8496745283679828
 20
36.5
 30
0.0
 11
5.150325471632018
 21
36.5
 31
0.0
  0
LINE
  5
159
330
1E
100
AcDbEntity
  8
1
 62
     7
100
AcDbLine
 10
4.300325471632017
 20
26.5
 30
0.0
 11
5.450325471632018
 21
26.5
 31
0.0
  0
LINE
  5
15A
330
1E
100
AcDbEntity
  8
1
 62
     7
100
AcDbLine
 10
4.300325471632017
 20
23.8
 30
0.0
 11
5.450325471632018
 21
23.8
 31
0.0
  0
LINE
  5
15B
330
1E
100
AcDbEntity
  8
1
 62
     7
100
AcDbLine
 10
4.15032547163202
 20
26.35
 30
0.0
 11
4.15032547163202
 21
23.95
 31
0.0
  0
LINE
  5
15C
330
1E
100
AcDbEntity
  8
1
  6
CENTER
 62
     3
100
AcDbLine
 10
6.350325471632017
 20
32.5
 30
0.0
 11
-2.049674528367968
 21
32.5
 31
0.0
  0
LINE
  5
15D
330
1E
100
AcDbEntity
  8
1
 62
     7
100
AcDbLine
 10
5.650325471632018
 20
34.75
 30
0.0
 11
-1.34967452836798
 21
34.75
 31
0.0
  0
LINE
  5
15E
330
1E
100
AcDbEntity
  8
1
 62
     7
100
AcDbLine
 10
5.650325471632018
 20
30.25
 30
0.0
 11
-1.34967452836798
 21
30.25
 31
0.0
  0
LINE
  5
15F
330
1E
100
AcDbEntity
  8
1
 62
     7
100
AcDbLine
 10
5.450325471632018
 20
-23.8
 30
0.0
 11
4.300325471632017
 21
-23.8
 31
0.0
  0
LINE
  5
160
330
1E
100
AcDbEntity
  8
1
 62
     7
100
AcDbLine
 10
4.15032547163202
 20
-23.95
 30
0.0
 11
4.15032547163202
 21
-26.35
 31
0.0
  0
LINE
  5
161
330
1E
100
AcDbEntity
  8
1
 62
     7
100
AcDbLine
 10
5.450325471632018
 20
-26.5
 30
0.0
 11
4.300325471632017
 21
-26.5
 31
0.0
  0
LINE
  5
162
330
1E
100
AcDbEntity
  8
1
 62
     7
100
AcDbLine
 10
5.150325471632018
 20
-36.5
 30
0.0
 11
-0.8496745283679828
 21
-36.5
 31
0.0
  0
LINE
  5
163
330
1E
100
AcDbEntity
  8
1
 62
     3
100
AcDbLine
 10
5.650325471632018
 20
-30.5
 30
0.0
 11
-1.34967452836798
 21
-30.5
 31
0.0
  0
LINE
  5
164
330
1E
100
AcDbEntity
  8
1
 62
     3
100
AcDbLine
 10
5.650325471632018
 20
-34.5
 30
0.0
 11
-1.34967452836798
 21
-34.5
 31
0.0
  0
LINE
  5
165
330
1E
100
AcDbEntity
  8
1
  6
CENTER
 62
     3
100
AcDbLine
 10
7.05032547163203
 20
-32.5
 30
0.0
 11
-2.74967452836799
 21
-32.5
 31
0.0
  0
LINE
  5
166
330
1E
100
AcDbEntity
  8
1
 62
     7
100
AcDbLine
 10
5.650325471632018
 20
-30.89999999999999
 30
0.0
 11
-1.34967452836798
 21
-30.89999999999999
 31
0.0
  0
LINE
  5
167
330
1E
100
AcDbEntity
  8
1
 62
     7
100
AcDbLine
 10
5.650325471632018
 20
-34.1
 30
0.0
 11
-1.34967452836798
 21
-34.1
 31
0.0
  0
LINE
  5
168
330
1E
100
AcDbEntity
  8
1
 62
     7
100
AcDbLine
 10
5.150325471632018
 20
-36.5
 30
0.0
 11
5.650325471632018
 21
-36.0
 31
0.0
  0
LINE
  5
169
330
1E
100
AcDbEntity
  8
1
 62
     7
100
AcDbLine
 10
5.650325471632018
 20
36.0
 30
0.0
 11
5.150325471632018
 21
36.5
 31
0.0
  0
LINE
  5
16A
330
1E
100
AcDbEntity
  8
1
 62
     7
100
AcDbLine
 10
5.650325471632018
 20
36.0
 30
0.0
 11
5.650325471632018
 21
19.39999999999998
 31
0.0
  0
LINE
  5
16B
330
1E
100
AcDbEntity
  8
1
 62
     7
100
AcDbLine
 10
5.650325471632018
 20
-19.39999999999998
 30
0.0
 11
5.650325471632018
 21
-36.0
 31
0.0
  0
LINE
  5
16C
330
1E
100
AcDbEntity
  8
1
 62
     7
100
AcDbLine
 10
-1.34967452836798
 20
36.0
 30
0.0
 11
-1.34967452836798
 21
28.39999999999999
 31
0.0
  0
LINE
  5
16D
330
1E
100
AcDbEntity
  8
1
 62
     7
100
AcDbLine
 10
-1.74967452836798
 20
28.0
 30
0.0
 11
-4.84967452836798
 21
28.0
 31
0.0
  0
LINE
  5
16E
330
1E
100
AcDbEntity
  8
1
 62
     7
100
AcDbLine
 10
-5.34967452836798
 20
27.5
 30
0.0
 11
-11.649674528368
 21
27.5
 31
0.0
  0
LINE
  5
16F
330
1E
100
AcDbEntity
  8
1
 62
     7
100
AcDbLine
 10
-1.34967452836798
 20
36.0
 30
0.0
 11
-0.8496745283679828
 21
36.5
 31
0.0
  0
LINE
  5
170
330
1E
100
AcDbEntity
  8
1
 62
     7
100
AcDbLine
 10
-4.84967452836798
 20
28.0
 30
0.0
 11
-5.34967452836798
 21
27.5
 31
0.0
  0
LINE
  5
171
330
1E
100
AcDbEntity
  8
1
 62
     7
100
AcDbLine
 10
-11.649674528368
 20
-27.5
 30
0.0
 11
-5.34967452836798
 21
-27.5
 31
0.0
  0
LINE
  5
172
330
1E
100
AcDbEntity
  8
1
 62
     7
100
AcDbLine
 10
-5.34967452836798
 20
-27.5
 30
0.0
 11
-4.84967452836798
 21
-28.0
 31
0.0
  0
LINE
  5
173
330
1E
100
AcDbEntity
  8
1
 62
     7
100
AcDbLine
 10
-4.84967452836798
 20
-28.0
 30
0.0
 11
-1.74967452836798
 21
-28.0
 31
0.0
  0
LINE
  5
174
330
1E
100
AcDbEntity
  8
1
 62
     7
100
AcDbLine
 10
-1.34967452836798
 20
-28.39999999999999
 30
0.0
 11
-1.34967452836798
 21
-36.0
 31
0.0
  0
LINE
  5
175
330
1E
100
AcDbEntity
  8
1
 62
     7
100
AcDbLine
 10
-1.34967452836798
 20
-28.39999999999999
 30
0.0
 11
-1.34967452836798
 21
-36.0
 31
0.0
  0
LINE
  5
176
330
1E
100
AcDbEntity
  8
1
 62
     7
100
AcDbLine
 10
-0.8496745283679828
 20
-36.5
 30
0.0
 11
-1.34967452836798
 21
-36.0
 31
0.0
  0
LINE
  5
177
330
1E
100
AcDbEntity
  8
1
 62
     7
100
AcDbLine
 10
-12.349674528368
 20
20.8
 30
0.0
 11
-12.349674528368
 21
20.4
 31
0.0
  0
LINE
  5
178
330
1E
100
AcDbEntity
  8
1
 62
     7
100
AcDbLine
 10
-13.349674528368
 20
20.8
 30
0.0
 11
-13.349674528368
 21
20.4
 31
0.0
  0
LINE
  5
179
330
1E
100
AcDbEntity
  8
1
 62
     7
100
AcDbLine
 10
-13.249674528368
 20
20.3
 30
0.0
 11
-12.449674528368
 21
20.3
 31
0.0
  0
LINE
  5
17A
330
1E
100
AcDbEntity
  8
1
 62
     7
100
AcDbLine
 10
-14.049674528368
 20
18.5
 30
0.0
 11
-9.849674528367987
 21
18.5
 31
0.0
  0
LINE
  5
17B
330
1E
100
AcDbEntity
  8
1
 62
     7
100
AcDbLine
 10
-14.049674528368
 20
20.69999999999998
 30
0.0
 11
-14.049674528368
 21
18.20547957062769
 31
0.0
  0
LINE
  5
17C
330
1E
100
AcDbEntity
  8
1
 62
     7
100
AcDbLine
 10
-9.849674528367987
 20
18.5
 30
0.0
 11
-9.849674528367987
 21
17.9582046396813
 31
0.0
  0
LINE
  5
17D
330
1E
100
AcDbEntity
  8
1
 62
     7
100
AcDbLine
 10
-9.849674528367987
 20
18.5
 30
0.0
 11
-8.117623720799109
 21
21.49999999999999
 31
0.0
  0
LINE
  5
17E
330
1E
100
AcDbEntity
  8
1
 62
     7
100
AcDbLine
 10
-8.117623720799109
 20
21.49999999999999
 30
0.0
 11
-2.34967452836798
 21
21.49999999999999
 31
0.0
  0
LINE
  5
17F
330
1E
100
AcDbEntity
  8
1
 62
     7
100
AcDbLine
 10
-1.34967452836798
 20
20.5
 30
0.0
 11
-1.34967452836798
 21
17.3524268327398
 31
0.0
  0
LINE
  5
180
330
1E
100
AcDbEntity
  8
1
 62
     7
100
AcDbLine
 10
-12.349674528368
 20
-20.4
 30
0.0
 11
-12.349674528368
 21
-20.8
 31
0.0
  0
LINE
  5
181
330
1E
100
AcDbEntity
  8
1
 62
     7
100
AcDbLine
 10
-13.349674528368
 20
-20.4
 30
0.0
 11
-13.349674528368
 21
-20.8
 31
0.0
  0
LINE
  5
182
330
1E
100
AcDbEntity
  8
1
 62
     7
100
AcDbLine
 10
-12.449674528368
 20
-20.3
 30
0.0
 11
-13.249674528368
 21
-20.3
 31
0.0
  0
LINE
  5
183
330
1E
100
AcDbEntity
  8
1
 62
     7
100
AcDbLine
 10
-9.849674528367987
 20
-18.5
 30
0.0
 11
-14.049674528368
 21
-18.5
 31
0.0
  0
LINE
  5
184
330
1E
100
AcDbEntity
  8
1
 62
     7
100
AcDbLine
 10
-14.049674528368
 20
-18.20547957062769
 30
0.0
 11
-14.049674528368
 21
-20.69999999999998
 31
0.0
  0
LINE
  5
185
330
1E
100
AcDbEntity
  8
1
 62
     7
100
AcDbLine
 10
-9.849674528367987
 20
-17.9582046396813
 30
0.0
 11
-9.849674528367987
 21
-18.5
 31
0.0
  0
LINE
  5
186
330
1E
100
AcDbEntity
  8
1
 62
     7
100
AcDbLine
 10
-8.117623720799098
 20
-21.49999999999999
 30
0.0
 11
-9.849674528367987
 21
-18.5
 31
0.0
  0
LINE
  5
187
330
1E
100
AcDbEntity
  8
1
 62
     7
100
AcDbLine
 10
-2.34967452836798
 20
-21.49999999999999
 30
0.0
 11
-8.117623720799098
 21
-21.49999999999999
 31
0.0
  0
LINE
  5
188
330
1E
100
AcDbEntity
  8
1
 62
     7
100
AcDbLine
 10
-1.34967452836798
 20
-17.3524268327398
 30
0.0
 11
-1.34967452836798
 21
-20.5
 31
0.0
  0
LINE
  5
189
330
1E
100
AcDbEntity
  8
1
 62
     7
100
AcDbLine
 10
-13.849674528368
 20
20.89999999999998
 30
0.0
 11
-14.049674528368
 21
20.69999999999998
 31
0.0
  0
LINE
  5
18A
330
1E
100
AcDbEntity
  8
1
 62
     7
100
AcDbLine
 10
-11.849674528368
 20
27.3
 30
0.0
 11
-11.649674528368
 21
27.5
 31
0.0
  0
LINE
  5
18B
330
1E
100
AcDbEntity
  8
1
 62
     7
100
AcDbLine
 10
-11.849674528368
 20
-27.3
 30
0.0
 11
-11.649674528368
 21
-27.5
 31
0.0
  0
LINE
  5
18C
330
1E
100
AcDbEntity
  8
1
 62
     7
100
AcDbLine
 10
-13.849674528368
 20
-20.89999999999998
 30
0.0
 11
-14.049674528368
 21
-20.69999999999998
 31
0.0
  0
LINE
  5
18D
330
1E
100
AcDbEntity
  8
1
  6
CENTER
 62
     3
100
AcDbLine
 10
16.0835257256982
 20
0.0
 30
0.0
 11
-32.6400963256817
 21
0.0
 31
0.0
  0
LINE
  5
18E
330
1E
100
AcDbEntity
  8
1
 62
     7
100
AcDbLine
 10
-28.049674528368
 20
14.19999999999999
 30
0.0
 11
-28.249674528368
 21
14.19999999999999
 31
0.0
  0
LINE
  5
18F
330
1E
100
AcDbEntity
  8
1
 62
     7
100
AcDbLine
 10
-28.049674528368
 20
14.9
 30
0.0
 11
-28.249674528368
 21
14.9
 31
0.0
  0
LINE
  5
190
330
1E
100
AcDbEntity
  8
1
 62
     7
100
AcDbLine
 10
-27.949674528368
 20
14.8
 30
0.0
 11
-27.949674528368
 21
14.3
 31
0.0
  0
LINE
  5
191
330
1E
100
AcDbEntity
  8
1
 62
     7
100
AcDbLine
 10
-15.8496744742008
 20
14.0
 30
0.0
 11
-14.849674528368
 21
14.9999999458328
 31
0.0
  0
LINE
  5
192
330
1E
100
AcDbEntity
  8
1
 62
     7
100
AcDbLine
 10
-14.849674528368
 20
17.05
 30
0.0
 11
-14.849674528368
 21
14.39095154495698
 31
0.0
  0
LINE
  5
193
330
1E
100
AcDbEntity
  8
1
 62
     7
100
AcDbLine
 10
-22.649674528368
 20
17.05
 30
0.0
 11
-20.5209948719276
 21
17.05
 31
0.0
  0
LINE
  5
194
330
1E
100
AcDbEntity
  8
1
 62
     7
100
AcDbLine
 10
-14.849674528368
 20
17.05
 30
0.0
 11
-17.1783541848083
 21
17.05
 31
0.0
  0
LINE
  5
195
330
1E
100
AcDbEntity
  8
1
 62
     7
100
AcDbLine
 10
-18.949674528368
 20
15.0
 30
0.0
 11
-18.749674528368
 21
15.0
 31
0.0
  0
LINE
  5
196
330
1E
100
AcDbEntity
  8
1
 62
     7
100
AcDbLine
 10
-18.549674528368
 20
15.2
 30
0.0
 11
-18.549674528368
 21
15.6786796564404
 31
0.0
  0
LINE
  5
197
330
1E
100
AcDbEntity
  8
1
 62
     7
100
AcDbLine
 10
-16.8697755410456
 20
17.35857864376268
 30
0.0
 11
-18.70825317213069
 21
15.52010101267768
 31
0.0
  0
LINE
  5
198
330
1E
100
AcDbEntity
  8
1
 62
     7
100
AcDbLine
 10
-19.14967452836799
 20
15.2
 30
0.0
 11
-19.14967452836799
 21
15.6786796564404
 31
0.0
  0
LINE
  5
199
330
1E
100
AcDbEntity
  8
1
 62
     7
100
AcDbLine
 10
-20.82957351569028
 20
17.35857864376268
 30
0.0
 11
-18.9910958846053
 21
15.52010101267768
 31
0.0
  0
LINE
  5
19A
330
1E
100
AcDbEntity
  8
1
 62
     7
100
AcDbLine
 10
-28.049674528368
 20
15.5
 30
0.0
 11
-28.349674528368
 21
15.2
 31
0.0
  0
LINE
  5
19B
330
1E
100
AcDbEntity
  8
1
 62
     7
100
AcDbLine
 10
-28.349674528368
 20
6.0
 30
0.0
 11
-27.849674528368
 21
5.5
 31
0.0
  0
LINE
  5
19C
330
1E
100
AcDbEntity
  8
1
 62
     7
100
AcDbLine
 10
-16.349674528368
 20
5.5
 30
0.0
 11
-15.84970162237899
 21
5.999972905988927
 31
0.0
  0
LINE
  5
19D
330
1E
100
AcDbEntity
  8
1
 62
     7
100
AcDbLine
 10
-22.649674528368
 20
-15.5
 30
0.0
 11
-28.049674528368
 21
-15.5
 31
0.0
  0
LINE
  5
19E
330
1E
100
AcDbEntity
  8
1
 62
     7
100
AcDbLine
 10
-22.649674528368
 20
-17.05
 30
0.0
 11
-22.649674528368
 21
-15.5
 31
0.0
  0
LINE
  5
19F
330
1E
100
AcDbEntity
  8
1
 62
     7
100
AcDbLine
 10
-28.249674528368
 20
-14.19999999999999
 30
0.0
 11
-28.049674528368
 21
-14.19999999999999
 31
0.0
  0
LINE
  5
1A0
330
1E
100
AcDbEntity
  8
1
 62
     7
100
AcDbLine
 10
-28.249674528368
 20
-14.9
 30
0.0
 11
-28.049674528368
 21
-14.9
 31
0.0
  0
LINE
  5
1A1
330
1E
100
AcDbEntity
  8
1
 62
     7
100
AcDbLine
 10
-27.949674528368
 20
-14.3
 30
0.0
 11
-27.949674528368
 21
-14.8
 31
0.0
  0
LINE
  5
1A2
330
1E
100
AcDbEntity
  8
1
 62
     7
100
AcDbLine
 10
-15.8496744742008
 20
-14.0
 30
0.0
 11
-15.8496744742008
 21
-11.49994567519968
 31
0.0
  0
LINE
  5
1A3
330
1E
100
AcDbEntity
  8
1
 62
     7
100
AcDbLine
 10
-14.849674528368
 20
-14.9999999458328
 30
0.0
 11
-15.8496744742008
 21
-14.0
 31
0.0
  0
LINE
  5
1A4
330
1E
100
AcDbEntity
  8
1
 62
     7
100
AcDbLine
 10
-14.849674528368
 20
-14.39095154495698
 30
0.0
 11
-14.849674528368
 21
-17.05
 31
0.0
  0
LINE
  5
1A5
330
1E
100
AcDbEntity
  8
1
 62
     7
100
AcDbLine
 10
-18.9910958846053
 20
-19.4798989873223
 30
0.0
 11
-20.82957351569028
 21
-17.6414213562373
 31
0.0
  0
LINE
  5
1A6
330
1E
100
AcDbEntity
  8
1
 62
     7
100
AcDbLine
 10
-18.70825317213069
 20
-19.4798989873223
 30
0.0
 11
-18.549674528368
 21
-19.32132034355969
 31
0.0
  0
LINE
  5
1A7
330
1E
100
AcDbEntity
  8
1
 62
     7
100
AcDbLine
 10
-20.5209948719276
 20
-17.05
 30
0.0
 11
-22.649674528368
 21
-17.05
 31
0.0
  0
LINE
  5
1A8
330
1E
100
AcDbEntity
  8
1
 62
     7
100
AcDbLine
 10
-17.1783541848083
 20
-17.05
 30
0.0
 11
-14.849674528368
 21
-17.05
 31
0.0
  0
LINE
  5
1A9
330
1E
100
AcDbEntity
  8
1
 62
     7
100
AcDbLine
 10
-18.749674528368
 20
-15.0
 30
0.0
 11
-18.949674528368
 21
-15.0
 31
0.0
  0
LINE
  5
1AA
330
1E
100
AcDbEntity
  8
1
 62
     7
100
AcDbLine
 10
-18.549674528368
 20
-15.6786796564404
 30
0.0
 11
-18.549674528368
 21
-15.2
 31
0.0
  0
LINE
  5
1AB
330
1E
100
AcDbEntity
  8
1
 62
     7
100
AcDbLine
 10
-18.70825317213069
 20
-15.52010101267768
 30
0.0
 11
-16.8697755410456
 21
-17.35857864376268
 31
0.0
  0
LINE
  5
1AC
330
1E
100
AcDbEntity
  8
1
 62
     7
100
AcDbLine
 10
-19.14967452836799
 20
-15.6786796564404
 30
0.0
 11
-19.14967452836799
 21
-15.2
 31
0.0
  0
LINE
  5
1AD
330
1E
100
AcDbEntity
  8
1
 62
     7
100
AcDbLine
 10
-18.9910958846053
 20
-15.52010101267768
 30
0.0
 11
-20.82957351569028
 21
-17.35857864376268
 31
0.0
  0
LINE
  5
1AE
330
1E
100
AcDbEntity
  8
1
 62
     7
100
AcDbLine
 10
-28.349674528368
 20
-15.2
 30
0.0
 11
-28.049674528368
 21
-15.5
 31
0.0
  0
LINE
  5
1AF
330
1E
100
AcDbEntity
  8
1
 62
     7
100
AcDbLine
 10
-27.849674528368
 20
-5.5
 30
0.0
 11
-28.349674528368
 21
-6.0
 31
0.0
  0
LINE
  5
1B0
330
1E
100
AcDbEntity
  8
1
 62
     7
100
AcDbLine
 10
-15.84970162237899
 20
-5.999972905988918
 30
0.0
 11
-16.349674528368
 21
-5.5
 31
0.0
  0
LINE
  5
1B1
330
1E
100
AcDbEntity
  8
1
 62
     7
100
AcDbLine
 10
-24.249674528368
 20
21.25
 30
0.0
 11
-27.649674528368
 21
21.25
 31
0.0
  0
LINE
  5
1B2
330
1E
100
AcDbEntity
  8
1
 62
     7
100
AcDbLine
 10
-23.649674528368
 20
27.5
 30
0.0
 11
-19.049674528368
 21
27.5
 31
0.0
  0
LINE
  5
1B3
330
1E
100
AcDbEntity
  8
1
 62
     7
100
AcDbLine
 10
-23.649674528368
 20
27.5
 30
0.0
 11
-23.849674528368
 21
27.3
 31
0.0
  0
LINE
  5
1B4
330
1E
100
AcDbEntity
  8
1
 62
     7
100
AcDbLine
 10
-11.849674528368
 20
27.3
 30
0.0
 11
-12.049674528368
 21
27.5
 31
0.0
  0
LINE
  5
1B5
330
1E
100
AcDbEntity
  8
1
 62
     7
100
AcDbLine
 10
-27.349674528368
 20
20.0
 30
0.0
 11
-27.849674528368
 21
20.2886751345948
 31
0.0
  0
LINE
  5
1B6
330
1E
100
AcDbEntity
  8
1
 62
     7
100
AcDbLine
 10
-27.849674528368
 20
21.04999999999998
 30
0.0
 11
-27.849674528368
 21
15.5
 31
0.0
  0
LINE
  5
1B7
330
1E
100
AcDbEntity
  8
1
 62
     7
100
AcDbLine
 10
-22.849674528368
 20
20.0
 30
0.0
 11
-22.849674528368
 21
15.5
 31
0.0
  0
LINE
  5
1B8
330
1E
100
AcDbEntity
  8
1
 62
     7
100
AcDbLine
 10
-22.649674528368
 20
20.0
 30
0.0
 11
-27.849674528368
 21
20.0
 31
0.0
  0
LINE
  5
1B9
330
1E
100
AcDbEntity
  8
1
 62
     7
100
AcDbLine
 10
-28.049674528368
 20
15.5
 30
0.0
 11
-22.649674528368
 21
15.5
 31
0.0
  0
LINE
  5
1BA
330
1E
100
AcDbEntity
  8
1
 62
     7
100
AcDbLine
 10
-22.649674528368
 20
17.94999999999999
 30
0.0
 11
-20.5209948719276
 21
17.94999999999999
 31
0.0
  0
LINE
  5
1BB
330
1E
100
AcDbEntity
  8
1
 62
     7
100
AcDbLine
 10
-22.649674528368
 20
20.0
 30
0.0
 11
-22.649674528368
 21
15.5
 31
0.0
  0
LINE
  5
1BC
330
1E
100
AcDbEntity
  8
1
 62
     7
100
AcDbLine
 10
-14.349674528368
 20
17.94999999999999
 30
0.0
 11
-17.1783541848083
 21
17.94999999999999
 31
0.0
  0
LINE
  5
1BD
330
1E
100
AcDbEntity
  8
1
 62
     7
100
AcDbLine
 10
-14.349674528368
 20
20.69999999999998
 30
0.0
 11
-14.349674528368
 21
16.73670560853499
 31
0.0
  0
LINE
  5
1BE
330
1E
100
AcDbEntity
  8
1
 62
     7
100
AcDbLine
 10
-16.8697755410456
 20
17.6414213562373
 30
0.0
 11
-18.70825317213069
 21
19.4798989873223
 31
0.0
  0
LINE
  5
1BF
330
1E
100
AcDbEntity
  8
1
 62
     7
100
AcDbLine
 10
-12.149674528368
 20
20.89999999999998
 30
0.0
 11
-11.849674528368
 21
21.2
 31
0.0
  0
LINE
  5
1C0
330
1E
100
AcDbEntity
  8
1
 62
     7
100
AcDbLine
 10
-14.149674528368
 20
20.89999999999998
 30
0.0
 11
-12.049674528368
 21
20.89999999999998
 31
0.0
  0
LINE
  5
1C1
330
1E
100
AcDbEntity
  8
1
 62
     7
100
AcDbLine
 10
-18.949674528368
 20
20.0
 30
0.0
 11
-18.749674528368
 21
20.0
 31
0.0
  0
LINE
  5
1C2
330
1E
100
AcDbEntity
  8
1
 62
     7
100
AcDbLine
 10
-19.14967452836799
 20
19.8
 30
0.0
 11
-19.14967452836799
 21
19.3213203435596
 31
0.0
  0
LINE
  5
1C3
330
1E
100
AcDbEntity
  8
1
 62
     7
100
AcDbLine
 10
-20.82957351569028
 20
17.6414213562373
 30
0.0
 11
-18.9910958846053
 21
19.4798989873223
 31
0.0
  0
LINE
  5
1C4
330
1E
100
AcDbEntity
  8
1
 62
     7
100
AcDbLine
 10
-18.649674528368
 20
27.5
 30
0.0
 11
-12.049674528368
 21
27.5
 31
0.0
  0
LINE
  5
1C5
330
1E
100
AcDbEntity
  8
1
 62
     7
100
AcDbLine
 10
-27.649674528368
 20
-21.25
 30
0.0
 11
-24.249674528368
 21
-21.25
 31
0.0
  0
LINE
  5
1C6
330
1E
100
AcDbEntity
  8
1
 62
     7
100
AcDbLine
 10
-27.849674528368
 20
-20.2886751345948
 30
0.0
 11
-27.349674528368
 21
-20.0
 31
0.0
  0
LINE
  5
1C7
330
1E
100
AcDbEntity
  8
1
 62
     7
100
AcDbLine
 10
-27.849674528368
 20
-15.5
 30
0.0
 11
-27.849674528368
 21
-21.04999999999998
 31
0.0
  0
LINE
  5
1C8
330
1E
100
AcDbEntity
  8
1
 62
     7
100
AcDbLine
 10
-27.849674528368
 20
-20.0
 30
0.0
 11
-22.649674528368
 21
-20.0
 31
0.0
  0
LINE
  5
1C9
330
1E
100
AcDbEntity
  8
1
 62
     7
100
AcDbLine
 10
-22.849674528368
 20
-15.5
 30
0.0
 11
-22.849674528368
 21
-20.0
 31
0.0
  0
LINE
  5
1CA
330
1E
100
AcDbEntity
  8
1
 62
     7
100
AcDbLine
 10
-22.649674528368
 20
-17.94999999999999
 30
0.0
 11
-22.649674528368
 21
-20.0
 31
0.0
  0
LINE
  5
1CB
330
1E
100
AcDbEntity
  8
1
 62
     7
100
AcDbLine
 10
-20.5209948719276
 20
-17.94999999999999
 30
0.0
 11
-22.649674528368
 21
-17.94999999999999
 31
0.0
  0
LINE
  5
1CC
330
1E
100
AcDbEntity
  8
1
 62
     7
100
AcDbLine
 10
-20.5209948719276
 20
-17.94999999999999
 30
0.0
 11
-22.649674528368
 21
-17.94999999999999
 31
0.0
  0
LINE
  5
1CD
330
1E
100
AcDbEntity
  8
1
 62
     7
100
AcDbLine
 10
-20.5209948719276
 20
-17.05
 30
0.0
 11
-22.649674528368
 21
-17.05
 31
0.0
  0
LINE
  5
1CE
330
1E
100
AcDbEntity
  8
1
 62
     7
100
AcDbLine
 10
-22.649674528368
 20
-20.0
 30
0.0
 11
-22.649674528368
 21
-15.5
 31
0.0
  0
LINE
  5
1CF
330
1E
100
AcDbEntity
  8
1
 62
     7
100
AcDbLine
 10
-18.849674528368
 20
-20.0
 30
0.0
 11
-18.949674528368
 21
-20.0
 31
0.0
  0
LINE
  5
1D0
330
1E
100
AcDbEntity
  8
1
 62
     7
100
AcDbLine
 10
-18.70825317213069
 20
-19.4798989873223
 30
0.0
 11
-16.8697755410456
 21
-17.6414213562373
 31
0.0
  0
LINE
  5
1D1
330
1E
100
AcDbEntity
  8
1
 62
     7
100
AcDbLine
 10
-19.14967452836799
 20
-19.32132034355969
 30
0.0
 11
-19.14967452836799
 21
-19.8
 31
0.0
  0
LINE
  5
1D2
330
1E
100
AcDbEntity
  8
1
 62
     7
100
AcDbLine
 10
-18.9910958846053
 20
-19.4798989873223
 30
0.0
 11
-19.14967452836799
 21
-19.32132034355969
 31
0.0
  0
LINE
  5
1D3
330
1E
100
AcDbEntity
  8
1
 62
     7
100
AcDbLine
 10
-19.049674528368
 20
-27.5
 30
0.0
 11
-23.649674528368
 21
-27.5
 31
0.0
  0
LINE
  5
1D4
330
1E
100
AcDbEntity
  8
1
 62
     7
100
AcDbLine
 10
-23.849674528368
 20
-27.3
 30
0.0
 11
-23.649674528368
 21
-27.5
 31
0.0
  0
LINE
  5
1D5
330
1E
100
AcDbEntity
  8
1
 62
     7
100
AcDbLine
 10
-12.049674528368
 20
-27.5
 30
0.0
 11
-18.649674528368
 21
-27.5
 31
0.0
  0
LINE
  5
1D6
330
1E
100
AcDbEntity
  8
1
 62
     7
100
AcDbLine
 10
-12.049674528368
 20
-27.5
 30
0.0
 11
-11.849674528368
 21
-27.3
 31
0.0
  0
LINE
  5
1D7
330
1E
100
AcDbEntity
  8
1
 62
     7
100
AcDbLine
 10
-17.1783541848083
 20
-17.94999999999999
 30
0.0
 11
-14.349674528368
 21
-17.94999999999999
 31
0.0
  0
LINE
  5
1D8
330
1E
100
AcDbEntity
  8
1
 62
     7
100
AcDbLine
 10
-14.349674528368
 20
-16.73670560853499
 30
0.0
 11
-14.349674528368
 21
-20.69999999999998
 31
0.0
  0
LINE
  5
1D9
330
1E
100
AcDbEntity
  8
1
 62
     7
100
AcDbLine
 10
-12.049674528368
 20
-20.89999999999998
 30
0.0
 11
-14.149674528368
 21
-20.89999999999998
 31
0.0
  0
LINE
  5
1DA
330
1E
100
AcDbEntity
  8
1
 62
     7
100
AcDbLine
 10
-11.849674528368
 20
-21.2
 30
0.0
 11
-12.149674528368
 21
-20.89999999999998
 31
0.0
  0
LINE
  5
1DB
330
1E
100
AcDbEntity
  8
1
 62
     3
100
AcDbLine
 10
-28.349674528368
 20
-9.5
 30
0.0
 11
-20.349674528368
 21
-9.5
 31
0.0
  0
LINE
  5
1DC
330
1E
100
AcDbEntity
  8
1
 62
     3
100
AcDbLine
 10
-20.349674528368
 20
-9.5
 30
0.0
 11
-19.65685420534039
 21
-9.900000000000007
 31
0.0
  0
LINE
  5
1DD
330
1E
100
AcDbEntity
  8
1
 62
     3
100
AcDbLine
 10
-19.65685420534039
 20
-13.1
 30
0.0
 11
-20.349674528368
 21
-13.5
 31
0.0
  0
LINE
  5
1DE
330
1E
100
AcDbEntity
  8
1
 62
     3
100
AcDbLine
 10
-20.349674528368
 20
-13.5
 30
0.0
 11
-28.349674528368
 21
-13.5
 31
0.0
  0
LINE
  5
1DF
330
1E
100
AcDbEntity
  8
1
 62
     7
100
AcDbLine
 10
-28.349674528368
 20
-9.900000000000007
 30
0.0
 11
-15.8496744742008
 21
-9.900000000000007
 31
0.0
  0
LINE
  5
1E0
330
1E
100
AcDbEntity
  8
1
 62
     7
100
AcDbLine
 10
-15.8496744742008
 20
-9.900000000000007
 30
0.0
 11
-15.8496744742008
 21
-13.1
 31
0.0
  0
LINE
  5
1E1
330
1E
100
AcDbEntity
  8
1
 62
     7
100
AcDbLine
 10
-20.349674528368
 20
-9.5
 30
0.0
 11
-20.349674528368
 21
-13.5
 31
0.0
  0
LINE
  5
1E2
330
1E
100
AcDbEntity
  8
1
 62
     7
100
AcDbLine
 10
-15.8496744742008
 20
-13.1
 30
0.0
 11
-28.349674528368
 21
-13.1
 31
0.0
  0
LINE
  5
1E3
330
1E
100
AcDbEntity
  8
1
  6
CENTER
 62
     3
100
AcDbLine
 10
-29.14967452836798
 20
-11.5
 30
0.0
 11
-15.8496744742008
 21
-11.5
 31
0.0
  0
LINE
  5
1E4
330
1E
100
AcDbEntity
  8
1
 62
     7
100
AcDbLine
 10
-22.9496744742008
 20
9.9
 30
0.0
 11
-28.349674528368
 21
9.9
 31
0.0
  0
LINE
  5
1E5
330
1E
100
AcDbEntity
  8
1
 62
     7
100
AcDbLine
 10
-28.349674528368
 20
7.099999999999997
 30
0.0
 11
-22.9496744742008
 21
7.099999999999997
 31
0.0
  0
LINE
  5
1E6
330
1E
100
AcDbEntity
  8
1
 62
     7
100
AcDbLine
 10
-23.8496744742008
 20
10.5
 30
0.0
 11
-23.8496744742008
 21
6.5
 31
0.0
  0
LINE
  5
1E7
330
1E
100
AcDbEntity
  8
1
 62
     3
100
AcDbLine
 10
-22.3496744742008
 20
10.5
 30
0.0
 11
-23.8496744742008
 21
10.5
 31
0.0
  0
LINE
  5
1E8
330
1E
100
AcDbEntity
  8
1
 62
     3
100
AcDbLine
 10
-23.8496744742008
 20
6.5
 30
0.0
 11
-22.3496744742008
 21
6.5
 31
0.0
  0
LINE
  5
1E9
330
1E
100
AcDbEntity
  8
1
  6
CENTER
 62
     3
100
AcDbLine
 10
-6.149674474200788
 20
8.5
 30
0.0
 11
-29.576994569904
 21
8.5
 31
0.0
  0
LINE
  5
1EA
330
1E
100
AcDbEntity
  8
1
 62
     7
100
AcDbLine
 10
-13.4496744742008
 20
10.74999999999999
 30
0.0
 11
-10.9496744742008
 21
10.74999999999999
 31
0.0
  0
LINE
  5
1EB
330
1E
100
AcDbEntity
  8
1
 62
     7
100
AcDbLine
 10
-10.9496744742008
 20
12.25
 30
0.0
 11
-12.2496744742008
 21
12.25
 31
0.0
  0
LINE
  5
1EC
330
1E
100
AcDbEntity
  8
1
 62
     7
100
AcDbLine
 10
-13.4496744742008
 20
6.25
 30
0.0
 11
-10.9496744742008
 21
6.25
 31
0.0
  0
LINE
  5
1ED
330
1E
100
AcDbEntity
  8
1
 62
     7
100
AcDbLine
 10
-13.4496744742008
 20
11.05
 30
0.0
 11
-13.4496744742008
 21
10.5
 31
0.0
  0
LINE
  5
1EE
330
1E
100
AcDbEntity
  8
1
 62
     7
100
AcDbLine
 10
-13.474778423763
 20
6.5
 30
0.0
 11
-13.474778423763
 21
6.25
 31
0.0
  0
LINE
  5
1EF
330
1E
100
AcDbEntity
  8
1
 62
     7
100
AcDbLine
 10
-10.9496744742008
 20
12.25
 30
0.0
 11
-10.9496744742008
 21
10.5
 31
0.0
  0
LINE
  5
1F0
330
1E
100
AcDbEntity
  8
1
 62
     7
100
AcDbLine
 10
-18.9496744742008
 20
4.0
 30
0.0
 11
-10.9496744742008
 21
4.0
 31
0.0
  0
LINE
  5
1F1
330
1E
100
AcDbEntity
  8
1
 62
     7
100
AcDbLine
 10
-15.8496744742008
 20
14.0
 30
0.0
 11
-15.8496744742008
 21
10.5
 31
0.0
  0
LINE
  5
1F2
330
1E
100
AcDbEntity
  8
1
 62
     7
100
AcDbLine
 10
-15.8496744742008
 20
5.5
 30
0.0
 11
-15.8496744742008
 21
6.5
 31
0.0
  0
LINE
  5
1F3
330
1E
100
AcDbEntity
  8
1
 62
     7
100
AcDbLine
 10
-13.4496744742008
 20
5.5
 30
0.0
 11
-13.4496744742008
 21
6.25
 31
0.0
  0
LINE
  5
1F4
330
1E
100
AcDbEntity
  8
1
 62
     7
100
AcDbLine
 10
-18.9496744742008
 20
-4.0
 30
0.0
 11
-10.9496744742008
 21
-4.0
 31
0.0
  0
LINE
  5
1F5
330
1E
100
AcDbEntity
  8
1
 62
     7
100
AcDbLine
 10
-10.9496744742008
 20
12.0
 30
0.0
 11
-10.9496744742008
 21
-12.25
 31
0.0
  0
LINE
  5
1F6
330
1E
100
AcDbEntity
  8
1
 62
     7
100
AcDbLine
 10
-10.9496744742008
 20
-12.25
 30
0.0
 11
-12.2496744742008
 21
-12.25
 31
0.0
  0
LINE
  5
1F7
330
1E
100
AcDbEntity
  8
1
 62
     7
100
AcDbLine
 10
-18.4496744742008
 20
5.5
 30
0.0
 11
-18.9496744742008
 21
5.0
 31
0.0
  0
LINE
  5
1F8
330
1E
100
AcDbEntity
  8
1
 62
     7
100
AcDbLine
 10
-18.9496744742008
 20
-5.0
 30
0.0
 11
-18.4496744742008
 21
-5.5
 31
0.0
  0
LINE
  5
1F9
330
1E
100
AcDbEntity
  8
1
 62
     7
100
AcDbLine
 10
-13.4496744742008
 20
-5.5
 30
0.0
 11
-27.849674528368
 21
-5.5
 31
0.0
  0
LINE
  5
1FA
330
1E
100
AcDbEntity
  8
1
 62
     7
100
AcDbLine
 10
-13.4496744742008
 20
5.5
 30
0.0
 11
-27.849674528368
 21
5.5
 31
0.0
  0
LINE
  5
1FB
330
1E
100
AcDbEntity
  8
1
 62
     7
100
AcDbLine
 10
-27.849674528368
 20
5.5
 30
0.0
 11
-27.849674528368
 21
-5.5
 31
0.0
  0
LINE
  5
1FC
330
1E
100
AcDbEntity
  8
1
 62
     7
100
AcDbLine
 10
-19.2996744742008
 20
-6.25
 30
0.0
 11
-19.2996744742008
 21
-8.75
 31
0.0
  0
LINE
  5
1FD
330
1E
100
AcDbEntity
  8
1
 62
     7
100
AcDbLine
 10
-13.9996744742008
 20
-6.25
 30
0.0
 11
-13.9996744742008
 21
-8.75
 31
0.0
  0
LINE
  5
1FE
330
1E
100
AcDbEntity
  8
1
 62
     7
100
AcDbLine
 10
-20.6996744742008
 20
-6.25
 30
0.0
 11
-13.4496744742008
 21
-6.25
 31
0.0
  0
LINE
  5
1FF
330
1E
100
AcDbEntity
  8
1
 62
     7
100
AcDbLine
 10
-20.6996744742008
 20
-8.75
 30
0.0
 11
-13.4496744742008
 21
-8.75
 31
0.0
  0
LINE
  5
200
330
1E
100
AcDbEntity
  8
1
  6
CENTER
 62
     3
100
AcDbLine
 10
-28.655105908576
 20
-7.5
 30
0.0
 11
-13.4496744742008
 21
-7.5
 31
0.0
  0
LINE
  5
201
330
1E
100
AcDbEntity
  8
1
 62
     7
100
AcDbLine
 10
-13.4496744742008
 20
-5.5
 30
0.0
 11
-13.4496744742008
 21
-11.05
 31
0.0
  0
LINE
  5
202
330
1E
100
AcDbEntity
  8
1
 62
     7
100
AcDbLine
 10
-28.349674528368
 20
-6.45
 30
0.0
 11
-20.6996744742008
 21
-6.45
 31
0.0
  0
LINE
  5
203
330
1E
100
AcDbEntity
  8
1
 62
     7
100
AcDbLine
 10
-28.349674528368
 20
-8.54999999999999
 30
0.0
 11
-20.6996744742008
 21
-8.54999999999999
 31
0.0
  0
LINE
  5
204
330
1E
100
AcDbEntity
  8
1
 62
     7
100
AcDbLine
 10
-20.6996744742008
 20
-6.25
 30
0.0
 11
-20.6996744742008
 21
-8.75
 31
0.0
  0
LINE
  5
205
330
1E
100
AcDbEntity
  8
1
 62
     7
100
AcDbLine
 10
-19.6996744742008
 20
-6.35717967697245
 30
0.0
 11
-19.6996744742008
 21
-8.642820323027548
 31
0.0
  0
LINE
  5
206
330
1E
100
AcDbEntity
  8
1
 62
     7
100
AcDbLine
 10
-19.6996744742008
 20
-8.642820323027548
 30
0.0
 11
-19.2996744742008
 21
-8.75
 31
0.0
  0
LINE
  5
207
330
1E
100
AcDbEntity
  8
1
 62
     7
100
AcDbLine
 10
-19.6996744742008
 20
-6.35717967697245
 30
0.0
 11
-19.2996744742008
 21
-6.25
 31
0.0
  0
LINE
  5
208
330
1E
100
AcDbEntity
  8
1
 62
     7
100
AcDbLine
 10
-27.649674528368
 20
21.25
 30
0.0
 11
-27.849674528368
 21
21.04999999999998
 31
0.0
  0
LINE
  5
209
330
1E
100
AcDbEntity
  8
1
 62
     7
100
AcDbLine
 10
-27.649674528368
 20
-21.25
 30
0.0
 11
-27.849674528368
 21
-21.04999999999998
 31
0.0
  0
LINE
  5
20A
330
1E
100
AcDbEntity
  8
1
 62
     7
100
AcDbLine
 10
-11.849674528368
 20
-26.0
 30
0.0
 11
-11.849674528368
 21
-23.0
 31
0.0
  0
LINE
  5
20B
330
1E
100
AcDbEntity
  8
1
 62
     7
100
AcDbLine
 10
-11.849674528368
 20
-23.0
 30
0.0
 11
-11.849674528368
 21
-26.0
 31
0.0
  0
LINE
  5
20C
330
1E
100
AcDbEntity
  8
1
 62
     7
100
AcDbLine
 10
-7.84967452836798
 20
23.39999999999999
 30
0.0
 11
-3.449674528367977
 21
23.39999999999999
 31
0.0
  0
LINE
  5
20D
330
1E
100
AcDbEntity
  8
1
 62
     7
100
AcDbLine
 10
-3.449674528367977
 20
23.39999999999999
 30
0.0
 11
-3.449674528367977
 21
25.6
 31
0.0
  0
LINE
  5
20E
330
1E
100
AcDbEntity
  8
1
 62
     7
100
AcDbLine
 10
-3.449674528367977
 20
25.6
 30
0.0
 11
-7.84967452836798
 21
25.6
 31
0.0
  0
LINE
  5
20F
330
1E
100
AcDbEntity
  8
1
 62
     7
100
AcDbLine
 10
-3.449674528367977
 20
23.39999999999999
 30
0.0
 11
-2.81458923225941
 21
24.5
 31
0.0
  0
LINE
  5
210
330
1E
100
AcDbEntity
  8
1
 62
     7
100
AcDbLine
 10
-2.81458923225941
 20
24.5
 30
0.0
 11
-3.449674528367977
 21
25.6
 31
0.0
  0
LINE
  5
211
330
1E
100
AcDbEntity
  8
1
 62
     7
100
AcDbLine
 10
-5.84967452836798
 20
23.0
 30
0.0
 11
-5.84967452836798
 21
26.0
 31
0.0
  0
LINE
  5
212
330
1E
100
AcDbEntity
  8
1
 62
     3
100
AcDbLine
 10
-8.249674528367988
 20
23.0
 30
0.0
 11
-5.84967452836798
 21
23.0
 31
0.0
  0
LINE
  5
213
330
1E
100
AcDbEntity
  8
1
 62
     3
100
AcDbLine
 10
-5.84967452836798
 20
26.0
 30
0.0
 11
-8.249674528367988
 21
26.0
 31
0.0
  0
LINE
  5
214
330
1E
100
AcDbEntity
  8
1
  6
CENTER
 62
     3
100
AcDbLine
 10
-27.749674528368
 20
24.5
 30
0.0
 11
-1.914589232259399
 21
24.5
 31
0.0
  0
LINE
  5
215
330
1E
100
AcDbEntity
  8
1
 62
     7
100
AcDbLine
 10
-11.849674528368
 20
27.3
 30
0.0
 11
-11.849674528368
 21
26.0
 31
0.0
  0
LINE
  5
216
330
1E
100
AcDbEntity
  8
1
 62
     7
100
AcDbLine
 10
-23.849674528368
 20
27.3
 30
0.0
 11
-23.849674528368
 21
21.65
 31
0.0
  0
LINE
  5
217
330
1E
100
AcDbEntity
  8
1
 62
     7
100
AcDbLine
 10
-11.849674528368
 20
23.0
 30
0.0
 11
-11.849674528368
 21
21.1
 31
0.0
  0
LINE
  5
218
330
1E
100
AcDbEntity
  8
1
 62
     7
100
AcDbLine
 10
-18.9496744742008
 20
5.0
 30
0.0
 11
-18.9496744742008
 21
-5.0
 31
0.0
  0
LINE
  5
219
330
1E
100
AcDbEntity
  8
1
 62
     7
100
AcDbLine
 10
-28.349674528368
 20
15.2
 30
0.0
 11
-28.349674528368
 21
-15.2
 31
0.0
  0
LINE
  5
21A
330
1E
100
AcDbEntity
  8
1
 62
     7
100
AcDbLine
 10
6.050325471632017
 20
-19.0
 30
0.0
 11
7.450325471632018
 21
-19.0
 31
0.0
  0
LINE
  5
21B
330
1E
100
AcDbEntity
  8
1
 62
     7
100
AcDbLine
 10
7.650325471632018
 20
-15.8761670057233
 30
0.0
 11
7.650325471632018
 21
-18.8
 31
0.0
  0
LINE
  5
21C
330
1E
100
AcDbEntity
  8
1
 62
     7
100
AcDbLine
 10
7.650325471632018
 20
-18.8
 30
0.0
 11
7.450325471632018
 21
-19.0
 31
0.0
  0
LINE
  5
21D
330
1E
100
AcDbEntity
  8
1
 62
     7
100
AcDbLine
 10
7.650325471632018
 20
18.8
 30
0.0
 11
7.650325471632018
 21
15.8761670057233
 31
0.0
  0
LINE
  5
21E
330
1E
100
AcDbEntity
  8
1
 62
     7
100
AcDbLine
 10
7.450325471632018
 20
19.0
 30
0.0
 11
6.050325471632017
 21
19.0
 31
0.0
  0
LINE
  5
21F
330
1E
100
AcDbEntity
  8
1
 62
     7
100
AcDbLine
 10
7.450325471632018
 20
19.0
 30
0.0
 11
7.650325471632018
 21
18.8
 31
0.0
  0
LINE
  5
220
330
1E
100
AcDbEntity
  8
1
 62
     7
100
AcDbLine
 10
-13.849674528368
 20
-25.6
 30
0.0
 11
-11.849674528368
 21
-25.6
 31
0.0
  0
LINE
  5
221
330
1E
100
AcDbEntity
  8
1
 62
     7
100
AcDbLine
 10
-11.849674528368
 20
-27.3
 30
0.0
 11
-11.849674528368
 21
-21.1
 31
0.0
  0
LINE
  5
222
330
1E
100
AcDbEntity
  8
1
 62
     3
100
AcDbLine
 10
-14.249674528368
 20
-26.0
 30
0.0
 11
-11.849674528368
 21
-26.0
 31
0.0
  0
LINE
  5
223
330
1E
100
AcDbEntity
  8
1
 62
     3
100
AcDbLine
 10
-11.849674528368
 20
-23.0
 30
0.0
 11
-14.249674528368
 21
-23.0
 31
0.0
  0
LINE
  5
224
330
1E
100
AcDbEntity
  8
1
  6
CENTER
 62
     3
100
AcDbLine
 10
-27.749674528368
 20
-24.5
 30
0.0
 11
-10.7282337971615
 21
-24.5
 31
0.0
  0
LINE
  5
225
330
1E
100
AcDbEntity
  8
1
 62
     7
100
AcDbLine
 10
-11.849674528368
 20
-23.39999999999999
 30
0.0
 11
-13.849674528368
 21
-23.39999999999999
 31
0.0
  0
LINE
  5
226
330
1E
100
AcDbEntity
  8
1
 62
     7
100
AcDbLine
 10
-18.249674528368
 20
-21.14999999999997
 30
0.0
 11
-18.249674528368
 21
-20.24999999999999
 31
0.0
  0
LINE
  5
227
330
1E
100
AcDbEntity
  8
1
 62
     7
100
AcDbLine
 10
-18.549674528368
 20
-20.05
 30
0.0
 11
-18.549674528368
 21
-19.32132034355969
 31
0.0
  0
LINE
  5
228
330
1E
100
AcDbEntity
  8
1
 62
     7
100
AcDbLine
 10
-18.349674528368
 20
-21.25
 30
0.0
 11
-18.849674528368
 21
-21.25
 31
0.0
  0
LINE
  5
229
330
1E
100
AcDbEntity
  8
1
 62
     7
100
AcDbLine
 10
-18.349674528368
 20
-20.15
 30
0.0
 11
-18.44967452836797
 21
-20.15
 31
0.0
  0
LINE
  5
22A
330
1E
100
AcDbEntity
  8
1
 62
     7
100
AcDbLine
 10
-18.849674528368
 20
-26.25
 30
0.0
 11
-23.849674528368
 21
-26.25
 31
0.0
  0
LINE
  5
22B
330
1E
100
AcDbEntity
  8
1
 62
     7
100
AcDbLine
 10
-18.849674528368
 20
-27.3
 30
0.0
 11
-18.849674528368
 21
-26.0
 31
0.0
  0
LINE
  5
22C
330
1E
100
AcDbEntity
  8
1
 62
     7
100
AcDbLine
 10
-18.849674528368
 20
-22.74999999999999
 30
0.0
 11
-23.849674528368
 21
-22.74999999999999
 31
0.0
  0
LINE
  5
22D
330
1E
100
AcDbEntity
  8
1
 62
     7
100
AcDbLine
 10
-18.849674528368
 20
-23.0
 30
0.0
 11
-18.849674528368
 21
-19.538477631085
 31
0.0
  0
LINE
  5
22E
330
1E
100
AcDbEntity
  8
1
 62
     7
100
AcDbLine
 10
-23.849674528368
 20
-21.65
 30
0.0
 11
-23.849674528368
 21
-27.3
 31
0.0
  0
LINE
  5
22F
330
1E
100
AcDbEntity
  8
1
 62
     7
100
AcDbLine
 10
-18.44967452836797
 20
-20.15
 30
0.0
 11
-18.549674528368
 21
-20.05
 31
0.0
  0
LINE
  5
230
330
1E
100
AcDbEntity
  8
1
 62
     7
100
AcDbLine
 10
-11.849674528368
 20
26.25
 30
0.0
 11
-23.849674528368
 21
26.25
 31
0.0
  0
LINE
  5
231
330
1E
100
AcDbEntity
  8
1
 62
     7
100
AcDbLine
 10
-18.849674528368
 20
27.3
 30
0.0
 11
-18.849674528368
 21
26.0
 31
0.0
  0
LINE
  5
232
330
1E
100
AcDbEntity
  8
1
 62
     7
100
AcDbLine
 10
-11.849674528368
 20
22.74999999999999
 30
0.0
 11
-23.849674528368
 21
22.74999999999999
 31
0.0
  0
LINE
  5
233
330
1E
100
AcDbEntity
  8
1
 62
     7
100
AcDbLine
 10
-18.249674528368
 20
21.14999999999997
 30
0.0
 11
-18.249674528368
 21
20.24999999999999
 31
0.0
  0
LINE
  5
234
330
1E
100
AcDbEntity
  8
1
 62
     7
100
AcDbLine
 10
-18.549674528368
 20
19.3213203435596
 30
0.0
 11
-18.549674528368
 21
20.05
 31
0.0
  0
LINE
  5
235
330
1E
100
AcDbEntity
  8
1
 62
     7
100
AcDbLine
 10
-18.349674528368
 20
21.25
 30
0.0
 11
-18.849674528368
 21
21.25
 31
0.0
  0
LINE
  5
236
330
1E
100
AcDbEntity
  8
1
 62
     7
100
AcDbLine
 10
-18.849674528368
 20
23.0
 30
0.0
 11
-18.849674528368
 21
19.538477631085
 31
0.0
  0
LINE
  5
237
330
1E
100
AcDbEntity
  8
1
 62
     7
100
AcDbLine
 10
-18.349674528368
 20
20.15
 30
0.0
 11
-18.44967452836797
 21
20.15
 31
0.0
  0
LINE
  5
238
330
1E
100
AcDbEntity
  8
1
 62
     7
100
AcDbLine
 10
-18.44967452836797
 20
20.15
 30
0.0
 11
-18.549674528368
 21
20.05
 31
0.0
  0
LINE
  5
239
330
1E
100
AcDbEntity
  8
1
 62
     7
100
AcDbLine
 10
-18.649674528368
 20
27.5
 30
0.0
 11
-18.849674528368
 21
27.3
 31
0.0
  0
LINE
  5
23A
330
1E
100
AcDbEntity
  8
1
 62
     7
100
AcDbLine
 10
-18.849674528368
 20
27.3
 30
0.0
 11
-19.049674528368
 21
27.5
 31
0.0
  0
LINE
  5
23B
330
1E
100
AcDbEntity
  8
1
 62
     7
100
AcDbLine
 10
-18.649674528368
 20
-27.5
 30
0.0
 11
-18.849674528368
 21
-27.3
 31
0.0
  0
LINE
  5
23C
330
1E
100
AcDbEntity
  8
1
 62
     7
100
AcDbLine
 10
-18.849674528368
 20
-27.3
 30
0.0
 11
-19.049674528368
 21
-27.5
 31
0.0
  0
LINE
  5
23D
330
1E
100
AcDbEntity
  8
1
  6
CENTER
 62
     3
100
AcDbLine
 10
-87.12400210174351
 20
26.5615365596995
 30
0.0
 11
-83.67985121045771
 21
18.24662076709789
 31
0.0
  0
LINE
  5
23E
330
1E
100
AcDbEntity
  8
1
  6
CENTER
 62
     3
100
AcDbLine
 10
-49.56031686154769
 20
11.0021486804963
 30
0.0
 11
-57.87523265414929
 21
7.55799778921051
 31
0.0
  0
LINE
  5
23F
330
1E
100
AcDbEntity
  8
1
  6
CENTER
 62
     3
100
AcDbLine
 10
-65.11970474075089
 20
-26.5615365596995
 30
0.0
 11
-68.56385563203672
 21
-18.24662076709789
 31
0.0
  0
LINE
  5
240
330
1E
100
AcDbEntity
  8
1
  6
CENTER
 62
     3
100
AcDbLine
 10
-102.6833899809469
 20
-11.00214868049639
 30
0.0
 11
-94.36847418834508
 21
-7.55799778921053
 31
0.0
  0
LINE
  5
241
330
1E
100
AcDbEntity
  8
0
 62
     7
100
AcDbLine
 10
5.722825477508077
 20
-16.89799974538549
 30
0.0
 11
6.122825471511777
 21
-16.6670596411896
 31
0.0
  0
LINE
  5
242
330
1E
100
AcDbEntity
  8
0
 62
     7
100
AcDbLine
 10
6.122825471511777
 20
-16.6670596411896
 30
0.0
 11
6.122825471493975
 21
-16.3859997539521
 31
0.0
  0
LINE
  5
243
330
1E
100
AcDbEntity
  8
0
 62
     7
100
AcDbLine
 10
5.922825474503576
 20
-16.07507190828485
 30
0.0
 11
6.122825471493975
 21
-16.27507190532365
 31
0.0
  0
LINE
  5
244
330
1E
100
AcDbEntity
  8
0
 62
     7
100
AcDbLine
 10
3.740332274121076
 20
-16.07507190828485
 30
0.0
 11
5.922825474503576
 21
-16.07507190828485
 31
0.0
  0
LINE
  5
245
330
1E
100
AcDbEntity
  8
0
 62
     7
100
AcDbLine
 10
6.000325473350777
 20
-13.44866406554705
 30
0.0
 11
6.250325469584976
 21
-13.19866406935595
 31
0.0
  0
LINE
  5
246
330
1E
100
AcDbEntity
  8
0
 62
     7
100
AcDbLine
 10
6.250325469584976
 20
-12.7349998087418
 30
0.0
 11
6.250325469584976
 21
-13.19866406935595
 31
0.0
  0
LINE
  5
247
330
1E
100
AcDbEntity
  8
0
 62
     7
100
AcDbLine
 10
6.050325472589477
 20
-12.53499981174619
 30
0.0
 11
6.250325469584976
 21
-12.7349998087418
 31
0.0
  0
LINE
  5
248
330
1E
100
AcDbEntity
  8
0
 62
     7
100
AcDbLine
 10
-0.0996744350476231
 20
-12.7349998087418
 30
0.0
 11
0.1003255619224763
 21
-12.5349998117209
 31
0.0
  0
LINE
  5
249
330
1E
100
AcDbEntity
  8
0
 62
     7
100
AcDbLine
 10
-0.0996744350476231
 20
-13.19866406930765
 30
0.0
 11
-0.0996744350476231
 21
-12.7349998087418
 31
0.0
  0
LINE
  5
24A
330
1E
100
AcDbEntity
  8
0
 62
     7
100
AcDbLine
 10
-0.0996744350476231
 20
-13.19866406930765
 30
0.0
 11
0.150325561222175
 21
-13.44866406554705
 31
0.0
  0
LINE
  5
24B
330
1E
100
AcDbEntity
  8
0
 62
     7
100
AcDbLine
 10
0.0278255630535771
 20
-16.6670596411896
 30
0.0
 11
0.0278255630535771
 21
-13.3349997997029
 31
0.0
  0
LINE
  5
24C
330
1E
100
AcDbEntity
  8
0
 62
     7
100
AcDbLine
 10
0.0278255630535771
 20
-16.6670596411896
 30
0.0
 11
0.427825557044578
 21
-16.89799974538549
 31
0.0
  0
LINE
  5
24D
330
1E
100
AcDbEntity
  8
0
 62
     7
100
AcDbLine
 10
0.0278255630535771
 20
-16.27507190527535
 30
0.0
 11
0.2278255600490873
 21
-16.07507190828485
 31
0.0
  0
LINE
  5
24E
330
1E
100
AcDbEntity
  8
0
 62
     7
100
AcDbLine
 10
0.2278255600490873
 20
-16.07507190828485
 30
0.0
 11
2.410318760416775
 21
-16.07507190828485
 31
0.0
  0
LINE
  5
24F
330
1E
100
AcDbEntity
  8
0
 62
     7
100
AcDbLine
 10
2.036337565888715
 20
-13.67999979454565
 30
0.0
 11
0.4553255566225758
 21
-13.67999979449995
 31
0.0
  0
LINE
  5
250
330
1E
100
AcDbEntity
  8
0
 62
     7
100
AcDbLine
 10
0.4553255566225758
 20
-13.67999979449995
 30
0.0
 11
0.5853255546721777
 21
-14.73876481434365
 31
0.0
  0
LINE
  5
251
330
1E
100
AcDbEntity
  8
0
 62
     7
100
AcDbLine
 10
0.5853255546721777
 20
-14.73876481434365
 30
0.0
 11
0.585325554667076
 21
-15.74999976346175
 31
0.0
  0
LINE
  5
252
330
1E
100
AcDbEntity
  8
0
 62
     7
100
AcDbLine
 10
0.585325554667076
 20
-15.74999976346175
 30
0.0
 11
1.979138507938117
 21
-15.74999976346175
 31
0.0
  0
LINE
  5
253
330
1E
100
AcDbEntity
  8
0
 62
     7
100
AcDbLine
 10
1.475325541299675
 20
-15.74999976346175
 30
0.0
 11
1.475325541299675
 21
-13.67999979454565
 31
0.0
  0
LINE
  5
254
330
1E
100
AcDbEntity
  8
1
 62
     7
100
AcDbLine
 10
2.344937959920375
 20
-13.44866406554705
 30
0.0
 11
0.0278255630535771
 21
-13.44866406554705
 31
0.0
  0
LINE
  5
255
330
1E
100
AcDbEntity
  8
1
 62
     7
100
AcDbLine
 10
6.122825471499075
 20
-13.44866406554705
 30
0.0
 11
3.805713074638977
 21
-13.44866406554705
 31
0.0
  0
LINE
  5
256
330
1E
100
AcDbEntity
  8
0
 62
     7
100
AcDbLine
 10
6.122825471493975
 20
-16.3859997539521
 30
0.0
 11
6.122825471499075
 21
-13.3349997997029
 31
0.0
  0
LINE
  5
257
330
1E
100
AcDbEntity
  8
1
 62
     7
100
AcDbLine
 10
0.427825557044578
 20
-16.89799974538549
 30
0.0
 11
5.722825477508077
 21
-16.89799974538549
 31
0.0
  0
LINE
  5
258
330
1E
100
AcDbEntity
  8
0
 62
     7
100
AcDbLine
 10
1.979138507938117
 20
15.74999976346189
 30
0.0
 11
0.585325554667076
 21
15.74999976346189
 31
0.0
  0
LINE
  5
259
330
1E
100
AcDbEntity
  8
0
 62
     7
100
AcDbLine
 10
1.979138507938117
 20
15.74999976346189
 30
0.0
 11
0.585325554667076
 21
15.74999976346189
 31
0.0
  0
LINE
  5
25A
330
1E
100
AcDbEntity
  8
0
 62
     7
100
AcDbLine
 10
0.585325554667076
 20
15.74999976346189
 30
0.0
 11
0.5853255546721777
 21
14.7387648143438
 31
0.0
  0
LINE
  5
25B
330
1E
100
AcDbEntity
  8
0
 62
     7
100
AcDbLine
 10
0.5853255546721777
 20
14.7387648143438
 30
0.0
 11
0.4553255566225758
 21
13.6799997945001
 31
0.0
  0
LINE
  5
25C
330
1E
100
AcDbEntity
  8
0
 62
     7
100
AcDbLine
 10
0.4553255566225758
 20
13.6799997945001
 30
0.0
 11
2.036337565888715
 21
13.6799997945458
 31
0.0
  0
LINE
  5
25D
330
1E
100
AcDbEntity
  8
0
 62
     7
100
AcDbLine
 10
1.475325541299675
 20
13.6799997945458
 30
0.0
 11
1.475325541299675
 21
15.74999976346189
 31
0.0
  0
LINE
  5
25E
330
1E
100
AcDbEntity
  8
0
 62
     7
100
AcDbLine
 10
0.427825557044578
 20
16.8979997454035
 30
0.0
 11
5.722825477508077
 21
16.8979997454035
 31
0.0
  0
LINE
  5
25F
330
1E
100
AcDbEntity
  8
0
 62
     7
100
AcDbLine
 10
5.722825477508077
 20
16.8979997454035
 30
0.0
 11
6.122825471511777
 21
16.6670596411948
 31
0.0
  0
LINE
  5
260
330
1E
100
AcDbEntity
  8
0
 62
     7
100
AcDbLine
 10
6.122825471511777
 20
16.6670596411948
 30
0.0
 11
6.122825471493975
 21
16.2750719053238
 31
0.0
  0
LINE
  5
261
330
1E
100
AcDbEntity
  8
0
 62
     7
100
AcDbLine
 10
6.122825471493975
 20
16.2750719053238
 30
0.0
 11
5.922825474503576
 21
16.075071908285
 31
0.0
  0
LINE
  5
262
330
1E
100
AcDbEntity
  8
0
 62
     7
100
AcDbLine
 10
5.922825474503576
 20
16.075071908285
 30
0.0
 11
3.740332274121076
 21
16.075071908285
 31
0.0
  0
LINE
  5
263
330
1E
100
AcDbEntity
  8
0
 62
     7
100
AcDbLine
 10
6.050325472589496
 20
12.53499981175659
 30
0.0
 11
6.250325469584976
 21
12.73499980874708
 31
0.0
  0
LINE
  5
264
330
1E
100
AcDbEntity
  8
0
 62
     7
100
AcDbLine
 10
6.250325469584976
 20
12.73499980874708
 30
0.0
 11
6.250325469584976
 21
13.19866406935609
 31
0.0
  0
LINE
  5
265
330
1E
100
AcDbEntity
  8
0
 62
     7
100
AcDbLine
 10
6.250325469584976
 20
13.19866406935609
 30
0.0
 11
6.000325473350777
 21
13.4486640655472
 31
0.0
  0
LINE
  5
266
330
1E
100
AcDbEntity
  8
0
 62
     7
100
AcDbLine
 10
6.000325473350777
 20
13.4486640655472
 30
0.0
 11
3.805713074638977
 21
13.4486640655472
 31
0.0
  0
LINE
  5
267
330
1E
100
AcDbEntity
  8
0
 62
     7
100
AcDbLine
 10
6.122825471493975
 20
16.2750719053238
 30
0.0
 11
6.122825471499075
 21
13.44866406554719
 31
0.0
  0
LINE
  5
268
330
1E
100
AcDbEntity
  8
1
 62
     7
100
AcDbLine
 10
3.805713074638977
 20
13.4486640655472
 30
0.0
 11
6.122825471499075
 21
13.44866406554719
 31
0.0
  0
LINE
  5
269
330
1E
100
AcDbEntity
  8
0
 62
     7
100
AcDbLine
 10
2.410318760416775
 20
16.075071908285
 30
0.0
 11
0.2278255600490873
 21
16.075071908285
 31
0.0
  0
LINE
  5
26A
330
1E
100
AcDbEntity
  8
0
 62
     7
100
AcDbLine
 10
0.2278255600490873
 20
16.075071908285
 30
0.0
 11
0.0278255630535771
 21
16.27507190527548
 31
0.0
  0
LINE
  5
26B
330
1E
100
AcDbEntity
  8
0
 62
     7
100
AcDbLine
 10
0.0278255630535771
 20
13.4486640655472
 30
0.0
 11
0.0278255630535771
 21
16.6670596411948
 31
0.0
  0
LINE
  5
26C
330
1E
100
AcDbEntity
  8
0
 62
     7
100
AcDbLine
 10
0.0278255630535771
 20
16.6670596411948
 30
0.0
 11
0.427825557044578
 21
16.8979997454035
 31
0.0
  0
LINE
  5
26D
330
1E
100
AcDbEntity
  8
0
 62
     7
100
AcDbLine
 10
2.344937959920375
 20
13.4486640655472
 30
0.0
 11
0.0278255630535771
 21
13.4486640655472
 31
0.0
  0
LINE
  5
26E
330
1E
100
AcDbEntity
  8
0
 62
     7
100
AcDbLine
 10
0.150325561222175
 20
13.4486640655472
 30
0.0
 11
-0.0996744350476231
 21
13.1986640693078
 31
0.0
  0
LINE
  5
26F
330
1E
100
AcDbEntity
  8
0
 62
     7
100
AcDbLine
 10
-0.0996744350476231
 20
13.1986640693078
 30
0.0
 11
-0.0996744350476231
 21
12.73499980874708
 31
0.0
  0
LINE
  5
270
330
1E
100
AcDbEntity
  8
0
 62
     7
100
AcDbLine
 10
-0.0996744350476231
 20
12.73499980874708
 30
0.0
 11
0.0753255622854763
 21
12.5349998117339
 31
0.0
  0
LINE
  5
271
330
1E
100
AcDbEntity
  8
1
 62
     7
100
AcDbLine
 10
0.427825557044578
 20
-16.89799974538549
 30
0.0
 11
5.722825477508077
 21
-16.89799974538549
 31
0.0
  0
LINE
  5
272
330
1E
100
AcDbEntity
  8
0
 62
     7
100
AcDbLine
 10
0.1003255619224563
 20
12.5349998117338
 30
0.0
 11
6.050325472589496
 21
12.53499981175659
 31
0.0
  0
LINE
  5
273
330
1E
100
AcDbEntity
  8
0
 62
     7
100
AcDbLine
 10
6.250325469585003
 20
12.53499981173668
 30
0.0
 11
-0.1496744342965067
 21
12.5349998117338
 31
0.0
  0
LINE
  5
274
330
1E
100
AcDbEntity
  8
0
 62
     7
100
AcDbLine
 10
-0.1496744342965067
 20
12.5349998117338
 30
0.0
 11
-0.1496744342965067
 21
6.999999894873098
 31
0.0
  0
LINE
  5
275
330
1E
100
AcDbEntity
  8
1
 62
     7
100
AcDbLine
 10
-0.1496744342965067
 20
-12.5349998117209
 30
0.0
 11
6.250325469585003
 21
-12.5349998117209
 31
0.0
  0
LINE
  5
276
330
1E
100
AcDbEntity
  8
0
 62
     7
100
AcDbLine
 10
-0.1496744342965067
 20
-12.5349998117209
 30
0.0
 11
-0.1496744342965067
 21
-6.99999989486792
 31
0.0
  0
LINE
  5
277
330
1E
100
AcDbEntity
  8
1
 62
     7
100
AcDbLine
 10
0.1003255619224763
 20
-12.5349998117209
 30
0.0
 11
6.050325472564177
 21
-12.5349998117209
 31
0.0
  0
ARC
  5
27C
330
1E
100
AcDbEntity
  8
1
 62
     7
100
AcDbCircle
 10
-23.749674528368
 20
-26.1
 30
0.0
 40
0.1000000000000014
100
AcDbArc
 50
90.0
 51
180.0
  0
ARC
  5
27D
330
1E
100
AcDbEntity
  8
1
 62
     7
100
AcDbCircle
 10
-23.749674528368
 20
-22.9
 30
0.0
 40
0.0999999999999979
100
AcDbArc
 50
180.0
 51
270.0
  0
ARC
  5
27E
330
1E
100
AcDbEntity
  8
1
 62
     7
100
AcDbCircle
 10
-23.749674528368
 20
22.9
 30
0.0
 40
0.1000000000000014
100
AcDbArc
 50
90.0
 51
180.0
  0
ARC
  5
27F
330
1E
100
AcDbEntity
  8
1
 62
     7
100
AcDbCircle
 10
-23.749674528368
 20
26.1
 30
0.0
 40
0.0999999999999979
100
AcDbArc
 50
180.0
 51
270.0
  0
ARC
  5
280
330
1E
100
AcDbEntity
  8
1
 62
     7
100
AcDbCircle
 10
-11.1496744742008
 20
10.7
 30
0.0
 40
0.1999999999999993
100
AcDbArc
 50
270.0
 51
0.0
  0
ARC
  5
281
330
1E
100
AcDbEntity
  8
1
 62
     7
100
AcDbCircle
 10
-11.1496744742008
 20
6.299999999999998
 30
0.0
 40
0.2000000000000011
100
AcDbArc
 50
0.0
 51
90.0
  0
ARC
  5
282
330
1E
100
AcDbEntity
  8
1
 62
     7
100
AcDbCircle
 10
-18.749674528368
 20
19.8
 30
0.0
 40
0.1999999999999993
100
AcDbArc
 50
0.0
 51
90.0
  0
ARC
  5
283
330
1E
100
AcDbEntity
  8
1
 62
     7
100
AcDbCircle
 10
4.300325471632017
 20
23.95
 30
0.0
 40
0.1499999999999995
100
AcDbArc
 50
180.0
 51
270.0
  0
ARC
  5
284
330
1E
100
AcDbEntity
  8
1
 62
     7
100
AcDbCircle
 10
4.300325471632017
 20
26.35
 30
0.0
 40
0.1499999999999986
100
AcDbArc
 50
90.0
 51
180.0
  0
ARC
  5
285
330
1E
100
AcDbEntity
  8
1
 62
     7
100
AcDbCircle
 10
6.050325471632017
 20
19.39999999999998
 30
0.0
 40
0.3999999999999995
100
AcDbArc
 50
180.0
 51
270.0
  0
ARC
  5
286
330
1E
100
AcDbEntity
  8
1
 62
     7
100
AcDbCircle
 10
6.050325471632017
 20
-19.39999999999998
 30
0.0
 40
0.3999999999999986
100
AcDbArc
 50
90.0
 51
180.0
  0
ARC
  5
287
330
1E
100
AcDbEntity
  8
1
 62
     7
100
AcDbCircle
 10
4.300325471632017
 20
-26.35
 30
0.0
 40
0.1499999999999995
100
AcDbArc
 50
180.0
 51
270.0
  0
ARC
  5
288
330
1E
100
AcDbEntity
  8
1
 62
     7
100
AcDbCircle
 10
4.300325471632017
 20
-23.95
 30
0.0
 40
0.1499999999999986
100
AcDbArc
 50
90.0
 51
180.0
  0
ARC
  5
289
330
1E
100
AcDbEntity
  8
1
 62
     7
100
AcDbCircle
 10
5.450325471632018
 20
-26.69999999999999
 30
0.0
 40
0.2000000000000002
100
AcDbArc
 50
0.0
 51
90.0
  0
ARC
  5
28A
330
1E
100
AcDbEntity
  8
1
 62
     7
100
AcDbCircle
 10
5.450325471632018
 20
-23.6
 30
0.0
 40
0.1999999999999993
100
AcDbArc
 50
270.0
 51
0.0
  0
ARC
  5
28B
330
1E
100
AcDbEntity
  8
1
 62
     7
100
AcDbCircle
 10
5.450325471632018
 20
26.69999999999999
 30
0.0
 40
0.1999999999999993
100
AcDbArc
 50
270.0
 51
0.0
  0
ARC
  5
28C
330
1E
100
AcDbEntity
  8
1
 62
     7
100
AcDbCircle
 10
5.450325471632018
 20
23.6
 30
0.0
 40
0.2000000000000002
100
AcDbArc
 50
0.0
 51
90.0
  0
ARC
  5
28D
330
1E
100
AcDbEntity
  8
1
 62
     7
100
AcDbCircle
 10
-1.74967452836798
 20
28.39999999999999
 30
0.0
 40
0.3999999999999986
100
AcDbArc
 50
270.0
 51
0.0
  0
ARC
  5
28E
330
1E
100
AcDbEntity
  8
1
 62
     7
100
AcDbCircle
 10
-1.74967452836798
 20
-28.39999999999999
 30
0.0
 40
0.3999999999999999
100
AcDbArc
 50
0.0
 51
90.0
  0
ARC
  5
28F
330
1E
100
AcDbEntity
  8
1
 62
     7
100
AcDbCircle
 10
-2.34967452836798
 20
20.5
 30
0.0
 40
0.9999999999999998
100
AcDbArc
 50
0.0
 51
90.0
  0
ARC
  5
290
330
1E
100
AcDbEntity
  8
1
 62
     7
100
AcDbCircle
 10
-2.34967452836798
 20
-20.5
 30
0.0
 40
1.0
100
AcDbArc
 50
270.0
 51
0.0
  0
ARC
  5
291
330
1E
100
AcDbEntity
  8
1
 62
     7
100
AcDbCircle
 10
-12.049674528368
 20
21.1
 30
0.0
 40
0.2000000000000028
100
AcDbArc
 50
270.0
 51
0.0
  0
ARC
  5
292
330
1E
100
AcDbEntity
  8
1
 62
     7
100
AcDbCircle
 10
-12.049674528368
 20
-21.1
 30
0.0
 40
0.1999999999999993
100
AcDbArc
 50
0.0
 51
90.0
  0
ARC
  5
293
330
1E
100
AcDbEntity
  8
1
 62
     7
100
AcDbCircle
 10
-13.449674528368
 20
-20.8
 30
0.0
 40
0.0999999999999979
100
AcDbArc
 50
270.0
 51
0.0
  0
ARC
  5
294
330
1E
100
AcDbEntity
  8
1
 62
     7
100
AcDbCircle
 10
-13.249674528368
 20
-20.4
 30
0.0
 40
0.0999999999999979
100
AcDbArc
 50
90.0
 51
180.0
  0
ARC
  5
295
330
1E
100
AcDbEntity
  8
1
 62
     7
100
AcDbCircle
 10
-12.449674528368
 20
-20.4
 30
0.0
 40
0.0999999999999996
100
AcDbArc
 50
0.0
 51
90.0
  0
ARC
  5
296
330
1E
100
AcDbEntity
  8
1
 62
     7
100
AcDbCircle
 10
-12.249674528368
 20
-20.8
 30
0.0
 40
0.0999999999999996
100
AcDbArc
 50
180.0
 51
270.0
  0
ARC
  5
297
330
1E
100
AcDbEntity
  8
1
 62
     7
100
AcDbCircle
 10
-13.449674528368
 20
20.8
 30
0.0
 40
0.0999999999999996
100
AcDbArc
 50
0.0
 51
90.0
  0
ARC
  5
298
330
1E
100
AcDbEntity
  8
1
 62
     7
100
AcDbCircle
 10
-13.249674528368
 20
20.4
 30
0.0
 40
0.0999999999999996
100
AcDbArc
 50
180.0
 51
270.0
  0
ARC
  5
299
330
1E
100
AcDbEntity
  8
1
 62
     7
100
AcDbCircle
 10
-12.449674528368
 20
20.4
 30
0.0
 40
0.0999999999999979
100
AcDbArc
 50
270.0
 51
0.0
  0
ARC
  5
29A
330
1E
100
AcDbEntity
  8
1
 62
     7
100
AcDbCircle
 10
-12.249674528368
 20
20.8
 30
0.0
 40
0.0999999999999979
100
AcDbArc
 50
90.0
 51
180.0
  0
ARC
  5
29B
330
1E
100
AcDbEntity
  8
1
 62
     7
100
AcDbCircle
 10
-20.688152159453
 20
17.5
 30
0.0
 40
0.1999999999999846
100
AcDbArc
 50
135.0
 51
225.0
  0
ARC
  5
29C
330
1E
100
AcDbEntity
  8
1
 62
     7
100
AcDbCircle
 10
-17.011196897283
 20
17.5
 30
0.0
 40
0.2000000000000574
100
AcDbArc
 50
315.0000000000208
 51
44.99999999997913
  0
ARC
  5
29D
330
1E
100
AcDbEntity
  8
1
 62
     7
100
AcDbCircle
 10
-18.849674528368
 20
15.66152236891499
 30
0.0
 40
0.1999999999999883
100
AcDbArc
 50
224.9999999999996
 51
314.9999999999997
  0
ARC
  5
29E
330
1E
100
AcDbEntity
  8
1
 62
     7
100
AcDbCircle
 10
-18.949674528368
 20
15.2
 30
0.0
 40
0.1999999999999993
100
AcDbArc
 50
180.0
 51
270.0
  0
ARC
  5
29F
330
1E
100
AcDbEntity
  8
1
 62
     7
100
AcDbCircle
 10
-18.749674528368
 20
15.2
 30
0.0
 40
0.1999999999999993
100
AcDbArc
 50
270.0
 51
0.0
  0
ARC
  5
2A0
330
1E
100
AcDbEntity
  8
1
 62
     7
100
AcDbCircle
 10
-28.049674528368
 20
14.8
 30
0.0
 40
0.1000000000000014
100
AcDbArc
 50
0.0
 51
90.0
  0
ARC
  5
2A1
330
1E
100
AcDbEntity
  8
1
 62
     7
100
AcDbCircle
 10
-28.049674528368
 20
14.3
 30
0.0
 40
0.1000000000000014
100
AcDbArc
 50
270.0
 51
0.0
  0
ARC
  5
2A2
330
1E
100
AcDbEntity
  8
1
 62
     7
100
AcDbCircle
 10
-28.249674528368
 20
14.1
 30
0.0
 40
0.0999999999999996
100
AcDbArc
 50
90.0
 51
180.0
  0
ARC
  5
2A3
330
1E
100
AcDbEntity
  8
1
 62
     7
100
AcDbCircle
 10
-28.249674528368
 20
15.0
 30
0.0
 40
0.0999999999999979
100
AcDbArc
 50
180.0
 51
270.0
  0
ARC
  5
2A4
330
1E
100
AcDbEntity
  8
1
 62
     7
100
AcDbCircle
 10
-20.688152159453
 20
-17.5
 30
0.0
 40
0.1999999999999846
100
AcDbArc
 50
135.0
 51
225.0
  0
ARC
  5
2A5
330
1E
100
AcDbEntity
  8
1
 62
     7
100
AcDbCircle
 10
-17.011196897283
 20
-17.5
 30
0.0
 40
0.2000000000000574
100
AcDbArc
 50
315.0000000000208
 51
44.99999999997913
  0
ARC
  5
2A6
330
1E
100
AcDbEntity
  8
1
 62
     7
100
AcDbCircle
 10
-18.849674528368
 20
-15.66152236891499
 30
0.0
 40
0.1999999999999858
100
AcDbArc
 50
45.00000000000036
 51
135.0000000000004
  0
ARC
  5
2A7
330
1E
100
AcDbEntity
  8
1
 62
     7
100
AcDbCircle
 10
-18.949674528368
 20
-15.2
 30
0.0
 40
0.1999999999999993
100
AcDbArc
 50
90.0
 51
180.0
  0
ARC
  5
2A8
330
1E
100
AcDbEntity
  8
1
 62
     7
100
AcDbCircle
 10
-18.749674528368
 20
-15.2
 30
0.0
 40
0.1999999999999993
100
AcDbArc
 50
0.0
 51
90.0
  0
ARC
  5
2A9
330
1E
100
AcDbEntity
  8
1
 62
     7
100
AcDbCircle
 10
-28.049674528368
 20
-14.8
 30
0.0
 40
0.0999999999999996
100
AcDbArc
 50
270.0
 51
0.0
  0
ARC
  5
2AA
330
1E
100
AcDbEntity
  8
1
 62
     7
100
AcDbCircle
 10
-28.049674528368
 20
-14.3
 30
0.0
 40
0.1000000000000014
100
AcDbArc
 50
0.0
 51
90.0
  0
ARC
  5
2AB
330
1E
100
AcDbEntity
  8
1
 62
     7
100
AcDbCircle
 10
-28.249674528368
 20
-14.1
 30
0.0
 40
0.0999999999999979
100
AcDbArc
 50
180.0
 51
270.0
  0
ARC
  5
2AC
330
1E
100
AcDbEntity
  8
1
 62
     7
100
AcDbCircle
 10
-28.249674528368
 20
-15.0
 30
0.0
 40
0.0999999999999996
100
AcDbArc
 50
90.0
 51
180.0
  0
ARC
  5
2AD
330
1E
100
AcDbEntity
  8
1
 62
     7
100
AcDbCircle
 10
-14.149674528368
 20
20.69999999999998
 30
0.0
 40
0.1999999999999993
100
AcDbArc
 50
90.0
 51
180.0
  0
ARC
  5
2AE
330
1E
100
AcDbEntity
  8
1
 62
     7
100
AcDbCircle
 10
-18.949674528368
 20
19.8
 30
0.0
 40
0.1999999999999993
100
AcDbArc
 50
90.0
 51
180.0
  0
ARC
  5
2AF
330
1E
100
AcDbEntity
  8
1
 62
     7
100
AcDbCircle
 10
-18.949674528368
 20
-19.8
 30
0.0
 40
0.1999999999999993
100
AcDbArc
 50
180.0
 51
270.0
  0
ARC
  5
2B0
330
1E
100
AcDbEntity
  8
1
 62
     7
100
AcDbCircle
 10
-14.149674528368
 20
-20.69999999999998
 30
0.0
 40
0.2000000000000011
100
AcDbArc
 50
180.0
 51
270.0
  0
ARC
  5
2B1
330
1E
100
AcDbEntity
  8
1
 62
     7
100
AcDbCircle
 10
-12.2496744742008
 20
11.05
 30
0.0
 40
1.199999999999999
100
AcDbArc
 50
90.0
 51
180.0
  0
ARC
  5
2B2
330
1E
100
AcDbEntity
  8
1
 62
     7
100
AcDbCircle
 10
-12.2496744742008
 20
-11.05
 30
0.0
 40
1.199999999999999
100
AcDbArc
 50
180.0
 51
270.0
  0
ARC
  5
2B3
330
1E
100
AcDbEntity
  8
1
 62
     7
100
AcDbCircle
 10
-24.249674528368
 20
-21.65
 30
0.0
 40
0.4000000000000021
100
AcDbArc
 50
0.0
 51
90.0
  0
ARC
  5
2B4
330
1E
100
AcDbEntity
  8
1
 62
     7
100
AcDbCircle
 10
-24.249674528368
 20
21.65
 30
0.0
 40
0.3999999999999986
100
AcDbArc
 50
270.0
 51
0.0
  0
ARC
  5
2B5
330
1E
100
AcDbEntity
  8
1
 62
     7
100
AcDbCircle
 10
-18.849674528368
 20
-19.338477631085
 30
0.0
 40
0.1999999999999896
100
AcDbArc
 50
225.0
 51
314.9999999999993
  0
ARC
  5
2B6
330
1E
100
AcDbEntity
  8
1
 62
     7
100
AcDbCircle
 10
-18.849674528368
 20
-19.338477631085
 30
0.0
 40
0.1999999999999896
100
AcDbArc
 50
225.0
 51
314.9999999999993
  0
ARC
  5
2B7
330
1E
100
AcDbEntity
  8
1
 62
     7
100
AcDbCircle
 10
-18.349674528368
 20
-21.14999999999997
 30
0.0
 40
0.1000000000000014
100
AcDbArc
 50
270.0
 51
0.0
  0
ARC
  5
2B8
330
1E
100
AcDbEntity
  8
1
 62
     7
100
AcDbCircle
 10
-18.349674528368
 20
-20.24999999999999
 30
0.0
 40
0.0999999999999979
100
AcDbArc
 50
0.0
 51
90.0
  0
ARC
  5
2B9
330
1E
100
AcDbEntity
  8
1
 62
     7
100
AcDbCircle
 10
-18.849674528368
 20
19.338477631085
 30
0.0
 40
0.199999999999987
100
AcDbArc
 50
45.00000000000071
 51
135.0
  0
ARC
  5
2BA
330
1E
100
AcDbEntity
  8
1
 62
     7
100
AcDbCircle
 10
-18.349674528368
 20
21.14999999999997
 30
0.0
 40
0.0999999999999979
100
AcDbArc
 50
0.0
 51
90.0
  0
ARC
  5
2BB
330
1E
100
AcDbEntity
  8
1
 62
     7
100
AcDbCircle
 10
-18.349674528368
 20
20.24999999999999
 30
0.0
 40
0.1000000000000014
100
AcDbArc
 50
270.0
 51
0.0
  0
ARC
  5
2BC
330
1E
100
AcDbEntity
  8
0
 62
     7
100
AcDbCircle
 10
69.70340446407121
 20
-8.283333208889331
 30
0.0
 40
0.4666666596669701
100
AcDbArc
 50
270.0000000007991
 51
0.0000000000724076
  0
ARC
  5
2BD
330
1E
100
AcDbEntity
  8
0
 62
     7
100
AcDbCircle
 10
70.63673778338681
 20
-7.3338427148463
 30
0.0
 40
0.4666666596836225
100
AcDbArc
 50
109.2696388770822
 51
180.0
  0
ARC
  5
2BE
330
1E
100
AcDbEntity
  8
0
 62
     7
100
AcDbCircle
 10
67.93007115737268
 20
0.4083333272147271
 30
0.0
 40
7.734999883808766
100
AcDbArc
 50
289.2696388779613
 51
130.2716567142288
  0
ARC
  5
2BF
330
1E
100
AcDbEntity
  8
0
 62
     7
100
AcDbCircle
 10
66.1567378506802
 20
-8.283333208888736
 30
0.0
 40
0.466666659655701
100
AcDbArc
 50
180.0
 51
269.9999999985395
  0
ARC
  5
2C0
330
1E
100
AcDbEntity
  8
0
 62
     7
100
AcDbCircle
 10
65.2234045313601
 20
-7.333842714850749
 30
0.0
 40
0.4666666596643978
100
AcDbArc
 50
0.0000000005463284
 51
70.730361123455
  0
ARC
  5
2C1
330
1E
100
AcDbEntity
  8
0
 62
     7
100
AcDbCircle
 10
67.93007115737268
 20
0.4083333272147271
 30
0.0
 40
7.734999883809321
100
AcDbArc
 50
229.728343285772
 51
250.7303611220279
  0
ARC
  5
2C2
330
1E
100
AcDbEntity
  8
1
 62
     7
100
AcDbCircle
 10
67.93007115737268
 20
0.4083333272147271
 30
0.0
 40
7.73499988380933
100
AcDbArc
 50
130.2716567142288
 51
229.728343285772
  0
ARC
  5
2C3
330
1E
100
AcDbEntity
  8
0
 62
     7
100
AcDbCircle
 10
67.93007115730251
 20
14.7949997778489
 30
0.0
 40
1.779999973359779
100
AcDbArc
 50
318.4742944478451
 51
29.58255885870619
  0
ARC
  5
2C4
330
1E
100
AcDbEntity
  8
0
 62
     7
100
AcDbCircle
 10
67.9300711573718
 20
0.0
 30
0.0
 40
13.6799997945411
100
AcDbArc
 50
79.93822747352904
 51
84.4097725265718
  0
ARC
  5
2C5
330
1E
100
AcDbEntity
  8
0
 62
     7
100
AcDbCircle
 10
71.92167108386541
 20
14.24637316841
 30
0.0
 40
1.779999973277963
100
AcDbArc
 50
134.765441150579
 51
205.8737055540489
  0
ARC
  5
2C6
330
1E
100
AcDbEntity
  8
0
 62
     7
100
AcDbCircle
 10
67.9300711573718
 20
0.0
 30
0.0
 40
15.7499997634679
100
AcDbArc
 50
79.98834781818409
 51
84.35965218399942
  0
ARC
  5
2C7
330
1E
100
AcDbEntity
  8
0
 62
     7
100
AcDbCircle
 10
63.9384712308353
 20
14.24637316833219
 30
0.0
 40
1.779999973265848
100
AcDbArc
 50
334.1262944469381
 51
45.23455886130922
  0
ARC
  5
2C8
330
1E
100
AcDbEntity
  8
0
 62
     7
100
AcDbCircle
 10
67.9300711573718
 20
0.0
 30
0.0
 40
13.67999979452316
100
AcDbArc
 50
95.59022747360598
 51
100.0617725266644
  0
ARC
  5
2C9
330
1E
100
AcDbEntity
  8
0
 62
     7
100
AcDbCircle
 10
67.93007115730251
 20
14.7949997778489
 30
0.0
 40
1.779999973290595
100
AcDbArc
 50
150.417441150377
 51
221.5257055542178
  0
ARC
  5
2CA
330
1E
100
AcDbEntity
  8
0
 62
     7
100
AcDbCircle
 10
67.9300711573718
 20
0.0
 30
0.0
 40
15.74999976347374
100
AcDbArc
 50
95.64034781825078
 51
100.0116521839715
  0
ARC
  5
2CB
330
1E
100
AcDbEntity
  8
0
 62
     7
100
AcDbCircle
 10
65.91499622781279
 20
-14.6571310785768
 30
0.0
 40
1.779999973290695
100
AcDbArc
 50
130.6462944479586
 51
201.7545588598534
  0
ARC
  5
2CC
330
1E
100
AcDbEntity
  8
0
 62
     7
100
AcDbCircle
 10
67.9300711573718
 20
0.0
 30
0.0
 40
13.67999979451598
100
AcDbArc
 50
252.1102274745341
 51
256.5817725277054
  0
ARC
  5
2CD
330
1E
100
AcDbEntity
  8
0
 62
     7
100
AcDbCircle
 10
62.0353152226384
 20
-13.5699620815884
 30
0.0
 40
1.779999973267088
100
AcDbArc
 50
306.93744115167
 51
18.04570555500287
  0
ARC
  5
2CE
330
1E
100
AcDbEntity
  8
0
 62
     7
100
AcDbCircle
 10
67.9300711573718
 20
0.0
 30
0.0
 40
15.74999976342768
100
AcDbArc
 50
252.1603478191863
 51
256.5316521850263
  0
ARC
  5
2CF
330
1E
100
AcDbEntity
  8
0
 62
     7
100
AcDbCircle
 10
69.94412282189589
 20
-14.6572717215128
 30
0.0
 40
1.779999973423675
100
AcDbArc
 50
146.2982944502236
 51
217.4065588590436
  0
ARC
  5
2D0
330
1E
100
AcDbEntity
  8
0
 62
     7
100
AcDbCircle
 10
67.9300711573718
 20
0.0
 30
0.0
 40
13.67999979451216
100
AcDbArc
 50
267.762227474438
 51
272.2337725274611
  0
ARC
  5
2D1
330
1E
100
AcDbEntity
  8
0
 62
     7
100
AcDbCircle
 10
65.91499622781279
 20
-14.6571310785768
 30
0.0
 40
1.779999973284965
100
AcDbArc
 50
322.58944115122
 51
33.69770555522932
  0
ARC
  5
2D2
330
1E
100
AcDbEntity
  8
0
 62
     7
100
AcDbCircle
 10
67.9300711573718
 20
0.0
 30
0.0
 40
15.74999976346287
100
AcDbArc
 50
267.8123478190832
 51
272.1836521849029
  0
ARC
  5
2D3
330
1E
100
AcDbEntity
  8
0
 62
     7
100
AcDbCircle
 10
73.82387971627441
 20
-13.5703735798635
 30
0.0
 40
1.77999997332778
100
AcDbArc
 50
161.9502944472164
 51
233.0585588608543
  0
ARC
  5
2D4
330
1E
100
AcDbEntity
  8
0
 62
     7
100
AcDbCircle
 10
67.9300711573718
 20
0.0
 30
0.0
 40
13.67999979451461
100
AcDbArc
 50
283.4142274747737
 51
287.885772527826
  0
ARC
  5
2D5
330
1E
100
AcDbEntity
  8
0
 62
     7
100
AcDbCircle
 10
69.94412282189589
 20
-14.6572717215128
 30
0.0
 40
1.779999973291054
100
AcDbArc
 50
338.2414411506956
 51
49.34970555508242
  0
ARC
  5
2D6
330
1E
100
AcDbEntity
  8
0
 62
     7
100
AcDbCircle
 10
67.9300711573718
 20
0.0
 30
0.0
 40
15.74999976346572
100
AcDbArc
 50
283.4643478194133
 51
287.835652185245
  0
ARC
  5
2D7
330
1E
100
AcDbEntity
  8
0
 62
     7
100
AcDbCircle
 10
77.2665294453963
 20
-11.4770451363625
 30
0.0
 40
1.779999973306963
100
AcDbArc
 50
177.6022944477084
 51
248.71055886144
  0
ARC
  5
2D8
330
1E
100
AcDbEntity
  8
0
 62
     7
100
AcDbCircle
 10
67.9300711573718
 20
0.0
 30
0.0
 40
13.67999979451803
100
AcDbArc
 50
299.0662274745015
 51
303.5377725276521
  0
ARC
  5
2D9
330
1E
100
AcDbEntity
  8
0
 62
     7
100
AcDbCircle
 10
73.82387971627441
 20
-13.5703735798635
 30
0.0
 40
1.779999973290373
100
AcDbArc
 50
353.893441150554
 51
65.00170555556103
  0
ARC
  5
2DA
330
1E
100
AcDbEntity
  8
0
 62
     7
100
AcDbCircle
 10
67.9300711573718
 20
0.0
 30
0.0
 40
15.74999976347841
100
AcDbArc
 50
299.1163478192268
 51
303.4876521851062
  0
ARC
  5
2DB
330
1E
100
AcDbEntity
  8
0
 62
     7
100
AcDbCircle
 10
80.01675206655491
 20
-8.53253555665978
 30
0.0
 40
1.779999973414188
100
AcDbArc
 50
193.2542944502061
 51
264.3625588586221
  0
ARC
  5
2DC
330
1E
100
AcDbEntity
  8
0
 62
     7
100
AcDbCircle
 10
67.9300711573718
 20
0.0
 30
0.0
 40
13.67999979450543
100
AcDbArc
 50
314.7182274744246
 51
319.1897725274631
  0
ARC
  5
2DD
330
1E
100
AcDbEntity
  8
0
 62
     7
100
AcDbCircle
 10
77.2665294453963
 20
-11.4770451363625
 30
0.0
 40
1.77999997327403
100
AcDbArc
 50
9.545441151402695
 51
80.65370555523136
  0
ARC
  5
2DE
330
1E
100
AcDbEntity
  8
0
 62
     7
100
AcDbCircle
 10
67.9300711573718
 20
0.0
 30
0.0
 40
15.749999763445
100
AcDbArc
 50
314.7683478190522
 51
319.1396521849806
  0
ARC
  5
2DF
330
1E
100
AcDbEntity
  8
0
 62
     7
100
AcDbCircle
 10
81.87058065370232
 20
-4.95522082345259
 30
0.0
 40
1.779999973418629
100
AcDbArc
 50
208.9062944500386
 51
280.0145588583424
  0
ARC
  5
2E0
330
1E
100
AcDbEntity
  8
0
 62
     7
100
AcDbCircle
 10
67.9300711573718
 20
0.0
 30
0.0
 40
13.679999794526
100
AcDbArc
 50
330.3702274747653
 51
334.8417725278533
  0
ARC
  5
2E1
330
1E
100
AcDbEntity
  8
0
 62
     7
100
AcDbCircle
 10
80.01675206655491
 20
-8.53253555665978
 30
0.0
 40
1.779999973296597
100
AcDbArc
 50
25.19744115190164
 51
96.3057055549916
  0
ARC
  5
2E2
330
1E
100
AcDbEntity
  8
0
 62
     7
100
AcDbCircle
 10
67.9300711573718
 20
0.0
 30
0.0
 40
15.74999976345234
100
AcDbArc
 50
330.4203478194703
 51
334.7916521852353
  0
ARC
  5
2E3
330
1E
100
AcDbEntity
  8
0
 62
     7
100
AcDbCircle
 10
82.69052825749202
 20
-1.010408146300987
 30
0.0
 40
1.779999973421728
100
AcDbArc
 50
224.5582944509334
 51
295.6665588587881
  0
ARC
  5
2E4
330
1E
100
AcDbEntity
  8
0
 62
     7
100
AcDbCircle
 10
67.9300711573718
 20
0.0
 30
0.0
 40
13.67999979456288
100
AcDbArc
 50
346.0222274750536
 51
350.4937725280648
  0
ARC
  5
2E5
330
1E
100
AcDbEntity
  8
0
 62
     7
100
AcDbCircle
 10
81.87058065370232
 20
-4.95522082345259
 30
0.0
 40
1.779999973256369
100
AcDbArc
 50
40.84944115189581
 51
111.9577055550264
  0
ARC
  5
2E6
330
1E
100
AcDbEntity
  8
0
 62
     7
100
AcDbCircle
 10
67.9300711573718
 20
0.0
 30
0.0
 40
15.74999976345134
100
AcDbArc
 50
346.072347819682
 51
350.4436521855641
  0
ARC
  5
2E7
330
1E
100
AcDbEntity
  8
0
 62
     7
100
AcDbCircle
 10
82.4157844581707
 20
3.009340225646848
 30
0.0
 40
1.779999973265296
100
AcDbArc
 50
240.2102944458065
 51
311.3185588609933
  0
ARC
  5
2E8
330
1E
100
AcDbEntity
  8
0
 62
     7
100
AcDbCircle
 10
67.9300711573718
 20
0.0
 30
0.0
 40
13.67999979450356
100
AcDbArc
 50
1.674227475334614
 51
6.145772528366941
  0
ARC
  5
2E9
330
1E
100
AcDbEntity
  8
0
 62
     7
100
AcDbCircle
 10
82.69052825749202
 20
-1.010408146300987
 30
0.0
 40
1.779999973228189
100
AcDbArc
 50
56.50144115382714
 51
127.6097055568959
  0
ARC
  5
2EA
330
1E
100
AcDbEntity
  8
0
 62
     7
100
AcDbCircle
 10
67.9300711573718
 20
0.0
 30
0.0
 40
15.74999976339761
100
AcDbArc
 50
1.72434781997287
 51
6.095652185804312
  0
ARC
  5
2EB
330
1E
100
AcDbEntity
  8
0
 62
     7
100
AcDbCircle
 10
81.06672529648667
 20
6.80590452894883
 30
0.0
 40
1.779999973429274
100
AcDbArc
 50
255.8622944493375
 51
326.9705588575291
  0
ARC
  5
2EC
330
1E
100
AcDbEntity
  8
0
 62
     7
100
AcDbCircle
 10
67.9300711573718
 20
0.0
 30
0.0
 40
13.67999979450583
100
AcDbArc
 50
17.32622747485595
 51
21.79777252784651
  0
ARC
  5
2ED
330
1E
100
AcDbEntity
  8
0
 62
     7
100
AcDbCircle
 10
82.4157844581707
 20
3.009340225646848
 30
0.0
 40
1.7799999732758
100
AcDbArc
 50
72.15344115228859
 51
143.26170555585
  0
ARC
  5
2EE
330
1E
100
AcDbEntity
  8
0
 62
     7
100
AcDbCircle
 10
67.9300711573718
 20
0.0
 30
0.0
 40
15.74999976345079
100
AcDbArc
 50
17.37634781947481
 51
21.7476521852875
  0
ARC
  5
2EF
330
1E
100
AcDbEntity
  8
0
 62
     7
100
AcDbCircle
 10
78.7434021092342
 20
10.0977171752779
 30
0.0
 40
1.779999973414019
100
AcDbArc
 50
271.5142944505868
 51
342.6225588591018
  0
ARC
  5
2F0
330
1E
100
AcDbEntity
  8
0
 62
     7
100
AcDbCircle
 10
67.9300711573718
 20
0.0
 30
0.0
 40
13.67999979452751
100
AcDbArc
 50
32.97822747503026
 51
37.44977252814103
  0
ARC
  5
2F1
330
1E
100
AcDbEntity
  8
0
 62
     7
100
AcDbCircle
 10
81.06672529648667
 20
6.80590452894883
 30
0.0
 40
1.779999973259541
100
AcDbArc
 50
87.80544115324815
 51
158.9137055569931
  0
ARC
  5
2F2
330
1E
100
AcDbEntity
  8
0
 62
     7
100
AcDbCircle
 10
67.9300711573718
 20
0.0
 30
0.0
 40
15.74999976346596
100
AcDbArc
 50
33.02834781972406
 51
37.39965218552272
  0
ARC
  5
2F3
330
1E
100
AcDbEntity
  8
0
 62
     7
100
AcDbCircle
 10
75.61812134364649
 20
12.64064487124409
 30
0.0
 40
1.779999973424969
100
AcDbArc
 50
287.1662944489978
 51
358.2745588588651
  0
ARC
  5
2F4
330
1E
100
AcDbEntity
  8
0
 62
     7
100
AcDbCircle
 10
67.9300711573718
 20
0.0
 30
0.0
 40
13.67999979453283
100
AcDbArc
 50
48.63022747544837
 51
53.10177252845321
  0
ARC
  5
2F5
330
1E
100
AcDbEntity
  8
0
 62
     7
100
AcDbCircle
 10
78.7434021092342
 20
10.0977171752779
 30
0.0
 40
1.779999973282768
100
AcDbArc
 50
103.4574411522372
 51
174.5657055555973
  0
ARC
  5
2F6
330
1E
100
AcDbEntity
  8
0
 62
     7
100
AcDbCircle
 10
67.9300711573718
 20
0.0
 30
0.0
 40
15.74999976346359
100
AcDbArc
 50
48.6803478200566
 51
53.05165218585603
  0
ARC
  5
2F7
330
1E
100
AcDbEntity
  8
0
 62
     7
100
AcDbCircle
 10
71.9226656582441
 20
14.246094467591
 30
0.0
 40
1.779999973278201
100
AcDbArc
 50
302.8182944454235
 51
13.92655886206486
  0
ARC
  5
2F8
330
1E
100
AcDbEntity
  8
0
 62
     7
100
AcDbCircle
 10
67.9300711573718
 20
0.0
 30
0.0
 40
13.67999979456058
100
AcDbArc
 50
64.28222747564021
 51
68.75377252863748
  0
ARC
  5
2F9
330
1E
100
AcDbEntity
  8
0
 62
     7
100
AcDbCircle
 10
75.61812134364649
 20
12.64064487124409
 30
0.0
 40
1.779999973253389
100
AcDbArc
 50
119.1094411536461
 51
190.2177055560543
  0
ARC
  5
2FA
330
1E
100
AcDbEntity
  8
0
 62
     7
100
AcDbCircle
 10
67.9300711573718
 20
0.0
 30
0.0
 40
15.74999976345558
100
AcDbArc
 50
64.3323478202307
 51
68.70365218614999
  0
ARC
  5
2FB
330
1E
100
AcDbEntity
  8
0
 62
     7
100
AcDbCircle
 10
67.9311040428166
 20
14.7949997417657
 30
0.0
 40
1.77999997324018
100
AcDbArc
 50
318.4702944505318
 51
29.57855886371786
  0
ARC
  5
2FC
330
1E
100
AcDbEntity
  8
0
 62
     7
100
AcDbCircle
 10
67.9300711573718
 20
0.0
 30
0.0
 40
13.67999979458956
100
AcDbArc
 50
79.93422747507064
 51
84.40577252809806
  0
ARC
  5
2FD
330
1E
100
AcDbEntity
  8
0
 62
     7
100
AcDbCircle
 10
71.9226656582441
 20
14.246094467591
 30
0.0
 40
1.779999973294771
100
AcDbArc
 50
134.7614411516675
 51
205.8697055551145
  0
ARC
  5
2FE
330
1E
100
AcDbEntity
  8
0
 62
     7
100
AcDbCircle
 10
67.9300711573718
 20
0.0
 30
0.0
 40
15.74999976352698
100
AcDbArc
 50
79.98434781970741
 51
84.35565218550676
  0
ARC
  5
2FF
330
1E
100
AcDbEntity
  8
0
 62
     7
100
AcDbCircle
 10
67.9300711573718
 20
0.0
 30
0.0
 40
15.74999976350956
100
AcDbArc
 50
111.2963478138429
 51
115.6676521796479
  0
ARC
  5
300
330
1E
100
AcDbEntity
  8
0
 62
     7
100
AcDbCircle
 10
60.2420209710489
 20
12.6406448711044
 30
0.0
 40
1.779999973342254
100
AcDbArc
 50
349.7822944475537
 51
60.89055884712841
  0
ARC
  5
301
330
1E
100
AcDbEntity
  8
0
 62
     7
100
AcDbCircle
 10
67.9300711573718
 20
0.0
 30
0.0
 40
13.67999979476838
100
AcDbArc
 50
111.2462274699107
 51
115.7177725243498
  0
ARC
  5
302
330
1E
100
AcDbEntity
  8
0
 62
     7
100
AcDbCircle
 10
63.9374766566164
 20
14.2460944675453
 30
0.0
 40
1.779999972874193
100
AcDbArc
 50
166.073441135963
 51
237.18170555058
  0
ARC
  5
303
330
1E
100
AcDbEntity
  8
0
 62
     7
100
AcDbCircle
 10
67.9300711573718
 20
0.0
 30
0.0
 40
15.74999976347181
100
AcDbArc
 50
126.9483478141474
 51
131.3196521799474
  0
ARC
  5
304
330
1E
100
AcDbEntity
  8
0
 62
     7
100
AcDbCircle
 10
57.11674020543839
 20
10.09771717516358
 30
0.0
 40
1.779999973385645
100
AcDbArc
 50
5.434294446874971
 51
76.54255884639503
  0
ARC
  5
305
330
1E
100
AcDbEntity
  8
0
 62
     7
100
AcDbCircle
 10
67.9300711573718
 20
0.0
 30
0.0
 40
13.67999979473363
100
AcDbArc
 50
126.8982274701808
 51
131.3697725245537
  0
ARC
  5
306
330
1E
100
AcDbEntity
  8
0
 62
     7
100
AcDbCircle
 10
60.2420209710489
 20
12.6406448711044
 30
0.0
 40
1.779999972872879
100
AcDbArc
 50
181.725441136521
 51
252.8337055510843
  0
ARC
  5
307
330
1E
100
AcDbEntity
  8
0
 62
     7
100
AcDbCircle
 10
67.9300711573718
 20
0.0
 30
0.0
 40
15.74999976347445
100
AcDbArc
 50
142.6003478144795
 51
146.9716521801518
  0
ARC
  5
308
330
1E
100
AcDbEntity
  8
0
 62
     7
100
AcDbCircle
 10
54.79341701830271
 20
6.805904528786267
 30
0.0
 40
1.779999973330551
100
AcDbArc
 50
21.08629444790568
 51
92.19455884804963
  0
ARC
  5
309
330
1E
100
AcDbEntity
  8
0
 62
     7
100
AcDbCircle
 10
67.9300711573718
 20
0.0
 30
0.0
 40
13.679999794755
100
AcDbArc
 50
142.5502274704268
 51
147.0217725249679
  0
ARC
  5
30A
330
1E
100
AcDbEntity
  8
0
 62
     7
100
AcDbCircle
 10
57.11674020543839
 20
10.09771717516358
 30
0.0
 40
1.779999972874952
100
AcDbArc
 50
197.3774411378416
 51
268.4857055515722
  0
ARC
  5
30B
330
1E
100
AcDbEntity
  8
0
 62
     7
100
AcDbCircle
 10
67.9300711573718
 20
0.0
 30
0.0
 40
15.74999976346947
100
AcDbArc
 50
158.2523478147073
 51
162.623652180437
  0
ARC
  5
30C
330
1E
100
AcDbEntity
  8
0
 62
     7
100
AcDbCircle
 10
53.44435785666441
 20
3.00934022570527
 30
0.0
 40
1.779999973186678
100
AcDbArc
 50
36.73829444487297
 51
107.8465588511222
  0
ARC
  5
30D
330
1E
100
AcDbEntity
  8
0
 62
     7
100
AcDbCircle
 10
67.9300711573718
 20
0.0
 30
0.0
 40
13.67999979475177
100
AcDbArc
 50
158.2022274708526
 51
162.6737725251438
  0
ARC
  5
30E
330
1E
100
AcDbEntity
  8
0
 62
     7
100
AcDbCircle
 10
54.79341701830271
 20
6.805904528786267
 30
0.0
 40
1.77999997287535
100
AcDbArc
 50
213.0294411368089
 51
284.1377055504408
  0
ARC
  5
30F
330
1E
100
AcDbEntity
  8
0
 62
     7
100
AcDbCircle
 10
67.9300711573718
 20
0.0
 30
0.0
 40
15.74999976345835
100
AcDbArc
 50
173.9043478141953
 51
178.2756521798523
  0
ARC
  5
310
330
1E
100
AcDbEntity
  8
0
 62
     7
100
AcDbCircle
 10
53.1696140573156
 20
-1.0104081464426
 30
0.0
 40
1.779999973365013
100
AcDbArc
 50
52.39029444731315
 51
123.4985588453945
  0
ARC
  5
311
330
1E
100
AcDbEntity
  8
0
 62
     7
100
AcDbCircle
 10
67.9300711573718
 20
0.0
 30
0.0
 40
13.67999979473272
100
AcDbArc
 50
173.8542274702762
 51
178.3257725246646
  0
ARC
  5
312
330
1E
100
AcDbEntity
  8
0
 62
     7
100
AcDbCircle
 10
53.44435785666441
 20
3.00934022570527
 30
0.0
 40
1.779999972869274
100
AcDbArc
 50
228.6814411364258
 51
299.7897055506531
  0
ARC
  5
313
330
1E
100
AcDbEntity
  8
0
 62
     7
100
AcDbCircle
 10
67.9300711573718
 20
0.0
 30
0.0
 40
15.74999976343333
100
AcDbArc
 50
189.5563478144458
 51
193.92765218033
  0
ARC
  5
314
330
1E
100
AcDbEntity
  8
0
 62
     7
100
AcDbCircle
 10
53.989561661139
 20
-4.955220823554087
 30
0.0
 40
1.779999973344748
100
AcDbArc
 50
68.04229444804649
 51
139.1505588474229
  0
ARC
  5
315
330
1E
100
AcDbEntity
  8
0
 62
     7
100
AcDbCircle
 10
67.9300711573718
 20
0.0
 30
0.0
 40
13.67999979477421
100
AcDbArc
 50
189.5062274704395
 51
193.9777725248898
  0
ARC
  5
316
330
1E
100
AcDbEntity
  8
0
 62
     7
100
AcDbCircle
 10
53.1696140573156
 20
-1.0104081464426
 30
0.0
 40
1.779999972836964
100
AcDbArc
 50
244.3334411378305
 51
315.4417055509195
  0
ARC
  5
317
330
1E
100
AcDbEntity
  8
0
 62
     7
100
AcDbCircle
 10
67.9300711573718
 20
0.0
 30
0.0
 40
15.74999976345069
100
AcDbArc
 50
205.2083478147614
 51
209.579652180573
  0
ARC
  5
318
330
1E
100
AcDbEntity
  8
0
 62
     7
100
AcDbCircle
 10
55.84339024832189
 20
-8.532535556739489
 30
0.0
 40
1.77999997336667
100
AcDbArc
 50
83.69429444890625
 51
154.8025588472564
  0
ARC
  5
319
330
1E
100
AcDbEntity
  8
0
 62
     7
100
AcDbCircle
 10
67.9300711573718
 20
0.0
 30
0.0
 40
13.67999979473164
100
AcDbArc
 50
205.1582274707484
 51
209.6297725251864
  0
ARC
  5
31A
330
1E
100
AcDbEntity
  8
0
 62
     7
100
AcDbCircle
 10
53.989561661139
 20
-4.955220823554087
 30
0.0
 40
1.779999972876991
100
AcDbArc
 50
259.9854411379171
 51
331.0937055515348
  0
ARC
  5
31B
330
1E
100
AcDbEntity
  8
0
 62
     7
100
AcDbCircle
 10
67.9300711573718
 20
0.0
 30
0.0
 40
15.74999976343276
100
AcDbArc
 50
220.8603478150388
 51
225.2316521809159
  0
ARC
  5
31C
330
1E
100
AcDbEntity
  8
0
 62
     7
100
AcDbCircle
 10
58.5936128693746
 20
-11.4770451363353
 30
0.0
 40
1.779999973262628
100
AcDbArc
 50
99.34629444553076
 51
170.4545588496758
  0
ARC
  5
31D
330
1E
100
AcDbEntity
  8
0
 62
     7
100
AcDbCircle
 10
67.9300711573718
 20
0.0
 30
0.0
 40
13.67999979474467
100
AcDbArc
 50
220.8102274710959
 51
225.2817725255989
  0
ARC
  5
31E
330
1E
100
AcDbEntity
  8
0
 62
     7
100
AcDbCircle
 10
55.84339024832189
 20
-8.532535556739489
 30
0.0
 40
1.779999972845135
100
AcDbArc
 50
275.6374411376154
 51
346.7457055514714
  0
ARC
  5
31F
330
1E
100
AcDbEntity
  8
0
 62
     7
100
AcDbCircle
 10
67.9300711573718
 20
0.0
 30
0.0
 40
15.74999976346302
100
AcDbArc
 50
236.5123478149331
 51
240.883652180887
  0
ARC
  5
320
330
1E
100
AcDbEntity
  8
0
 62
     7
100
AcDbCircle
 10
62.0362625985053
 20
-13.5703735797818
 30
0.0
 40
1.779999973190625
100
AcDbArc
 50
114.9982944462318
 51
186.1065588520631
  0
ARC
  5
321
330
1E
100
AcDbEntity
  8
0
 62
     7
100
AcDbCircle
 10
67.9300711573718
 20
0.0
 30
0.0
 40
13.67999979473824
100
AcDbArc
 50
236.4622274709191
 51
240.9337725255455
  0
ARC
  5
322
330
1E
100
AcDbEntity
  8
0
 62
     7
100
AcDbCircle
 10
58.5936128693746
 20
-11.4770451363353
 30
0.0
 40
1.77999997286949
100
AcDbArc
 50
291.2894411378084
 51
2.397705551998539
  0
ARC
  5
323
330
1E
100
AcDbEntity
  8
0
 62
     7
100
AcDbCircle
 10
67.9300711573718
 20
0.0
 30
0.0
 40
15.74999976342024
100
AcDbArc
 50
252.1643478147713
 51
256.5356521805882
  0
ARC
  5
324
330
1E
100
AcDbEntity
  8
0
 62
     7
100
AcDbCircle
 10
62.0362625985053
 20
-13.5703735797818
 30
0.0
 40
1.779999972881263
100
AcDbArc
 50
306.9414411374598
 51
18.04970555040187
  0
ARC
  5
325
330
1E
100
AcDbEntity
  8
0
 62
     7
100
AcDbCircle
 10
67.9300711573718
 20
0.0
 30
0.0
 40
12.53499981175651
100
AcDbArc
 50
246.4916237076959
 51
113.5083762923047
  0
ARC
  5
326
330
1E
100
AcDbEntity
  8
0
 62
     7
100
AcDbCircle
 10
67.9300711573718
 20
0.0
 30
0.0
 40
13.33499979971823
100
AcDbArc
 50
247.9785835836833
 51
112.0214164163177
  0
ARC
  5
327
330
1E
100
AcDbEntity
  8
0
 62
     7
100
AcDbCircle
 10
67.9300711573718
 20
0.0
 30
0.0
 40
16.18599975692368
100
AcDbArc
 50
252.0065096484939
 51
107.9934903515067
  0
ARC
  5
328
330
1E
100
AcDbEntity
  8
0
 62
     7
100
AcDbCircle
 10
67.9300711573718
 20
0.0
 30
0.0
 40
16.94799974540332
100
AcDbArc
 50
252.841259391821
 51
107.1587406081794
  0
ARC
  5
329
330
1E
100
AcDbEntity
  8
0
 62
     7
100
AcDbCircle
 10
67.93007117533161
 20
14.744499778556
 30
0.0
 40
1.587499976160609
100
AcDbArc
 50
116.0273308464347
 51
244.0622123389213
  0
ARC
  5
32A
330
1E
100
AcDbEntity
  8
0
 62
     7
100
AcDbCircle
 10
67.93007117533161
 20
14.744499778556
 30
0.0
 40
1.587499976126139
100
AcDbArc
 50
295.9377875220484
 51
63.97266901442015
  0
ARC
  5
32B
330
1E
100
AcDbEntity
  8
0
 62
     7
100
AcDbCircle
 10
63.9520527082689
 20
14.1977337254454
 30
0.0
 40
1.587499961344349
100
AcDbArc
 50
229.9266387886621
 51
259.7143863877138
  0
ARC
  5
32C
330
1E
100
AcDbEntity
  8
0
 62
     7
100
AcDbCircle
 10
63.9520527082689
 20
14.1977337254454
 30
0.0
 40
1.587499984019399
100
AcDbArc
 50
311.5899620831556
 51
79.6248424122621
  0
ARC
  5
32D
330
1E
100
AcDbEntity
  8
0
 62
     7
100
AcDbCircle
 10
62.0558463855913
 20
-13.5238218359488
 30
0.0
 40
1.58749996121605
100
AcDbArc
 50
303.4145537730141
 51
40.58395157853342
  0
ARC
  5
32E
330
1E
100
AcDbEntity
  8
0
 62
     7
100
AcDbCircle
 10
65.9223620214205
 20
-14.6071687107443
 30
0.0
 40
1.587499976214481
100
AcDbArc
 50
288.2012439255557
 51
56.23612541816064
  0
ARC
  5
32F
330
1E
100
AcDbEntity
  8
0
 62
     7
100
AcDbCircle
 10
65.9223620214205
 20
-14.6071687107443
 30
0.0
 40
1.587499976130349
100
AcDbArc
 50
108.111700601867
 51
236.1465820951971
  0
ARC
  5
330
330
1E
100
AcDbEntity
  8
0
 62
     7
100
AcDbCircle
 10
69.9377802756313
 20
-14.6071687131972
 30
0.0
 40
1.587499976165408
100
AcDbArc
 50
303.8534178368718
 51
71.88829932954529
  0
ARC
  5
331
330
1E
100
AcDbEntity
  8
0
 62
     7
100
AcDbCircle
 10
69.9377802756313
 20
-14.6071687131972
 30
0.0
 40
1.587499976168071
100
AcDbArc
 50
123.7638745115409
 51
251.7987560044923
  0
ARC
  5
332
330
1E
100
AcDbEntity
  8
0
 62
     7
100
AcDbCircle
 10
73.804295929156
 20
-13.52382183595699
 30
0.0
 40
1.587499976155686
100
AcDbArc
 50
319.5055917470682
 51
87.54047323846226
  0
ARC
  5
333
330
1E
100
AcDbEntity
  8
0
 62
     7
100
AcDbCircle
 10
73.804295929156
 20
-13.52382183595699
 30
0.0
 40
1.587499976142639
100
AcDbArc
 50
139.4160484213261
 51
267.450929913852
  0
ARC
  5
334
330
1E
100
AcDbEntity
  8
0
 62
     7
100
AcDbCircle
 10
77.2351472043233
 20
-11.4374749608419
 30
0.0
 40
1.587499976154724
100
AcDbArc
 50
335.1577656572105
 51
103.192647149169
  0
ARC
  5
335
330
1E
100
AcDbEntity
  8
0
 62
     7
100
AcDbCircle
 10
77.2351472043233
 20
-11.4374749608419
 30
0.0
 40
1.587499976151423
100
AcDbArc
 50
155.0682223314768
 51
283.1031038244109
  0
ARC
  5
336
330
1E
100
AcDbEntity
  8
0
 62
     7
100
AcDbCircle
 10
79.9758835572236
 20
-8.5028628911808
 30
0.0
 40
1.587499976150378
100
AcDbArc
 50
350.8099395655396
 51
118.8448210591288
  0
ARC
  5
337
330
1E
100
AcDbEntity
  8
0
 62
     7
100
AcDbCircle
 10
79.9758835572236
 20
-8.5028628911808
 30
0.0
 40
1.58749997613362
100
AcDbArc
 50
170.720396241759
 51
298.7552777341475
  0
ARC
  5
338
330
1E
100
AcDbEntity
  8
0
 62
     7
100
AcDbCircle
 10
81.8232371106848
 20
-4.937632379184927
 30
0.0
 40
1.58749997621591
100
AcDbArc
 50
6.462113475703457
 51
134.4969949677873
  0
ARC
  5
339
330
1E
100
AcDbEntity
  8
0
 62
     7
100
AcDbCircle
 10
81.8232371106848
 20
-4.937632379184927
 30
0.0
 40
1.587499976099843
100
AcDbArc
 50
186.3725701520658
 51
314.4074516445568
  0
ARC
  5
33A
330
1E
100
AcDbEntity
  8
0
 62
     7
100
AcDbCircle
 10
82.6401981028607
 20
-1.00620026192755
 30
0.0
 40
1.587499976121613
100
AcDbArc
 50
22.11428738712306
 51
150.1491688796086
  0
ARC
  5
33B
330
1E
100
AcDbEntity
  8
0
 62
     7
100
AcDbCircle
 10
82.6401981028607
 20
-1.00620026192755
 30
0.0
 40
1.587499976144346
100
AcDbArc
 50
202.0247440618629
 51
330.0596255538463
  0
ARC
  5
33C
330
1E
100
AcDbEntity
  8
0
 62
     7
100
AcDbCircle
 10
82.3661762742271
 20
2.99985712568795
 30
0.0
 40
1.587499976187628
100
AcDbArc
 50
37.76646129608058
 51
165.8013427888384
  0
ARC
  5
33D
330
1E
100
AcDbEntity
  8
0
 62
     7
100
AcDbCircle
 10
82.3661762742271
 20
2.99985712568795
 30
0.0
 40
1.587499976119904
100
AcDbArc
 50
217.6769179725198
 51
345.7117994646366
  0
ARC
  5
33E
330
1E
100
AcDbEntity
  8
0
 62
     7
100
AcDbCircle
 10
81.02149457028707
 20
6.78342883380607
 30
0.0
 40
1.587499976194454
100
AcDbArc
 50
53.41863520668878
 51
181.4535166982684
  0
ARC
  5
33F
330
1E
100
AcDbEntity
  8
0
 62
     7
100
AcDbCircle
 10
81.02149457028707
 20
6.78342883380607
 30
0.0
 40
1.587499976125255
100
AcDbArc
 50
233.3290918822409
 51
1.36397337460356
  0
ARC
  5
340
330
1E
100
AcDbEntity
  8
0
 62
     7
100
AcDbCircle
 10
78.7058818814712
 20
10.0639046576664
 30
0.0
 40
1.587499976175875
100
AcDbArc
 50
69.07080911678663
 51
197.1056906092983
  0
ARC
  5
341
330
1E
100
AcDbEntity
  8
0
 62
     7
100
AcDbCircle
 10
78.7058818814712
 20
10.0639046576664
 30
0.0
 40
1.587499976142605
100
AcDbArc
 50
248.9812657915668
 51
17.0161472848219
  0
ARC
  5
342
330
1E
100
AcDbEntity
  8
0
 62
     7
100
AcDbCircle
 10
75.59107660760121
 20
12.5979867126166
 30
0.0
 40
1.587499976177844
100
AcDbArc
 50
84.72298302599698
 51
212.7578645190598
  0
ARC
  5
343
330
1E
100
AcDbEntity
  8
0
 62
     7
100
AcDbCircle
 10
75.59107660760121
 20
12.5979867126166
 30
0.0
 40
1.587499976136147
100
AcDbArc
 50
264.6334397028379
 51
32.66832119469951
  0
ARC
  5
344
330
1E
100
AcDbEntity
  8
0
 62
     7
100
AcDbCircle
 10
71.9080896064747
 20
14.1977337254454
 30
0.0
 40
1.587499976161653
100
AcDbArc
 50
100.3751569363418
 51
228.4100384285098
  0
ARC
  5
345
330
1E
100
AcDbEntity
  8
0
 62
     7
100
AcDbCircle
 10
71.9080896064747
 20
14.1977337254454
 30
0.0
 40
1.58749997612406
100
AcDbArc
 50
280.2856136122897
 51
48.32049510431686
  0
ARC
  5
346
330
1E
100
AcDbEntity
  8
0
 62
     7
100
AcDbCircle
 10
67.93007117533161
 20
14.744499778556
 30
0.0
 40
1.587499976160609
100
AcDbArc
 50
116.0273308464347
 51
244.0622123389213
  0
ARC
  5
347
330
1E
100
AcDbEntity
  8
0
 62
     7
100
AcDbCircle
 10
67.93007117533161
 20
14.744499778556
 30
0.0
 40
1.587499976126139
100
AcDbArc
 50
295.9377875220484
 51
63.97266901442015
  0
ARC
  5
348
330
1E
100
AcDbEntity
  8
1
 62
     7
100
AcDbCircle
 10
67.9300711573718
 20
0.0
 30
0.0
 40
16.94799974540337
100
AcDbArc
 50
107.1587406081794
 51
252.841259391821
  0
ARC
  5
349
330
1E
100
AcDbEntity
  8
1
 62
     7
100
AcDbCircle
 10
67.9300711573718
 20
0.0
 30
0.0
 40
16.18599975692363
100
AcDbArc
 50
107.9934903515067
 51
252.0065096484939
  0
ARC
  5
34A
330
1E
100
AcDbEntity
  8
1
 62
     7
100
AcDbCircle
 10
67.9300711573718
 20
0.0
 30
0.0
 40
13.33499979971821
100
AcDbArc
 50
112.0214164163177
 51
247.9785835836833
  0
ARC
  5
34B
330
1E
100
AcDbEntity
  8
1
 62
     7
100
AcDbCircle
 10
67.9300711573718
 20
0.0
 30
0.0
 40
12.53499981175659
100
AcDbArc
 50
113.5083762923047
 51
246.4916237076959
  0
ARC
  5
34C
330
1E
100
AcDbEntity
  8
0
 62
     7
100
AcDbCircle
 10
63.9520527082689
 20
14.1977337254454
 30
0.0
 40
1.587499976124053
100
AcDbArc
 50
131.679504895683
 51
259.7143863877138
  0
ARC
  5
34D
330
1E
100
AcDbEntity
  8
0
 62
     7
100
AcDbCircle
 10
60.26906570714249
 20
12.5979867126166
 30
0.0
 40
1.587499976136375
100
AcDbArc
 50
147.331678805301
 51
275.3665602971614
  0
ARC
  5
34E
330
1E
100
AcDbEntity
  8
0
 62
     7
100
AcDbCircle
 10
60.26906570714249
 20
12.5979867126166
 30
0.0
 40
1.587499976178168
100
AcDbArc
 50
327.2421354809398
 51
95.27701697400178
  0
ARC
  5
34F
330
1E
100
AcDbEntity
  8
0
 62
     7
100
AcDbCircle
 10
57.15426043327091
 20
10.06390465766789
 30
0.0
 40
1.587499976140545
100
AcDbArc
 50
162.9838527152128
 51
291.0187342084681
  0
ARC
  5
350
330
1E
100
AcDbEntity
  8
0
 62
     7
100
AcDbCircle
 10
57.15426043327091
 20
10.06390465766789
 30
0.0
 40
1.587499976175514
100
AcDbArc
 50
342.8943093906679
 51
110.9291908831794
  0
ARC
  5
351
330
1E
100
AcDbEntity
  8
0
 62
     7
100
AcDbCircle
 10
54.83864774445661
 20
6.78342883380607
 30
0.0
 40
1.587499976125459
100
AcDbArc
 50
178.6360266253971
 51
306.6709081177598
  0
ARC
  5
352
330
1E
100
AcDbEntity
  8
0
 62
     7
100
AcDbCircle
 10
54.83864774445661
 20
6.78342883380607
 30
0.0
 40
1.587499976193031
100
AcDbArc
 50
358.5464833017327
 51
126.5813647933134
  0
ARC
  5
353
330
1E
100
AcDbEntity
  8
0
 62
     7
100
AcDbCircle
 10
53.4939660405166
 20
2.99985712568795
 30
0.0
 40
1.587499976120938
100
AcDbArc
 50
194.2882005353638
 51
322.3230820274803
  0
ARC
  5
354
330
1E
100
AcDbEntity
  8
0
 62
     7
100
AcDbCircle
 10
53.4939660405166
 20
2.99985712568795
 30
0.0
 40
1.587499976187609
100
AcDbArc
 50
14.19865721116261
 51
142.2335387039194
  0
ARC
  5
355
330
1E
100
AcDbEntity
  8
0
 62
     7
100
AcDbCircle
 10
53.219944211883
 20
-1.00620026192755
 30
0.0
 40
1.58749997614371
100
AcDbArc
 50
209.9403744461544
 51
337.9752559381378
  0
ARC
  5
356
330
1E
100
AcDbEntity
  8
0
 62
     7
100
AcDbCircle
 10
53.219944211883
 20
-1.00620026192755
 30
0.0
 40
1.587499976120633
100
AcDbArc
 50
29.85083112039176
 51
157.8857126128776
  0
ARC
  5
357
330
1E
100
AcDbEntity
  8
0
 62
     7
100
AcDbCircle
 10
54.0369052040558
 20
-4.937632379186018
 30
0.0
 40
1.587499976096888
100
AcDbArc
 50
225.5925483554959
 51
353.6274298479863
  0
ARC
  5
358
330
1E
100
AcDbEntity
  8
0
 62
     7
100
AcDbCircle
 10
54.0369052040558
 20
-4.937632379186018
 30
0.0
 40
1.587499976213023
100
AcDbArc
 50
45.50300503216021
 51
173.5378865242456
  0
ARC
  5
359
330
1E
100
AcDbEntity
  8
0
 62
     7
100
AcDbCircle
 10
55.8842587575201
 20
-8.5028628911808
 30
0.0
 40
1.587499976135609
100
AcDbArc
 50
241.2447222658523
 51
9.279603758241419
  0
ARC
  5
35A
330
1E
100
AcDbEntity
  8
0
 62
     7
100
AcDbCircle
 10
55.8842587575201
 20
-8.5028628911808
 30
0.0
 40
1.587499976150479
100
AcDbArc
 50
61.15517894087122
 51
189.1900604344609
  0
ARC
  5
35B
330
1E
100
AcDbEntity
  8
0
 62
     7
100
AcDbCircle
 10
58.6249951104186
 20
-11.4374749608441
 30
0.0
 40
1.587499976148929
100
AcDbArc
 50
256.8968961756378
 51
24.93177766856772
  0
ARC
  5
35C
330
1E
100
AcDbEntity
  8
0
 62
     7
100
AcDbCircle
 10
58.6249951104186
 20
-11.4374749608441
 30
0.0
 40
1.587499976152168
100
AcDbArc
 50
76.80735285078622
 51
204.8422343427448
  0
ARC
  5
35D
330
1E
100
AcDbEntity
  8
0
 62
     7
100
AcDbCircle
 10
62.0558463855913
 20
-13.5238218359488
 30
0.0
 40
1.587499976150656
100
AcDbArc
 50
272.5490700860049
 51
40.58395157853342
  0
ARC
  5
35E
330
1E
100
AcDbEntity
  8
0
 62
     7
100
AcDbCircle
 10
62.0558463855913
 20
-13.5238218359488
 30
0.0
 40
1.587499976163735
100
AcDbArc
 50
92.45952676168007
 51
220.4944082530724
  0
ARC
  5
35F
330
1E
100
AcDbEntity
  8
0
 62
     7
100
AcDbCircle
 10
-13.0496744501737
 20
-16.5439997515522
 30
0.0
 40
0.8499999902384994
100
AcDbArc
 50
180.0000000002024
 51
270.0000000005459
  0
ARC
  5
360
330
1E
100
AcDbEntity
  8
0
 62
     7
100
AcDbCircle
 10
-14.14967443665338
 20
-11.7499998235079
 30
0.0
 40
0.2499999962470998
100
AcDbArc
 50
359.9999999992668
 51
89.99999999926641
  0
ARC
  5
361
330
1E
100
AcDbEntity
  8
0
 62
     7
100
AcDbCircle
 10
-13.04967445017108
 20
16.5439997515627
 30
0.0
 40
0.8499999902431978
100
AcDbArc
 50
89.99999999997978
 51
179.9999999999799
  0
ARC
  5
362
330
1E
100
AcDbEntity
  8
0
 62
     7
100
AcDbCircle
 10
-14.1496744366502
 20
11.74999982351367
 30
0.0
 40
0.2499999962392998
100
AcDbArc
 50
270.0
 51
0.0
  0
ARC
  5
363
330
1E
100
AcDbEntity
  8
0
 62
     7
100
AcDbCircle
 10
7.550325473107599
 20
-17.0622292958643
 30
0.0
 40
0.0999999983882196
100
AcDbArc
 50
0.0000000049830387
 51
85.99999999645348
  0
ARC
  5
364
330
1E
100
AcDbEntity
  8
0
 62
     7
100
AcDbCircle
 10
7.55032547290472
 20
-17.1799789882681
 30
0.0
 40
0.0999999985401498
100
AcDbArc
 50
314.9999999999881
 51
359.9999999931828
  0
ARC
  5
365
330
1E
100
AcDbEntity
  8
0
 62
     7
100
AcDbCircle
 10
-3.197837540770759
 20
-35.3416538029943
 30
0.0
 40
18.00762759474164
100
AcDbArc
 50
77.66094784543169
 51
94.67745701882334
  0
ARC
  5
366
330
1E
100
AcDbEntity
  8
0
 62
     7
100
AcDbCircle
 10
-12.9496744802088
 20
-16.4479997514199
 30
0.0
 40
0.5099019454679489
100
AcDbArc
 50
191.3099326064177
 51
258.6900673930106
  0
ARC
  5
367
330
1E
100
AcDbEntity
  8
0
 62
     7
100
AcDbCircle
 10
7.55032547309753
 20
17.0622292958738
 30
0.0
 40
0.0999999985172269
100
AcDbArc
 50
274.0000000092304
 51
0.0000000012620441
  0
ARC
  5
368
330
1E
100
AcDbEntity
  8
0
 62
     7
100
AcDbCircle
 10
-3.197837540736779
 20
35.3416538029984
 30
0.0
 40
18.00762759473627
100
AcDbArc
 50
265.3225429810666
 51
282.3390521544668
  0
ARC
  5
369
330
1E
100
AcDbEntity
  8
0
 62
     7
100
AcDbCircle
 10
-13.04967448020899
 20
16.5479997514226
 30
0.0
 40
0.3999999939935002
100
AcDbArc
 50
90.0
 51
180.0
  0
ARC
  5
36A
330
1E
100
AcDbEntity
  8
0
 62
     7
100
AcDbCircle
 10
7.55032547290472
 20
17.1799789882885
 30
0.0
 40
0.0999999985911
100
AcDbArc
 50
0.0000000068191093
 51
45.00000000001188
  0
ARC
  5
36B
330
1E
100
AcDbEntity
  8
1
 62
     7
100
AcDbCircle
 10
-16.1996744742008
 20
-7.5
 30
0.0
 40
2.530316185775999
100
AcDbArc
 50
330.3955492539951
 51
29.6044507460049
  0
CIRCLE
  5
36C
330
1E
100
AcDbEntity
  8
1
 62
     7
100
AcDbCircle
 10
44.9491007685641
 20
22.98097038861636
 30
0.0
 40
2.250000000000009
  0
CIRCLE
  5
36D
330
1E
100
AcDbEntity
  8
1
 62
     3
100
AcDbCircle
 10
37.90398635069325
 20
12.43721155171636
 30
0.0
 40
2.000000000000023
  0
CIRCLE
  5
36E
330
1E
100
AcDbEntity
  8
1
 62
     7
100
AcDbCircle
 10
37.90398635069325
 20
12.43721155171636
 30
0.0
 40
1.599999999999949
  0
CIRCLE
  5
36F
330
1E
100
AcDbEntity
  8
1
 62
     7
100
AcDbCircle
 10
35.43007115713614
 20
0.000000000049738
 30
0.0
 40
2.25
  0
CIRCLE
  5
370
330
1E
100
AcDbEntity
  8
1
 62
     3
100
AcDbCircle
 10
37.90398635081671
 20
-12.4372115520145
 30
0.0
 40
2.0
  0
CIRCLE
  5
371
330
1E
100
AcDbEntity
  8
1
 62
     7
100
AcDbCircle
 10
37.90398635081671
 20
-12.4372115520145
 30
0.0
 40
1.599999999999965
  0
CIRCLE
  5
372
330
1E
100
AcDbEntity
  8
1
 62
     7
100
AcDbCircle
 10
44.94910076858258
 20
-22.98097038850919
 30
0.0
 40
2.249999999999976
  0
CIRCLE
  5
373
330
1E
100
AcDbEntity
  8
1
 62
     3
100
AcDbCircle
 10
55.49285960565541
 20
-30.02608480667857
 30
0.0
 40
2.000000000000013
  0
CIRCLE
  5
374
330
1E
100
AcDbEntity
  8
1
 62
     7
100
AcDbCircle
 10
55.49285960565541
 20
-30.02608480667857
 30
0.0
 40
1.599999999999994
  0
CIRCLE
  5
375
330
1E
100
AcDbEntity
  8
1
 62
     7
100
AcDbCircle
 10
67.9300711571492
 20
-32.49999999993718
 30
0.0
 40
2.25
  0
CIRCLE
  5
376
330
1E
100
AcDbEntity
  8
1
 62
     3
100
AcDbCircle
 10
80.36728270938626
 20
-30.0260848065551
 30
0.0
 40
1.999999999999995
  0
CIRCLE
  5
377
330
1E
100
AcDbEntity
  8
1
 62
     7
100
AcDbCircle
 10
80.36728270938626
 20
-30.0260848065551
 30
0.0
 40
1.60000000000003
  0
CIRCLE
  5
378
330
1E
100
AcDbEntity
  8
1
 62
     7
100
AcDbCircle
 10
90.91104154570819
 20
-22.98097038849073
 30
0.0
 40
2.25
  0
CIRCLE
  5
379
330
1E
100
AcDbEntity
  8
1
 62
     3
100
AcDbCircle
 10
97.95615596405031
 20
-12.43721155171642
 30
0.0
 40
1.999999999999992
  0
CIRCLE
  5
37A
330
1E
100
AcDbEntity
  8
1
 62
     7
100
AcDbCircle
 10
97.95615596405031
 20
-12.43721155171642
 30
0.0
 40
1.599999999999994
  0
CIRCLE
  5
37B
330
1E
100
AcDbEntity
  8
1
 62
     7
100
AcDbCircle
 10
100.430071157136
 20
0.0000000000759428
 30
0.0
 40
2.25
  0
CIRCLE
  5
37C
330
1E
100
AcDbEntity
  8
1
 62
     7
100
AcDbCircle
 10
97.95615596392693
 20
12.43721155201443
 30
0.0
 40
1.599999999999965
  0
CIRCLE
  5
37D
330
1E
100
AcDbEntity
  8
1
 62
     3
100
AcDbCircle
 10
97.95615596392693
 20
12.43721155201443
 30
0.0
 40
2.0
  0
CIRCLE
  5
37E
330
1E
100
AcDbEntity
  8
1
 62
     7
100
AcDbCircle
 10
90.91104154568968
 20
22.98097038863489
 30
0.0
 40
2.250000000000043
  0
CIRCLE
  5
37F
330
1E
100
AcDbEntity
  8
1
 62
     3
100
AcDbCircle
 10
55.49285960535735
 20
30.0260848065551
 30
0.0
 40
1.999999999999995
  0
CIRCLE
  5
380
330
1E
100
AcDbEntity
  8
1
 62
     7
100
AcDbCircle
 10
55.49285960535735
 20
30.0260848065551
 30
0.0
 40
1.60000000000003
  0
CIRCLE
  5
381
330
1E
100
AcDbEntity
  8
1
 62
     3
100
AcDbCircle
 10
80.36728270908815
 20
30.02608480667846
 30
0.0
 40
2.000000000000095
  0
CIRCLE
  5
382
330
1E
100
AcDbEntity
  8
1
 62
     7
100
AcDbCircle
 10
80.36728270908815
 20
30.02608480667846
 30
0.0
 40
1.600000000000034
  0
CIRCLE
  5
383
330
1E
100
AcDbEntity
  8
1
 62
     7
100
AcDbCircle
 10
67.93007115712305
 20
32.50000000006276
 30
0.0
 40
2.25
  0
CIRCLE
  5
384
330
1E
100
AcDbEntity
  8
1
 62
     7
100
AcDbCircle
 10
67.9300711573718
 20
0.0
 30
0.0
 40
17.74999973347781
  0
CIRCLE
  5
385
330
1E
100
AcDbEntity
  8
1
 62
     7
100
AcDbCircle
 10
67.9300711573718
 20
0.0
 30
0.0
 40
17.2499997409891
  0
CIRCLE
  5
386
330
1E
100
AcDbEntity
  8
1
 62
     7
100
AcDbCircle
 10
67.9300711573718
 20
0.0
 30
0.0
 40
10.99999983487967
  0
CIRCLE
  5
387
330
1E
100
AcDbEntity
  8
1
 62
     7
100
AcDbCircle
 10
67.9300711573718
 20
0.0
 30
0.0
 40
9.999999849902092
  0
CIRCLE
  5
388
330
1E
100
AcDbEntity
  8
1
 62
     7
100
AcDbCircle
 10
67.9300711573718
 20
0.0
 30
0.0
 40
6.99999989496957
  0
CIRCLE
  5
389
330
1E
100
AcDbEntity
  8
1
 62
     7
100
AcDbCircle
 10
67.9300711573718
 20
0.0
 30
0.0
 40
36.49999999999996
  0
CIRCLE
  5
38A
330
1E
100
AcDbEntity
  8
1
 62
     3
100
AcDbCircle
 10
-76.12185342124721
 20
0.0
 30
0.0
 40
7.5
  0
CIRCLE
  5
38B
330
1E
100
AcDbEntity
  8
1
 62
     7
100
AcDbCircle
 10
67.9300711573718
 20
0.0
 30
0.0
 40
18.99999999999994
  0
CIRCLE
  5
38C
330
1E
100
AcDbEntity
  8
1
 62
     7
100
AcDbCircle
 10
67.9300711573718
 20
0.0
 30
0.0
 40
23.80000000000002
  0
CIRCLE
  5
38D
330
1E
100
AcDbEntity
  8
1
 62
     7
100
AcDbCircle
 10
67.9300711573718
 20
0.0
 30
0.0
 40
26.49999999999999
  0
CIRCLE
  5
38E
330
1E
100
AcDbEntity
  8
1
 62
     3
100
AcDbCircle
 10
67.9300711573718
 20
0.0
 30
0.0
 40
32.49999999999999
  0
CIRCLE
  5
38F
330
1E
100
AcDbEntity
  8
1
 62
     3
100
AcDbCircle
 10
-80.3718534212472
 20
7.36121593216773
 30
0.0
 40
0.25
  0
CIRCLE
  5
390
330
1E
100
AcDbEntity
  8
1
 62
     3
100
AcDbCircle
 10
-84.62185342124721
 20
0.0
 30
0.0
 40
0.25
  0
CIRCLE
  5
391
330
1E
100
AcDbEntity
  8
1
 62
     3
100
AcDbCircle
 10
-80.3718534212472
 20
-7.361215932167716
 30
0.0
 40
0.25
  0
CIRCLE
  5
392
330
1E
100
AcDbEntity
  8
1
 62
     3
100
AcDbCircle
 10
-71.8718534212472
 20
-7.361215932167716
 30
0.0
 40
0.25
  0
CIRCLE
  5
393
330
1E
100
AcDbEntity
  8
1
 62
     3
100
AcDbCircle
 10
-67.62185342124721
 20
0.0
 30
0.0
 40
0.25
  0
CIRCLE
  5
394
330
1E
100
AcDbEntity
  8
1
 62
     3
100
AcDbCircle
 10
-71.8718534212472
 20
7.36121593216773
 30
0.0
 40
0.25
  0
CIRCLE
  5
395
330
1E
100
AcDbEntity
  8
1
 62
     3
100
AcDbCircle
 10
-76.12185342124721
 20
-7.5
 30
0.0
 40
0.25
  0
CIRCLE
  5
396
330
1E
100
AcDbEntity
  8
1
 62
     3
100
AcDbCircle
 10
-69.6266628928639
 20
3.75
 30
0.0
 40
0.25
  0
CIRCLE
  5
397
330
1E
100
AcDbEntity
  8
1
 62
     3
100
AcDbCircle
 10
-82.6170439496305
 20
3.75000000000002
 30
0.0
 40
0.25
  0
CIRCLE
  5
398
330
1E
100
AcDbEntity
  8
1
 62
     7
100
AcDbCircle
 10
-76.12185342124721
 20
24.5
 30
0.0
 40
2.403589838486198
  0
CIRCLE
  5
399
330
1E
100
AcDbEntity
  8
1
 62
     7
100
AcDbCircle
 10
-76.12185342124721
 20
24.5
 30
0.0
 40
2.75
  0
CIRCLE
  5
39A
330
1E
100
AcDbEntity
  8
1
 62
     7
100
AcDbCircle
 10
-93.44596956031759
 20
17.32411613907049
 30
0.0
 40
2.403589838486198
  0
CIRCLE
  5
39B
330
1E
100
AcDbEntity
  8
1
 62
     7
100
AcDbCircle
 10
-93.44596956031759
 20
17.32411613907049
 30
0.0
 40
2.75
  0
CIRCLE
  5
39C
330
1E
100
AcDbEntity
  8
1
 62
     7
100
AcDbCircle
 10
-100.621853421247
 20
0.0
 30
0.0
 40
2.403589838485999
  0
CIRCLE
  5
39D
330
1E
100
AcDbEntity
  8
1
 62
     7
100
AcDbCircle
 10
-100.621853421247
 20
0.0
 30
0.0
 40
2.749999999999801
  0
CIRCLE
  5
39E
330
1E
100
AcDbEntity
  8
1
 62
     7
100
AcDbCircle
 10
-93.44596956031759
 20
-17.3241161390704
 30
0.0
 40
2.403589838486198
  0
CIRCLE
  5
39F
330
1E
100
AcDbEntity
  8
1
 62
     7
100
AcDbCircle
 10
-93.44596956031759
 20
-17.3241161390704
 30
0.0
 40
2.75
  0
CIRCLE
  5
3A0
330
1E
100
AcDbEntity
  8
1
 62
     7
100
AcDbCircle
 10
-76.12185342124721
 20
-24.5
 30
0.0
 40
2.403589838486198
  0
CIRCLE
  5
3A1
330
1E
100
AcDbEntity
  8
1
 62
     7
100
AcDbCircle
 10
-76.12185342124721
 20
-24.5
 30
0.0
 40
2.75
  0
CIRCLE
  5
3A2
330
1E
100
AcDbEntity
  8
1
 62
     7
100
AcDbCircle
 10
-58.7977372821768
 20
-17.3241161390704
 30
0.0
 40
2.403589838486297
  0
CIRCLE
  5
3A3
330
1E
100
AcDbEntity
  8
1
 62
     7
100
AcDbCircle
 10
-58.7977372821768
 20
-17.3241161390704
 30
0.0
 40
2.75
  0
CIRCLE
  5
3A4
330
1E
100
AcDbEntity
  8
1
 62
     7
100
AcDbCircle
 10
-51.6218534212471
 20
0.0
 30
0.0
 40
2.403589838486205
  0
CIRCLE
  5
3A5
330
1E
100
AcDbEntity
  8
1
 62
     7
100
AcDbCircle
 10
-51.6218534212471
 20
0.0
 30
0.0
 40
2.7499999999999
  0
CIRCLE
  5
3A6
330
1E
100
AcDbEntity
  8
1
 62
     7
100
AcDbCircle
 10
-58.79773728217671
 20
17.3241161390704
 30
0.0
 40
2.403589838486198
  0
CIRCLE
  5
3A7
330
1E
100
AcDbEntity
  8
1
 62
     7
100
AcDbCircle
 10
-58.79773728217671
 20
17.3241161390704
 30
0.0
 40
2.75
  0
CIRCLE
  5
3A8
330
1E
100
AcDbEntity
  8
1
 62
     7
100
AcDbCircle
 10
-85.49759751419191
 20
22.63504854652649
 30
0.0
 40
2.403589838486198
  0
CIRCLE
  5
3A9
330
1E
100
AcDbEntity
  8
1
 62
     7
100
AcDbCircle
 10
-85.49759751419191
 20
22.63504854652649
 30
0.0
 40
2.75
  0
CIRCLE
  5
3AA
330
1E
100
AcDbEntity
  8
1
 62
     7
100
AcDbCircle
 10
-98.7569019677737
 20
-9.3757440929447
 30
0.0
 40
2.403589838486396
  0
CIRCLE
  5
3AB
330
1E
100
AcDbEntity
  8
1
 62
     7
100
AcDbCircle
 10
-98.7569019677737
 20
-9.3757440929447
 30
0.0
 40
2.750000000000099
  0
CIRCLE
  5
3AC
330
1E
100
AcDbEntity
  8
1
 62
     7
100
AcDbCircle
 10
-66.74610932830249
 20
-22.63504854652649
 30
0.0
 40
2.403589838486198
  0
CIRCLE
  5
3AD
330
1E
100
AcDbEntity
  8
1
 62
     7
100
AcDbCircle
 10
-66.74610932830249
 20
-22.63504854652649
 30
0.0
 40
2.749999999999993
  0
CIRCLE
  5
3AE
330
1E
100
AcDbEntity
  8
1
 62
     7
100
AcDbCircle
 10
-53.4868048747206
 20
9.3757440929447
 30
0.0
 40
2.403589838486198
  0
CIRCLE
  5
3AF
330
1E
100
AcDbEntity
  8
1
 62
     7
100
AcDbCircle
 10
-53.4868048747206
 20
9.3757440929447
 30
0.0
 40
2.75
  0
CIRCLE
  5
3B0
330
1E
100
AcDbEntity
  8
0
 62
     7
100
AcDbCircle
 10
69.166737805463
 20
-7.629999885394457
 30
0.0
 40
0.4666666596568946
  0
CIRCLE
  5
3B1
330
1E
100
AcDbEntity
  8
0
 62
     7
100
AcDbCircle
 10
66.6934045092842
 20
-7.629999885394457
 30
0.0
 40
0.4666666596544928
  0
CIRCLE
  5
3B2
330
1E
100
AcDbEntity
  8
1
 62
     7
100
AcDbCircle
 10
67.9300711573718
 20
0.0
 30
0.0
 40
2.999999955059606
  0
CIRCLE
  5
3B3
330
1E
100
AcDbEntity
  8
1
 62
     3
100
AcDbCircle
 10
10.15032547163202
 20
0.0
 30
0.0
 40
1.200000000000001
  0
CIRCLE
  5
3B4
330
1E
100
AcDbEntity
  8
1
 62
     7
100
AcDbCircle
 10
10.1503253905967
 20
0.0
 30
0.0
 40
1.5
  0
CIRCLE
  5
3B5
330
1E
100
AcDbEntity
  8
1
 62
     3
100
AcDbCircle
 10
-76.12185342124721
 20
0.0
 30
0.0
 40
8.5
  0
CIRCLE
  5
3B6
330
1E
100
AcDbEntity
  8
1
 62
     7
100
AcDbCircle
 10
-66.16256127772619
 20
5.74999999999999
 30
0.0
 40
1.599999999999994
  0
CIRCLE
  5
3B7
330
1E
100
AcDbEntity
  8
1
 62
     3
100
AcDbCircle
 10
-66.16256127772619
 20
5.74999999999999
 30
0.0
 40
2.0
  0
CIRCLE
  5
3B8
330
1E
100
AcDbEntity
  8
1
 62
     7
100
AcDbCircle
 10
-66.16256127772619
 20
-5.74999999999999
 30
0.0
 40
1.599999999999994
  0
CIRCLE
  5
3B9
330
1E
100
AcDbEntity
  8
1
 62
     3
100
AcDbCircle
 10
-66.16256127772619
 20
-5.74999999999999
 30
0.0
 40
2.0
  0
CIRCLE
  5
3BA
330
1E
100
AcDbEntity
  8
1
 62
     7
100
AcDbCircle
 10
-76.12185342124721
 20
-11.5
 30
0.0
 40
1.599999999999994
  0
CIRCLE
  5
3BB
330
1E
100
AcDbEntity
  8
1
 62
     3
100
AcDbCircle
 10
-76.12185342124721
 20
-11.5
 30
0.0
 40
2.0
  0
CIRCLE
  5
3BC
330
1E
100
AcDbEntity
  8
1
 62
     7
100
AcDbCircle
 10
-86.0811455647682
 20
-5.75
 30
0.0
 40
1.600000000000008
  0
CIRCLE
  5
3BD
330
1E
100
AcDbEntity
  8
1
 62
     3
100
AcDbCircle
 10
-86.0811455647682
 20
-5.75
 30
0.0
 40
2.0
  0
CIRCLE
  5
3BE
330
1E
100
AcDbEntity
  8
1
 62
     7
100
AcDbCircle
 10
-86.0811455647682
 20
5.75
 30
0.0
 40
1.600000000000008
  0
CIRCLE
  5
3BF
330
1E
100
AcDbEntity
  8
1
 62
     3
100
AcDbCircle
 10
-86.0811455647682
 20
5.75
 30
0.0
 40
2.0
  0
CIRCLE
  5
3C0
330
1E
100
AcDbEntity
  8
1
 62
     7
100
AcDbCircle
 10
-76.12185342124721
 20
11.5
 30
0.0
 40
1.599999999999994
  0
CIRCLE
  5
3C1
330
1E
100
AcDbEntity
  8
1
 62
     3
100
AcDbCircle
 10
-76.12185342124721
 20
11.5
 30
0.0
 40
2.0
  0
CIRCLE
  5
3C2
330
1E
100
AcDbEntity
  8
1
 62
     7
100
AcDbCircle
 10
-76.12185342124721
 20
0.0
 30
0.0
 40
4.0
  0
CIRCLE
  5
3C3
330
1E
100
AcDbEntity
  8
1
 62
     7
100
AcDbCircle
 10
-76.12185342124721
 20
0.0
 30
0.0
 40
5.5
  0
CIRCLE
  5
3C4
330
1E
100
AcDbEntity
  8
1
 62
     7
100
AcDbCircle
 10
-76.12185342124721
 20
0.0
 30
0.0
 40
15.49999999999999
  0
CIRCLE
  5
3C5
330
1E
100
AcDbEntity
  8
1
 62
     7
100
AcDbCircle
 10
-76.12185342124721
 20
0.0
 30
0.0
 40
19.99999999999999
  0
CIRCLE
  5
3C6
330
1E
100
AcDbEntity
  8
1
 62
     7
100
AcDbCircle
 10
-76.12185342124721
 20
0.0
 30
0.0
 40
27.50000000000009
  0
CIRCLE
  5
3C7
330
1E
100
AcDbEntity
  8
1
 62
     7
100
AcDbCircle
 10
-76.12185342124721
 20
0.0
 30
0.0
 40
28.00000000000009
  0
CIRCLE
  5
3C8
330
1E
100
AcDbEntity
  8
1
 62
     3
100
AcDbCircle
 10
-76.12185342124721
 20
0.0
 30
0.0
 40
11.5
  0
CIRCLE
  5
3C9
330
1E
100
AcDbEntity
  8
1
 62
     3
100
AcDbCircle
 10
-76.12185342124721
 20
0.0
 30
0.0
 40
24.50000000000009
  0
CIRCLE
  5
3CA
330
1E
100
AcDbEntity
  8
1
 62
     7
100
AcDbCircle
 10
-76.12185342124721
 20
0.0
 30
0.0
 40
14.9
  0
CIRCLE
  5
3CB
330
1E
100
AcDbEntity
  8
1
 62
     7
100
AcDbCircle
 10
-76.12185342124721
 20
0.0
 30
0.0
 40
14.19999999999999
  0
CIRCLE
  5
3CC
330
1E
100
AcDbEntity
  8
1
 62
     7
100
AcDbCircle
 10
-76.12185342124721
 20
0.0
 30
0.0
 40
21.24999999999999
  0
CIRCLE
  5
3CD
330
1E
100
AcDbEntity
  8
1
 62
     7
100
AcDbCircle
 10
3.075325517268676
 20
-14.74449977855593
 30
0.0
 40
1.487499976158198
  0
CIRCLE
  5
3CE
330
1E
100
AcDbEntity
  8
1
 62
     7
100
AcDbCircle
 10
3.075325517268676
 20
14.74449977855609
 30
0.0
 40
1.487499976158198
  0
TEXT
  5
3CF
330
1E
100
AcDbEntity
  8
1
 62
     0
100
AcDbText
 10
50.56856020627254
 20
-56.3274307240829
 30
0.0
 40
2.799999999999998
  1
CSG-14-XXX-2UH.dxf
 41
0.8100000000000001
100
AcDbText
  0
INSERT
  5
3E3
330
1E
100
AcDbEntity
  8
0
100
AcDbBlockReference
  2
Harmonic Drive LLC
 10
-108.3615326855228
 20
82.86557274730364
 30
0.0
  0
INSERT
  5
45F
330
1E
100
AcDbEntity
  8
0
100
AcDbBlockReference
  2
HD Logo
 10
20.93159625907036
 20
-83.33308211627981
 30
0.0
 41
0.6120000000000001
 42
0.6120000000000001
 43
0.6120000000000001
  0
INSERT
  5
473
330
1E
100
AcDbEntity
  8
0
100
AcDbBlockReference
  2
Notice
 10
-99.61453595588171
 20
-86.50006680687818
 30
0.0
  0
ENDSEC
  0
SECTION
  2
OBJECTS
  0
DICTIONARY
  5
C
330
0
100
AcDbDictionary
281
     1
  3
ACAD_GROUP
350
D
  3
ACAD_LAYOUT
350
19
  3
ACAD_MLINESTYLE
350
16
  3
ACAD_PLOTSETTINGS
350
18
  3
ACAD_PLOTSTYLENAME
350
E
  3
AcDbVariableDictionary
350
3E4
  0
DICTIONARY
  5
D
102
{ACAD_REACTORS
330
C
102
}
330
C
100
AcDbDictionary
281
     1
  0
DICTIONARY
  5
19
102
{ACAD_REACTORS
330
C
102
}
330
C
100
AcDbDictionary
281
     1
  3
Layout1
350
1D
  3
Model
350
21
  0
DICTIONARY
  5
16
102
{ACAD_REACTORS
330
C
102
}
330
C
100
AcDbDictionary
281
     1
  3
Standard
350
17
  0
DICTIONARY
  5
18
102
{ACAD_REACTORS
330
C
102
}
330
C
100
AcDbDictionary
281
     1
  0
ACDBDICTIONARYWDFLT
  5
E
102
{ACAD_REACTORS
330
C
102
}
330
C
100
AcDbDictionary
281
     1
  3
Normal
350
F
100
AcDbDictionaryWithDefault
340
F
  0
DICTIONARY
  5
3E4
102
{ACAD_REACTORS
330
C
102
}
330
C
100
AcDbDictionary
281
     1
  3
DIMASSOC
350
3E5
  0
LAYOUT
  5
1D
102
{ACAD_REACTORS
330
19
102
}
330
19
100
AcDbPlotSettings
  1

  2
\\SERVER9\HP LaserJet 5100 PCL 5e
  4

  6

 40
0.0
 41
0.0
 42
0.0
 43
0.0
 44
0.0
 45
0.0
 46
0.0
 47
0.0
 48
0.0
 49
0.0
140
0.0
141
0.0
142
1.0
143
1.0
 70
   688
 72
     0
 73
     0
 74
     5
  7

 75
    16
147
1.0
148
0.0
149
0.0
100
AcDbLayout
  1
Layout1
 70
     1
 71
     1
 10
0.0
 20
0.0
 11
12.0
 21
9.0
 12
0.0
 22
0.0
 32
0.0
 14
1.000000000000000E+20
 24
1.000000000000000E+20
 34
1.000000000000000E+20
 15
-1.000000000000000E+20
 25
-1.000000000000000E+20
 35
-1.000000000000000E+20
146
0.0
 13
0.0
 23
0.0
 33
0.0
 16
1.0
 26
0.0
 36
0.0
 17
0.0
 27
1.0
 37
0.0
 76
     0
330
1A
  0
LAYOUT
  5
21
102
{ACAD_REACTORS
330
19
102
}
330
19
100
AcDbPlotSettings
  1

  2
\\SERVER9\HP LaserJet 5100 PCL 5e
  4

  6

 40
0.0
 41
0.0
 42
0.0
 43
0.0
 44
0.0
 45
0.0
 46
0.0
 47
0.0
 48
0.0
 49
0.0
140
0.0
141
0.0
142
1.0
143
1.0
 70
  1712
 72
     0
 73
     0
 74
     0
  7

 75
     0
147
1.0
148
0.0
149
0.0
100
AcDbLayout
  1
Model
 70
     1
 71
     0
 10
0.0
 20
0.0
 11
12.0
 21
9.0
 12
0.0
 22
0.0
 32
0.0
 14
0.0
 24
0.0
 34
0.0
 15
0.0
 25
0.0
 35
0.0
146
0.0
 13
0.0
 23
0.0
 33
0.0
 16
1.0
 26
0.0
 36
0.0
 17
0.0
 27
1.0
 37
0.0
 76
     0
330
1E
  0
MLINESTYLE
  5
17
102
{ACAD_REACTORS
330
16
102
}
330
16
100
AcDbMlineStyle
  2
STANDARD
 70
     0
  3

 62
   256
 51
90.0
 52
90.0
 71
     2
 49
0.5
 62
   256
  6
BYLAYER
 49
-0.5
 62
   256
  6
BYLAYER
  0
ACDBPLACEHOLDER
  5
F
102
{ACAD_REACTORS
330
E
102
}
330
E
  0
DICTIONARYVAR
  5
3E5
102
{ACAD_REACTORS
330
3E4
102
}
330
3E4
100
DictionaryVariables
280
     0
  1
1
  0
ENDSEC
  0
EOF
