  0
SECTION
  2
HEADER
  9
$ACADVER
  1
AC1015
  9
$ACADMAINTVER
 70
    13
  9
$DWGCODEPAGE
  3
ANSI_1252
  9
$INSBASE
 10
0.0
 20
0.0
 30
0.0
  9
$EXTMIN
 10
-472.9213092202699
 20
-433.0578359146037
 30
0.0
  9
$EXTMAX
 10
551.7614543459568
 20
142.8129329567422
 30
0.0
  9
$LIMMIN
 10
-322.4814819393051
 20
-390.7133565329364
  9
$LIMMAX
 10
479.6999999970402
 20
142.8129329567422
  9
$ORTHOMODE
 70
     0
  9
$REGENMODE
 70
     1
  9
$FILLMODE
 70
     1
  9
$QTEXTMODE
 70
     0
  9
$MIRRTEXT
 70
     1
  9
$LTSCALE
 40
1.0
  9
$ATTMODE
 70
     1
  9
$TEXTSIZE
 40
3.5
  9
$TRACEWID
 40
0.5
  9
$TEXTSTYLE
  7
STANDARD
  9
$CLAYER
  8
0
  9
$CELTYPE
  6
ByLayer
  9
$CECOLOR
 62
   256
  9
$CELTSCALE
 40
1.0
  9
$DISPSILH
 70
     0
  9
$DIMSCALE
 40
1.0
  9
$DIMASZ
 40
0.18
  9
$DIMEXO
 40
0.0625
  9
$DIMDLI
 40
0.38
  9
$DIMRND
 40
0.0
  9
$DIMDLE
 40
0.0
  9
$DIMEXE
 40
0.18
  9
$DIMTP
 40
0.0
  9
$DIMTM
 40
0.0
  9
$DIMTXT
 40
0.18
  9
$DIMCEN
 40
0.09
  9
$DIMTSZ
 40
0.0
  9
$DIMTOL
 70
     0
  9
$DIMLIM
 70
     0
  9
$DIMTIH
 70
     1
  9
$DIMTOH
 70
     1
  9
$DIMSE1
 70
     0
  9
$DIMSE2
 70
     0
  9
$DIMTAD
 70
     0
  9
$DIMZIN
 70
     0
  9
$DIMBLK
  1

  9
$DIMASO
 70
     1
  9
$DIMSHO
 70
     1
  9
$DIMPOST
  1

  9
$DIMAPOST
  1

  9
$DIMALT
 70
     0
  9
$DIMALTD
 70
     2
  9
$DIMALTF
 40
25.4
  9
$DIMLFAC
 40
1.0
  9
$DIMTOFL
 70
     0
  9
$DIMTVP
 40
0.0
  9
$DIMTIX
 70
     0
  9
$DIMSOXD
 70
     0
  9
$DIMSAH
 70
     0
  9
$DIMBLK1
  1

  9
$DIMBLK2
  1

  9
$DIMSTYLE
  2
Standard
  9
$DIMCLRD
 70
     0
  9
$DIMCLRE
 70
     0
  9
$DIMCLRT
 70
     0
  9
$DIMTFAC
 40
1.0
  9
$DIMGAP
 40
0.09
  9
$DIMJUST
 70
     0
  9
$DIMSD1
 70
     0
  9
$DIMSD2
 70
     0
  9
$DIMTOLJ
 70
     1
  9
$DIMTZIN
 70
     0
  9
$DIMALTZ
 70
     0
  9
$DIMALTTZ
 70
     0
  9
$DIMUPT
 70
     0
  9
$DIMDEC
 70
     4
  9
$DIMTDEC
 70
     4
  9
$DIMALTU
 70
     2
  9
$DIMALTTD
 70
     2
  9
$DIMTXSTY
  7
STANDARD
  9
$DIMAUNIT
 70
     0
  9
$DIMADEC
 70
     0
  9
$DIMALTRND
 40
0.0
  9
$DIMAZIN
 70
     0
  9
$DIMDSEP
 70
    46
  9
$DIMATFIT
 70
     3
  9
$DIMFRAC
 70
     0
  9
$DIMLDRBLK
  1

  9
$DIMLUNIT
 70
     2
  9
$DIMLWD
 70
    -2
  9
$DIMLWE
 70
    -2
  9
$DIMTMOVE
 70
     0
  9
$LUNITS
 70
     2
  9
$LUPREC
 70
     4
  9
$SKETCHINC
 40
0.1
  9
$FILLETRAD
 40
2.0
  9
$AUNITS
 70
     0
  9
$AUPREC
 70
     0
  9
$MENU
  1
ACAD
  9
$ELEVATION
 40
0.0
  9
$PELEVATION
 40
0.0
  9
$THICKNESS
 40
0.0
  9
$LIMCHECK
 70
     0
  9
$CHAMFERA
 40
0.0
  9
$CHAMFERB
 40
0.0
  9
$CHAMFERC
 40
0.0
  9
$CHAMFERD
 40
0.0
  9
$SKPOLY
 70
     0
  9
$TDCREATE
 40
2453851.516668472
  9
$TDUCREATE
 40
2453851.683335139
  9
$TDUPDATE
 40
2453861.465813252
  9
$TDUUPDATE
 40
2453861.632479919
  9
$TDINDWG
 40
0.0050687153
  9
$TDUSRTIMER
 40
0.0050687153
  9
$USRTIMER
 70
     1
  9
$ANGBASE
 50
0.0
  9
$ANGDIR
 70
     0
  9
$PDMODE
 70
     0
  9
$PDSIZE
 40
0.0
  9
$PLINEWID
 40
0.0
  9
$SPLFRAME
 70
     0
  9
$SPLINETYPE
 70
     6
  9
$SPLINESEGS
 70
     8
  9
$HANDSEED
  5
3D6
  9
$SURFTAB1
 70
     6
  9
$SURFTAB2
 70
     6
  9
$SURFTYPE
 70
     6
  9
$SURFU
 70
     6
  9
$SURFV
 70
     6
  9
$UCSBASE
  2

  9
$UCSNAME
  2

  9
$UCSORG
 10
0.0
 20
0.0
 30
0.0
  9
$UCSXDIR
 10
1.0
 20
0.0
 30
0.0
  9
$UCSYDIR
 10
0.0
 20
1.0
 30
0.0
  9
$UCSORTHOREF
  2

  9
$UCSORTHOVIEW
 70
     0
  9
$UCSORGTOP
 10
0.0
 20
0.0
 30
0.0
  9
$UCSORGBOTTOM
 10
0.0
 20
0.0
 30
0.0
  9
$UCSORGLEFT
 10
0.0
 20
0.0
 30
0.0
  9
$UCSORGRIGHT
 10
0.0
 20
0.0
 30
0.0
  9
$UCSORGFRONT
 10
0.0
 20
0.0
 30
0.0
  9
$UCSORGBACK
 10
0.0
 20
0.0
 30
0.0
  9
$PUCSBASE
  2

  9
$PUCSNAME
  2

  9
$PUCSORG
 10
0.0
 20
0.0
 30
0.0
  9
$PUCSXDIR
 10
1.0
 20
0.0
 30
0.0
  9
$PUCSYDIR
 10
0.0
 20
1.0
 30
0.0
  9
$PUCSORTHOREF
  2

  9
$PUCSORTHOVIEW
 70
     0
  9
$PUCSORGTOP
 10
0.0
 20
0.0
 30
0.0
  9
$PUCSORGBOTTOM
 10
0.0
 20
0.0
 30
0.0
  9
$PUCSORGLEFT
 10
0.0
 20
0.0
 30
0.0
  9
$PUCSORGRIGHT
 10
0.0
 20
0.0
 30
0.0
  9
$PUCSORGFRONT
 10
0.0
 20
0.0
 30
0.0
  9
$PUCSORGBACK
 10
0.0
 20
0.0
 30
0.0
  9
$USERI1
 70
     0
  9
$USERI2
 70
     0
  9
$USERI3
 70
     0
  9
$USERI4
 70
     0
  9
$USERI5
 70
     0
  9
$USERR1
 40
0.0
  9
$USERR2
 40
0.0
  9
$USERR3
 40
0.0
  9
$USERR4
 40
0.0
  9
$USERR5
 40
0.0
  9
$WORLDVIEW
 70
     1
  9
$SHADEDGE
 70
     3
  9
$SHADEDIF
 70
    70
  9
$TILEMODE
 70
     1
  9
$MAXACTVP
 70
    64
  9
$PINSBASE
 10
0.0
 20
0.0
 30
0.0
  9
$PLIMCHECK
 70
     0
  9
$PEXTMIN
 10
1.000000000000000E+20
 20
1.000000000000000E+20
 30
1.000000000000000E+20
  9
$PEXTMAX
 10
-1.000000000000000E+20
 20
-1.000000000000000E+20
 30
-1.000000000000000E+20
  9
$PLIMMIN
 10
0.0
 20
0.0
  9
$PLIMMAX
 10
12.0
 20
9.0
  9
$UNITMODE
 70
     0
  9
$VISRETAIN
 70
     1
  9
$PLINEGEN
 70
     0
  9
$PSLTSCALE
 70
     1
  9
$TREEDEPTH
 70
  3020
  9
$CMLSTYLE
  2
Standard
  9
$CMLJUST
 70
     0
  9
$CMLSCALE
 40
1.0
  9
$PROXYGRAPHICS
 70
     1
  9
$MEASUREMENT
 70
     0
  9
$CELWEIGHT
370
    -1
  9
$ENDCAPS
280
     0
  9
$JOINSTYLE
280
     0
  9
$LWDISPLAY
290
     0
  9
$INSUNITS
 70
     0
  9
$HYPERLINKBASE
  1

  9
$STYLESHEET
  1

  9
$XEDIT
290
     1
  9
$CEPSNTYPE
380
     0
  9
$PSTYLEMODE
290
     1
  9
$FINGERPRINTGUID
  2
{1CEEBD27-3714-4B63-8C37-B652ED460AB8}
  9
$VERSIONGUID
  2
{776E63DA-DF32-407D-8614-59108995B005}
  9
$EXTNAMES
290
     1
  9
$PSVPSCALE
 40
0.0
  9
$OLESTARTUP
290
     0
  0
ENDSEC
  0
SECTION
  2
CLASSES
  0
CLASS
  1
ACDBDICTIONARYWDFLT
  2
AcDbDictionaryWithDefault
  3
AutoCAD 2000
 90
        0
280
     0
281
     0
  0
CLASS
  1
ACDBPLACEHOLDER
  2
AcDbPlaceHolder
  3
AutoCAD 2000
 90
        0
280
     0
281
     0
  0
CLASS
  1
LAYOUT
  2
AcDbLayout
  3
AutoCAD 2000
 90
        0
280
     0
281
     0
  0
CLASS
  1
DICTIONARYVAR
  2
AcDbDictionaryVar
  3
AutoCAD 2000
 90
        0
280
     0
281
     0
  0
ENDSEC
  0
SECTION
  2
TABLES
  0
TABLE
  2
VPORT
  5
8
330
0
100
AcDbSymbolTable
 70
     2
  0
VPORT
  5
3D5
330
8
100
AcDbSymbolTableRecord
100
AcDbViewportTableRecord
  2
*Active
 70
     0
 10
0.0
 20
0.0
 11
1.0
 21
1.0
 12
78.60925996272976
 22
-124.4793745792236
 13
0.0
 23
0.0
 14
1.0
 24
1.0
 15
0.0
 25
0.0
 16
0.0
 26
0.0
 36
1.0
 17
0.0
 27
0.0
 37
0.0
 40
1098.825133106023
 41
1.182835820895522
 42
50.0
 43
0.0
 44
0.0
 50
0.0
 51
0.0
 71
     0
 72
   100
 73
     1
 74
     1
 75
     0
 76
     0
 77
     0
 78
     0
281
     0
 65
     1
110
0.0
120
0.0
130
0.0
111
1.0
121
0.0
131
0.0
112
0.0
122
1.0
132
0.0
 79
     0
146
0.0
  0
ENDTAB
  0
TABLE
  2
LTYPE
  5
5
330
0
100
AcDbSymbolTable
 70
     9
  0
LTYPE
  5
13
330
5
100
AcDbSymbolTableRecord
100
AcDbLinetypeTableRecord
  2
ByBlock
 70
     0
  3

 72
    65
 73
     0
 40
0.0
  0
LTYPE
  5
14
330
5
100
AcDbSymbolTableRecord
100
AcDbLinetypeTableRecord
  2
ByLayer
 70
     0
  3

 72
    65
 73
     0
 40
0.0
  0
LTYPE
  5
15
330
5
100
AcDbSymbolTableRecord
100
AcDbLinetypeTableRecord
  2
CONTINUOUS
 70
     0
  3
Solid line
 72
    65
 73
     0
 40
0.0
  0
LTYPE
  5
22
330
5
100
AcDbSymbolTableRecord
100
AcDbLinetypeTableRecord
  2
BORDER
 70
     0
  3
__ __ . __ __ .
 72
    65
 73
     6
 40
36.94256824706853
 49
10.55501949916243
 74
     0
 49
-5.277509749581218
 74
     0
 49
10.55501949916243
 74
     0
 49
-5.277509749581218
 74
     0
 49
0.0
 74
     0
 49
-5.277509749581218
 74
     0
  0
LTYPE
  5
23
330
5
100
AcDbSymbolTableRecord
100
AcDbLinetypeTableRecord
  2
CENTER
 70
     0
  3
____ _ ____ _
 72
    65
 73
     4
 40
42.22007799664974
 49
26.3875487479061
 74
     0
 49
-5.277509749581218
 74
     0
 49
5.277509749581218
 74
     0
 49
-5.277509749581218
 74
     0
  0
LTYPE
  5
24
330
5
100
AcDbSymbolTableRecord
100
AcDbLinetypeTableRecord
  2
DASHDOT
 70
     0
  3
__ . __ . __ .
 72
    65
 73
     4
 40
21.11003899832487
 49
10.55501949916243
 74
     0
 49
-5.277509749581218
 74
     0
 49
0.0
 74
     0
 49
-5.277509749581218
 74
     0
  0
LTYPE
  5
25
330
5
100
AcDbSymbolTableRecord
100
AcDbLinetypeTableRecord
  2
DASHED
 70
     0
  3
__ __ __ __ __
 72
    65
 73
     2
 40
15.83252924874366
 49
10.55501949916243
 74
     0
 49
-5.277509749581218
 74
     0
  0
LTYPE
  5
26
330
5
100
AcDbSymbolTableRecord
100
AcDbLinetypeTableRecord
  2
DIVIDE
 70
     0
  3
__ . . __ . . 
 72
    65
 73
     6
 40
26.3875487479061
 49
10.55501949916243
 74
     0
 49
-5.277509749581218
 74
     0
 49
0.0
 74
     0
 49
-5.277509749581218
 74
     0
 49
0.0
 74
     0
 49
-5.277509749581218
 74
     0
  0
LTYPE
  5
27
330
5
100
AcDbSymbolTableRecord
100
AcDbLinetypeTableRecord
  2
DOT
 70
     0
  3
..............
 72
    65
 73
     4
 40
10.55501949916243
 49
0.0
 74
     0
 49
-5.277509749581218
 74
     0
 49
0.0
 74
     0
 49
-5.277509749581218
 74
     0
  0
LTYPE
  5
28
330
5
100
AcDbSymbolTableRecord
100
AcDbLinetypeTableRecord
  2
HIDDEN
 70
     0
  3
_ _ _ _ _ _ _
 72
    65
 73
     2
 40
7.916264624371826
 49
5.277509749581218
 74
     0
 49
-2.638754874790608
 74
     0
  0
LTYPE
  5
29
330
5
100
AcDbSymbolTableRecord
100
AcDbLinetypeTableRecord
  2
PHANTOM
 70
     0
  3
_____ _ _ _____ _ _ 
 72
    65
 73
     6
 40
52.7750974958122
 49
26.3875487479061
 74
     0
 49
-5.277509749581218
 74
     0
 49
5.277509749581218
 74
     0
 49
-5.277509749581218
 74
     0
 49
5.277509749581218
 74
     0
 49
-5.277509749581218
 74
     0
  0
ENDTAB
  0
TABLE
  2
LAYER
  5
2
330
0
100
AcDbSymbolTable
 70
     4
  0
LAYER
  5
10
330
2
100
AcDbSymbolTableRecord
100
AcDbLayerTableRecord
  2
0
 70
     0
 62
     7
  6
CONTINUOUS
370
    -3
390
F
  0
LAYER
  5
2A
330
2
100
AcDbSymbolTableRecord
100
AcDbLayerTableRecord
  2
1
 70
     0
 62
     7
  6
CONTINUOUS
370
    -3
390
F
  0
LAYER
  5
2B
330
2
100
AcDbSymbolTableRecord
100
AcDbLayerTableRecord
  2
2
 70
     0
 62
     7
  6
CONTINUOUS
370
    -3
390
F
  0
LAYER
  5
3AF
330
2
100
AcDbSymbolTableRecord
100
AcDbLayerTableRecord
  2
LAYER_1
 70
     0
 62
     5
  6
CONTINUOUS
370
    -3
390
F
  0
ENDTAB
  0
TABLE
  2
STYLE
  5
3
330
0
100
AcDbSymbolTable
 70
     4
  0
STYLE
  5
11
330
3
100
AcDbSymbolTableRecord
100
AcDbTextStyleTableRecord
  2
STANDARD
 70
     0
 40
0.0
 41
1.0
 50
0.0
 71
     0
 42
3.5
  3
txt
  4

  0
STYLE
  5
2C
330
3
100
AcDbSymbolTableRecord
100
AcDbTextStyleTableRecord
  2
SIMPLEX
 70
     0
 40
0.0
 41
1.0
 50
0.0
 71
     0
 42
3.5
  3
simplex
  4

  0
STYLE
  5
2D
330
3
100
AcDbSymbolTableRecord
100
AcDbTextStyleTableRecord
  2
COMPLEX
 70
     0
 40
0.0
 41
1.0
 50
0.0
 71
     0
 42
3.5
  3
complex
  4

  0
STYLE
  5
2E
330
3
100
AcDbSymbolTableRecord
100
AcDbTextStyleTableRecord
  2
ITALIC
 70
     0
 40
0.0
 41
1.0
 50
0.0
 71
     0
 42
3.5
  3
italic
  4

  0
ENDTAB
  0
TABLE
  2
VIEW
  5
6
330
0
100
AcDbSymbolTable
 70
     0
  0
ENDTAB
  0
TABLE
  2
UCS
  5
7
330
0
100
AcDbSymbolTable
 70
     0
  0
ENDTAB
  0
TABLE
  2
APPID
  5
9
330
0
100
AcDbSymbolTable
 70
     1
  0
APPID
  5
12
330
9
100
AcDbSymbolTableRecord
100
AcDbRegAppTableRecord
  2
ACAD
 70
     0
  0
ENDTAB
  0
TABLE
  2
DIMSTYLE
  5
A
330
0
100
AcDbSymbolTable
 70
     1
100
AcDbDimStyleTable
 71
     0
  0
DIMSTYLE
105
342
330
A
100
AcDbSymbolTableRecord
100
AcDbDimStyleTableRecord
  2
Standard
 70
     0
340
11
  0
ENDTAB
  0
TABLE
  2
BLOCK_RECORD
  5
1
330
0
100
AcDbSymbolTable
 70
    19
  0
BLOCK_RECORD
  5
1E
330
1
100
AcDbSymbolTableRecord
100
AcDbBlockTableRecord
  2
*Model_Space
340
21
  0
BLOCK_RECORD
  5
1A
330
1
100
AcDbSymbolTableRecord
100
AcDbBlockTableRecord
  2
*Paper_Space
340
1D
  0
BLOCK_RECORD
  5
343
330
1
100
AcDbSymbolTableRecord
100
AcDbBlockTableRecord
  2
AI9-BLK14
340
0
310
2800000020000000200000000100080000000000000400000000000000000000000000000000000000000000000080000080000000808000800000008000800080800000C0C0C000C0DCC000F0CAA6000020400000206000002080000020A0000020C0000020E00000400000004020000040400000406000004080000040A0
310
000040C0000040E00000600000006020000060400000606000006080000060A0000060C0000060E00000800000008020000080400000806000008080000080A0000080C0000080E00000A0000000A0200000A0400000A0600000A0800000A0A00000A0C00000A0E00000C0000000C0200000C0400000C0600000C0800000C0
310
A00000C0C00000C0E00000E0000000E0200000E0400000E0600000E0800000E0A00000E0C00000E0E00040000000400020004000400040006000400080004000A0004000C0004000E00040200000402020004020400040206000402080004020A0004020C0004020E000404000004040200040404000404060004040800040
310
40A0004040C0004040E00040600000406020004060400040606000406080004060A0004060C0004060E00040800000408020004080400040806000408080004080A0004080C0004080E00040A0000040A0200040A0400040A0600040A0800040A0A00040A0C00040A0E00040C0000040C0200040C0400040C0600040C08000
310
40C0A00040C0C00040C0E00040E0000040E0200040E0400040E0600040E0800040E0A00040E0C00040E0E00080000000800020008000400080006000800080008000A0008000C0008000E00080200000802020008020400080206000802080008020A0008020C0008020E00080400000804020008040400080406000804080
310
008040A0008040C0008040E00080600000806020008060400080606000806080008060A0008060C0008060E00080800000808020008080400080806000808080008080A0008080C0008080E00080A0000080A0200080A0400080A0600080A0800080A0A00080A0C00080A0E00080C0000080C0200080C0400080C0600080C0
310
800080C0A00080C0C00080C0E00080E0000080E0200080E0400080E0600080E0800080E0A00080E0C00080E0E000C0000000C0002000C0004000C0006000C0008000C000A000C000C000C000E000C0200000C0202000C0204000C0206000C0208000C020A000C020C000C020E000C0400000C0402000C0404000C0406000C0
310
408000C040A000C040C000C040E000C0600000C0602000C0604000C0606000C0608000C060A000C060C000C060E000C0800000C0802000C0804000C0806000C0808000C080A000C080C000C080E000C0A00000C0A02000C0A04000C0A06000C0A08000C0A0A000C0A0C000C0A0E000C0C00000C0C02000C0C04000C0C06000
310
C0C08000C0C0A000F0FBFF00A4A0A000808080000000FF0000FF000000FFFF00FF000000FF00FF00FFFF0000FFFFFF00FF00FFFFFFFF00FFFFFFFFFFFFFFFFFFFFFFFFFFFFFFFFFFFFFFFFFFFFFFFFFFFF00FFFFFFFF00FFFFFFFFFFFFFFFFFFFFFFFFFFFFFFFFFFFFFFFFFFFFFFFFFFFF00FFFFFFFF00FFFFFFFFFFFFFFFF
310
FFFFFFFFFFFFFFFFFFFFFFFFFFFFFFFFFFFF00FFFFFFFF00FFFFFFFFFFFFFFFFFFFFFFFFFFFFFFFFFFFFFFFFFFFFFFFFFFFF00FFFFFFFF00FFFFFFFFFFFFFFFFFFFFFFFFFFFFFFFFFFFFFFFFFFFFFFFFFFFF00FFFFFFFF00FFFFFFFFFFFFFFFFFFFFFFFFFFFFFFFFFFFFFFFFFFFFFFFFFFFF00FFFFFFFF00FFFFFFFFFFFFFF
310
FFFFFFFFFFFFFFFFFFFFFFFFFFFFFFFFFFFFFF00FFFFFFFF00FFFFFFFFFFFFFFFFFFFFFFFFFFFFFFFFFFFFFFFFFFFFFFFFFFFF00FFFFFFFF00FFFFFFFFFFFFFFFFFFFFFFFFFFFFFFFFFFFFFFFFFFFFFFFFFFFF00FFFFFFFF00FFFFFFFFFFFFFFFFFFFFFFFFFFFFFFFFFFFFFFFFFFFFFFFFFFFF00FFFFFFFF00FFFFFFFFFFFF
310
FFFFFFFFFFFFFFFFFFFFFFFFFFFFFFFFFFFFFFFF00FFFFFFFF00FFFFFFFFFFFFFFFFFFFFFFFFFFFFFFFFFFFFFFFFFFFFFFFFFFFF00FFFFFFFF00FFFFFFFFFFFFFFFFFFFFFFFFFFFFFFFFFFFFFFFFFFFFFFFFFFFF00FFFFFFFF0000000000000000000000000000000000000000000000000000FF00FFFFFFFFFFFFFFFFFFFF
310
FFFFFFFFFFFFFFFFFFFFFFFFFFFFFFFFFFFFFFFFFF00FFFFFFFFFFFFFFFFFFFFFFFFFFFFFFFFFFFFFFFFFFFFFFFFFFFFFFFFFFFFFF00FFFFFFFFFFFFFFFFFFFFFFFFFFFFFFFFFFFFFFFFFFFFFFFFFFFFFFFFFFFFFF00FFFFFFFFFFFFFFFFFFFFFFFFFFFFFFFFFFFFFFFFFFFFFFFFFFFFFFFFFF00FF00000000000000000000
310
0000000000000000000000000000000000000000FFFFFFFFFFFFFFFFFFFFFFFFFFFFFFFFFFFFFFFFFFFFFFFFFFFFFFFFFFFFFFFFFFFFFFFFFFFFFFFFFFFFFFFFFFFFFFFFFFFFFFFFFFFFFFFFFFFFFFFFFFFFFFFFFFFFFFFFFFFFFFFFFFFFFFFFFFFFFFFFFFFFFFFFFFFFFFFFFFFFFFFFFFFFFFFFFFFFFFFFFFFFFFFFFFFFFF
310
FFFFFFFFFFFFFFFFFFFFFFFFFFFFFFFFFFFFFFFFFFFFFFFFFFFFFFFFFFFFFFFFFFFFFFFFFFFFFFFFFFFFFFFFFFFFFFFFFFFFFFFFFFFFFFFFFFFFFFFFFFFFFFFFFFFFFFFFFFFFFFFFFFFFFFFFFFFFFFFFFFFFFFFFFFFFFFFFFFFFFFFFFFFFFFFFFFFFFFFFFFFFFFFFFFFFFFFFFFFFFFFFFFFFFFFFFFFFFFFFFFFFFFFFFFFFFF
310
FFFFFFFFFFFFFFFFFFFFFFFFFFFFFFFFFFFFFFFFFFFFFFFFFFFFFFFFFFFFFFFFFFFFFFFFFFFFFFFFFFFFFFFFFFFFFFFFFFFFFFFFFFFFFFFFFFFFFFFFFFFFFFFFFFFFFFFFFFFFFFFFFFFFFFFFFFFFFFFFFFFFFFFFFFFFFFFFFFFFFFFFFFFFFFFFFFFFFFFFFFFFFFFFFFFFFFFFFFFFFFFFFFFFFFFFFFFFFFFFFFFFFFFFFFFFFF
310
FFFFFFFFFFFFFFFFFFFFFFFFFFFFFFFFFFFFFFFFFFFFFFFFFFFFFFFFFFFFFFFFFFFFFFFFFFFFFFFFFFFFFFFFFFFFFFFFFFFFFFFFFFFFFFFF
102
{BLKREFS
331
384
102
}
  0
BLOCK_RECORD
  5
348
330
1
100
AcDbSymbolTableRecord
100
AcDbBlockTableRecord
  2
AI9-BLK13
340
0
310
2800000020000000200000000100080000000000000400000000000000000000000000000000000000000000000080000080000000808000800000008000800080800000C0C0C000C0DCC000F0CAA6000020400000206000002080000020A0000020C0000020E00000400000004020000040400000406000004080000040A0
310
000040C0000040E00000600000006020000060400000606000006080000060A0000060C0000060E00000800000008020000080400000806000008080000080A0000080C0000080E00000A0000000A0200000A0400000A0600000A0800000A0A00000A0C00000A0E00000C0000000C0200000C0400000C0600000C0800000C0
310
A00000C0C00000C0E00000E0000000E0200000E0400000E0600000E0800000E0A00000E0C00000E0E00040000000400020004000400040006000400080004000A0004000C0004000E00040200000402020004020400040206000402080004020A0004020C0004020E000404000004040200040404000404060004040800040
310
40A0004040C0004040E00040600000406020004060400040606000406080004060A0004060C0004060E00040800000408020004080400040806000408080004080A0004080C0004080E00040A0000040A0200040A0400040A0600040A0800040A0A00040A0C00040A0E00040C0000040C0200040C0400040C0600040C08000
310
40C0A00040C0C00040C0E00040E0000040E0200040E0400040E0600040E0800040E0A00040E0C00040E0E00080000000800020008000400080006000800080008000A0008000C0008000E00080200000802020008020400080206000802080008020A0008020C0008020E00080400000804020008040400080406000804080
310
008040A0008040C0008040E00080600000806020008060400080606000806080008060A0008060C0008060E00080800000808020008080400080806000808080008080A0008080C0008080E00080A0000080A0200080A0400080A0600080A0800080A0A00080A0C00080A0E00080C0000080C0200080C0400080C0600080C0
310
800080C0A00080C0C00080C0E00080E0000080E0200080E0400080E0600080E0800080E0A00080E0C00080E0E000C0000000C0002000C0004000C0006000C0008000C000A000C000C000C000E000C0200000C0202000C0204000C0206000C0208000C020A000C020C000C020E000C0400000C0402000C0404000C0406000C0
310
408000C040A000C040C000C040E000C0600000C0602000C0604000C0606000C0608000C060A000C060C000C060E000C0800000C0802000C0804000C0806000C0808000C080A000C080C000C080E000C0A00000C0A02000C0A04000C0A06000C0A08000C0A0A000C0A0C000C0A0E000C0C00000C0C02000C0C04000C0C06000
310
C0C08000C0C0A000F0FBFF00A4A0A000808080000000FF0000FF000000FFFF00FF000000FF00FF00FFFF0000FFFFFF00FFFFFFFFFFFFFFFFFFFFFFFFFFFFFFFFFFFFFFFFFFFFFFFFFFFFFFFFFFFFFFFFFFFFFFFFFFFFFFFFFFFFFF0000FFFFFFFFFFFF0000FFFFFFFFFFFFFFFFFFFFFFFFFFFFFFFFFFFFFFFFFFFF0000FFFF
310
FFFFFFFF0000FFFFFFFFFFFFFFFFFFFFFFFFFFFFFFFFFFFFFFFFFFFF0000FFFFFFFFFFFF0000FFFFFFFFFFFFFFFFFFFFFFFFFFFFFFFFFFFFFFFFFFFF0000FFFFFFFFFFFF0000FFFFFFFFFFFFFFFFFFFFFFFFFFFFFFFFFFFFFFFFFFFF0000FFFFFFFFFFFF0000FFFFFFFFFFFFFFFFFFFFFFFFFFFFFFFFFFFFFFFFFFFF0000FF
310
FFFFFFFFFF0000FFFFFFFFFFFFFFFFFFFFFFFFFFFFFFFFFFFFFFFFFFFF0000FFFFFFFFFFFF0000FFFFFFFFFFFFFFFFFFFFFFFFFFFFFFFFFFFFFFFFFFFF0000FFFFFFFFFFFF0000FFFFFFFFFFFFFFFFFFFFFFFFFFFFFFFFFFFFFFFFFFFF0000FFFFFFFFFFFF0000FFFFFFFFFFFFFFFFFFFFFFFFFFFFFFFFFFFFFFFFFFFF0000
310
FFFFFFFFFFFF0000FFFFFFFFFFFFFFFFFFFFFFFFFFFFFFFFFFFFFFFFFFFF0000FFFFFFFFFFFF0000FFFFFFFFFFFFFFFFFFFFFFFFFFFFFFFFFFFFFFFFFFFF0000FFFFFFFFFFFF0000FFFFFFFFFFFFFFFFFFFFFFFFFFFFFFFFFFFFFFFFFFFF0000FFFFFFFFFFFF0000FFFFFFFFFFFFFFFFFFFFFFFFFFFFFFFFFFFFFFFFFFFF00
310
00FFFFFFFFFFFF0000FFFFFFFFFFFFFFFFFFFFFFFFFFFFFFFFFFFFFFFFFFFF00000000000000000000FFFFFFFFFFFFFFFFFFFFFFFFFFFFFFFFFFFFFFFFFFFF00FFFFFFFFFFFFFFFF00FFFFFFFFFFFFFFFFFFFFFFFFFFFFFFFFFFFFFFFFFFFF00FFFFFFFFFFFFFFFF00FFFFFFFFFFFFFFFFFFFFFFFFFFFFFFFFFFFFFFFFFFFF
310
00000000000000000000FFFFFFFFFFFFFFFFFFFFFFFFFFFFFFFFFFFFFFFFFFFF0000FFFFFFFFFFFF0000FFFFFFFFFFFFFFFFFFFFFFFFFFFFFFFFFFFFFFFFFFFF0000FFFFFFFFFFFF0000FFFFFFFFFFFFFFFFFFFFFFFFFFFFFFFFFFFFFFFFFFFF0000FFFFFFFFFFFF0000FFFFFFFFFFFFFFFFFFFFFFFFFFFFFFFFFFFFFFFFFF
310
FF0000FFFFFFFFFFFF0000FFFFFFFFFFFFFFFFFFFFFFFFFFFFFFFFFFFFFFFFFFFF0000FFFFFFFFFFFF0000FFFFFFFFFFFFFFFFFFFFFFFFFFFFFFFFFFFFFFFFFFFF0000FFFFFFFFFFFF0000FFFFFFFFFFFFFFFFFFFFFFFFFFFFFFFFFFFFFFFFFFFF0000FFFFFFFFFFFF0000FFFFFFFFFFFFFFFFFFFFFFFFFFFFFFFFFFFFFFFF
310
FFFF0000FFFFFFFFFFFF0000FFFFFFFFFFFFFFFFFFFFFFFFFFFFFFFFFFFFFFFFFFFF0000FFFFFFFFFFFF0000FFFFFFFFFFFFFFFFFFFFFFFFFFFFFFFFFFFFFFFFFFFF0000FFFFFFFFFFFF0000FFFFFFFFFFFFFFFFFFFFFFFFFFFFFFFFFFFFFFFFFFFF0000FFFFFFFFFFFF0000FFFFFFFFFFFFFFFFFFFFFFFFFFFFFFFFFFFFFF
310
FFFFFF0000FFFFFFFFFFFF0000FFFFFFFFFFFFFFFFFFFFFFFFFFFFFFFFFFFFFFFFFFFFFFFFFFFFFFFFFFFFFFFFFFFFFFFFFFFFFFFFFFFFFF
102
{BLKREFS
331
385
102
}
  0
BLOCK_RECORD
  5
34D
330
1
100
AcDbSymbolTableRecord
100
AcDbBlockTableRecord
  2
AI9-BLK11
340
0
310
2800000020000000200000000100080000000000000400000000000000000000000000000000000000000000000080000080000000808000800000008000800080800000C0C0C000C0DCC000F0CAA6000020400000206000002080000020A0000020C0000020E00000400000004020000040400000406000004080000040A0
310
000040C0000040E00000600000006020000060400000606000006080000060A0000060C0000060E00000800000008020000080400000806000008080000080A0000080C0000080E00000A0000000A0200000A0400000A0600000A0800000A0A00000A0C00000A0E00000C0000000C0200000C0400000C0600000C0800000C0
310
A00000C0C00000C0E00000E0000000E0200000E0400000E0600000E0800000E0A00000E0C00000E0E00040000000400020004000400040006000400080004000A0004000C0004000E00040200000402020004020400040206000402080004020A0004020C0004020E000404000004040200040404000404060004040800040
310
40A0004040C0004040E00040600000406020004060400040606000406080004060A0004060C0004060E00040800000408020004080400040806000408080004080A0004080C0004080E00040A0000040A0200040A0400040A0600040A0800040A0A00040A0C00040A0E00040C0000040C0200040C0400040C0600040C08000
310
40C0A00040C0C00040C0E00040E0000040E0200040E0400040E0600040E0800040E0A00040E0C00040E0E00080000000800020008000400080006000800080008000A0008000C0008000E00080200000802020008020400080206000802080008020A0008020C0008020E00080400000804020008040400080406000804080
310
008040A0008040C0008040E00080600000806020008060400080606000806080008060A0008060C0008060E00080800000808020008080400080806000808080008080A0008080C0008080E00080A0000080A0200080A0400080A0600080A0800080A0A00080A0C00080A0E00080C0000080C0200080C0400080C0600080C0
310
800080C0A00080C0C00080C0E00080E0000080E0200080E0400080E0600080E0800080E0A00080E0C00080E0E000C0000000C0002000C0004000C0006000C0008000C000A000C000C000C000E000C0200000C0202000C0204000C0206000C0208000C020A000C020C000C020E000C0400000C0402000C0404000C0406000C0
310
408000C040A000C040C000C040E000C0600000C0602000C0604000C0606000C0608000C060A000C060C000C060E000C0800000C0802000C0804000C0806000C0808000C080A000C080C000C080E000C0A00000C0A02000C0A04000C0A06000C0A08000C0A0A000C0A0C000C0A0E000C0C00000C0C02000C0C04000C0C06000
310
C0C08000C0C0A000F0FBFF00A4A0A000808080000000FF0000FF000000FFFF00FF000000FF00FF00FFFF0000FFFFFF00FFFFFFFFFFFFFFFFFFFFFFFFFFFFFFFFFFFFFFFFFFFFFFFFFFFFFFFFFFFFFFFFFFFFFFFFFFFFFFFFFFFFFFFFFFFF00000000FFFFFFFFFFFFFFFFFFFFFF000000FFFFFFFFFFFFFFFFFFFFFFFFFFFF00
310
FFFF00FFFFFFFFFFFFFFFFFFFFFF00FFFFFFFFFFFFFFFFFFFFFFFFFFFFFFFF00FFFF00FFFFFFFFFFFFFFFFFFFFFF00FFFFFFFFFFFFFFFFFFFFFFFFFFFFFFFF00FFFF00FFFFFFFFFFFFFFFFFFFFFF00FFFFFFFFFFFFFFFFFFFFFFFFFFFFFFFF00FFFF00FFFFFFFFFFFFFFFFFFFFFF00FFFFFFFFFFFFFFFFFFFFFFFFFFFFFFFF
310
00FFFF00FFFFFFFFFFFFFFFFFFFFFF00FFFFFFFFFFFFFFFFFFFFFFFFFFFFFFFF00FFFF00FFFFFFFFFFFFFFFFFFFFFF00FFFFFFFFFFFFFFFFFFFFFFFFFFFFFFFF00FFFF00FFFFFFFFFFFFFFFFFFFFFF00FFFFFFFFFFFFFFFFFFFFFFFFFFFFFFFF00FFFF00FFFFFFFFFFFFFFFFFFFFFF00FFFFFFFFFFFFFFFFFFFFFFFFFFFFFF
310
FF00FFFF00FFFFFFFFFFFFFFFFFFFFFF00FFFFFFFFFFFFFFFFFFFFFFFFFFFFFFFF00FFFF00FFFFFFFFFFFFFFFFFFFFFF00FFFFFFFFFFFFFFFFFFFFFFFFFFFFFFFF00FFFF00FFFFFFFFFFFFFFFFFFFFFF00FFFFFFFFFFFFFFFFFFFFFFFFFFFFFFFF00FFFF00FFFFFFFFFFFFFFFFFFFFFF00FFFFFFFFFFFFFFFFFFFFFFFFFFFF
310
FFFF00FFFF00FFFFFFFFFFFFFFFFFFFFFF00FFFFFFFFFFFFFFFFFFFFFFFFFFFFFFFF00FFFF00FFFFFFFFFFFFFFFFFFFFFF00FFFFFFFFFFFFFFFFFFFFFFFFFFFFFFFF00FFFF00FFFFFFFFFFFFFFFFFFFFFF00FFFFFFFFFFFFFFFFFFFFFFFFFFFFFFFF00FFFF00FFFFFFFFFFFFFFFFFFFF00FFFFFFFFFFFFFFFFFFFFFFFFFFFF
310
FFFFFF00FFFF00FFFFFFFFFFFFFFFFFFFF00FFFFFFFFFFFFFFFFFFFFFFFFFFFFFFFFFF00FFFF00FFFFFFFFFFFFFFFFFFFF00FFFFFFFFFFFFFFFFFFFFFFFFFFFFFFFFFF00FFFF00FFFFFFFFFFFFFFFFFFFF00FFFFFFFFFFFFFFFFFFFFFFFFFFFFFFFFFF00FFFF00FFFFFFFFFFFFFFFFFFFF00FFFFFFFFFFFFFFFFFFFFFFFFFF
310
FFFFFFFF00FFFF00FFFFFFFFFFFFFFFFFF0000FFFF00FFFFFFFFFFFFFFFFFFFFFFFFFFFF00FFFF00FFFFFFFFFFFFFFFF0000FFFFFF00FFFFFFFFFFFFFFFFFFFFFFFFFFFF00FFFF00000000000000000000FFFFFFFF00FFFFFFFFFFFFFFFFFFFFFFFFFFFF00FFFFFFFFFFFFFFFFFFFFFFFFFFFFFF00FFFFFFFFFFFFFFFFFFFF
310
FFFFFFFFFF00FFFFFFFFFFFFFFFFFFFFFFFFFFFF00FFFFFFFFFFFFFFFFFFFFFFFFFFFFFFFF00FFFFFFFFFFFFFFFFFFFFFFFFFFFF00FFFFFFFFFFFFFFFFFFFFFFFFFFFFFFFF00FFFFFFFFFFFFFFFFFFFFFFFFFFFFFF00FFFFFFFFFFFFFFFFFFFFFFFFFFFFFF00FFFFFFFFFFFFFFFFFFFFFFFFFFFFFF00FFFFFFFFFFFFFFFFFF
310
FFFFFFFFFFFF00FFFF00000000000000000000FFFFFFFF00FFFFFFFFFFFFFFFFFFFFFFFFFFFF00FFFF00FFFFFFFFFFFFFFFFFF0000FFFF00
102
{BLKREFS
331
386
102
}
  0
BLOCK_RECORD
  5
352
330
1
100
AcDbSymbolTableRecord
100
AcDbBlockTableRecord
  2
AI9-BLK10
340
0
310
2800000020000000200000000100080000000000000400000000000000000000000000000000000000000000000080000080000000808000800000008000800080800000C0C0C000C0DCC000F0CAA6000020400000206000002080000020A0000020C0000020E00000400000004020000040400000406000004080000040A0
310
000040C0000040E00000600000006020000060400000606000006080000060A0000060C0000060E00000800000008020000080400000806000008080000080A0000080C0000080E00000A0000000A0200000A0400000A0600000A0800000A0A00000A0C00000A0E00000C0000000C0200000C0400000C0600000C0800000C0
310
A00000C0C00000C0E00000E0000000E0200000E0400000E0600000E0800000E0A00000E0C00000E0E00040000000400020004000400040006000400080004000A0004000C0004000E00040200000402020004020400040206000402080004020A0004020C0004020E000404000004040200040404000404060004040800040
310
40A0004040C0004040E00040600000406020004060400040606000406080004060A0004060C0004060E00040800000408020004080400040806000408080004080A0004080C0004080E00040A0000040A0200040A0400040A0600040A0800040A0A00040A0C00040A0E00040C0000040C0200040C0400040C0600040C08000
310
40C0A00040C0C00040C0E00040E0000040E0200040E0400040E0600040E0800040E0A00040E0C00040E0E00080000000800020008000400080006000800080008000A0008000C0008000E00080200000802020008020400080206000802080008020A0008020C0008020E00080400000804020008040400080406000804080
310
008040A0008040C0008040E00080600000806020008060400080606000806080008060A0008060C0008060E00080800000808020008080400080806000808080008080A0008080C0008080E00080A0000080A0200080A0400080A0600080A0800080A0A00080A0C00080A0E00080C0000080C0200080C0400080C0600080C0
310
800080C0A00080C0C00080C0E00080E0000080E0200080E0400080E0600080E0800080E0A00080E0C00080E0E000C0000000C0002000C0004000C0006000C0008000C000A000C000C000C000E000C0200000C0202000C0204000C0206000C0208000C020A000C020C000C020E000C0400000C0402000C0404000C0406000C0
310
408000C040A000C040C000C040E000C0600000C0602000C0604000C0606000C0608000C060A000C060C000C060E000C0800000C0802000C0804000C0806000C0808000C080A000C080C000C080E000C0A00000C0A02000C0A04000C0A06000C0A08000C0A0A000C0A0C000C0A0E000C0C00000C0C02000C0C04000C0C06000
310
C0C08000C0C0A000F0FBFF00A4A0A000808080000000FF0000FF000000FFFF00FF000000FF00FF00FFFF0000FFFFFF00FFFFFFFFFFFFFFFFFFFFFFFFFFFFFFFF00FFFFFFFFFFFFFFFFFFFFFFFF00FFFFFFFFFFFFFFFFFFFFFFFFFFFFFFFFFFFF00FFFFFFFFFFFFFFFFFFFFFF00FFFFFFFFFFFFFFFFFFFFFFFFFFFFFFFFFFFF
310
FF00FFFFFFFFFFFFFFFFFFFFFF00FFFFFFFFFFFFFFFFFFFFFFFFFFFFFFFFFFFFFF00FFFFFFFFFFFFFFFFFFFFFF00FFFFFFFFFFFFFFFFFFFFFFFFFFFFFFFFFFFFFF00FFFFFFFFFFFFFFFFFFFFFF00FFFFFFFFFFFFFFFFFFFFFFFFFFFFFFFFFFFFFF00FFFFFFFFFFFFFFFFFFFFFF00FFFFFFFFFFFFFFFFFFFFFFFFFFFFFFFFFF
310
FFFF00FFFFFFFFFFFFFFFFFFFFFF00FFFFFFFFFFFFFFFFFFFFFFFFFFFFFFFFFFFFFF00FFFFFFFFFFFFFFFFFFFF00FFFFFFFFFFFFFFFFFFFFFFFFFFFFFFFFFFFFFFFF00FFFFFFFFFFFFFFFFFFFF00FFFFFFFFFFFFFFFFFFFFFFFFFFFFFFFFFFFFFFFF00FFFFFFFFFFFFFFFFFFFF00FFFFFFFFFFFFFFFFFFFFFFFFFFFFFFFFFF
310
FFFFFF00FFFFFFFFFFFFFFFFFFFF00FFFFFFFFFFFFFFFFFFFFFFFFFFFFFFFFFFFFFFFF00FFFFFFFFFFFFFFFFFFFF00FFFFFFFFFFFFFFFFFFFFFFFFFFFFFFFFFFFFFFFF00FFFFFFFFFFFFFFFFFFFF00FFFFFFFFFFFFFFFFFFFFFFFFFFFFFFFFFFFFFFFF00FFFFFFFFFFFFFFFFFF00FFFFFFFFFFFFFFFFFFFFFFFFFFFFFFFFFF
310
FFFFFFFF00FFFFFFFFFFFFFFFFFF00FFFFFFFFFFFFFFFFFFFFFFFFFFFFFFFFFFFFFFFFFF00FFFFFFFFFFFFFFFFFF00FFFFFFFFFFFFFFFFFFFFFFFFFFFFFFFFFFFFFFFFFF0000000000000000000000FFFFFFFFFFFFFFFFFFFFFFFFFFFFFFFFFFFFFFFFFFFFFFFFFFFFFFFFFFFFFFFFFFFFFFFFFFFFFFFFFFFFFFFFFFFFFFFF
310
FFFFFFFFFFFFFFFFFFFFFFFFFFFFFFFFFFFFFFFFFFFFFFFFFFFFFFFFFFFFFFFFFFFFFFFFFFFFFFFFFFFFFFFFFFFFFFFFFFFFFFFFFFFFFFFFFFFFFFFFFFFFFFFFFFFFFFFFFFFFFFFFFFFFFFFFFFFFFFFFFFFFFFFFFFFFFFFFFFFFFFFFFFFFFFFFFFFFFFFFFFFFFFFFFFFFFFFFFFFFFFFFFFFFFFFFFFFFFFFFFFFFFFFFFFFFFF
310
FFFFFFFFFFFFFFFFFFFFFFFFFFFFFFFFFFFFFFFFFFFFFFFFFFFFFFFFFFFFFFFFFFFFFFFFFFFFFFFFFFFFFFFFFFFFFFFFFFFFFFFFFFFFFFFFFFFFFFFFFFFFFFFFFFFFFFFFFFFFFFFFFFFFFFFFFFFFFFFFFFFFFFFFFFFFFFFFFFFFFFFFFFFFFFFFFFFFFFFFFFFFFFFFFFFFFFFFFFFFFFFFFFFFFFFFFFFFFFFFFFFFFFFFFFFFFF
310
FFFFFFFFFFFFFFFFFFFFFFFFFFFFFFFFFFFFFFFFFFFFFFFFFFFFFFFFFFFFFFFFFFFFFFFFFFFFFFFFFFFFFFFFFFFFFFFFFFFFFFFFFFFFFFFFFFFFFFFFFFFFFFFFFFFFFFFFFFFFFFFFFFFFFFFFFFFFFFFFFFFFFFFFFFFFFFFFFFFFFFFFFFFFFFFFFFFFFFFFFFFFFFFFFFFFFFFFFFFFFFFFFFFFFFFFFFFFFFFFFFFFFFFFFFFFFF
310
FFFFFFFFFFFFFFFFFFFFFFFFFFFFFFFFFFFFFFFFFFFFFFFFFFFFFFFFFFFFFFFFFFFFFFFFFFFFFFFFFFFFFFFFFFFFFFFFFFFFFFFFFFFFFFFF
102
{BLKREFS
331
387
102
}
  0
BLOCK_RECORD
  5
356
330
1
100
AcDbSymbolTableRecord
100
AcDbBlockTableRecord
  2
AI9-BLK9
340
0
310
2800000020000000200000000100080000000000000400000000000000000000000000000000000000000000000080000080000000808000800000008000800080800000C0C0C000C0DCC000F0CAA6000020400000206000002080000020A0000020C0000020E00000400000004020000040400000406000004080000040A0
310
000040C0000040E00000600000006020000060400000606000006080000060A0000060C0000060E00000800000008020000080400000806000008080000080A0000080C0000080E00000A0000000A0200000A0400000A0600000A0800000A0A00000A0C00000A0E00000C0000000C0200000C0400000C0600000C0800000C0
310
A00000C0C00000C0E00000E0000000E0200000E0400000E0600000E0800000E0A00000E0C00000E0E00040000000400020004000400040006000400080004000A0004000C0004000E00040200000402020004020400040206000402080004020A0004020C0004020E000404000004040200040404000404060004040800040
310
40A0004040C0004040E00040600000406020004060400040606000406080004060A0004060C0004060E00040800000408020004080400040806000408080004080A0004080C0004080E00040A0000040A0200040A0400040A0600040A0800040A0A00040A0C00040A0E00040C0000040C0200040C0400040C0600040C08000
310
40C0A00040C0C00040C0E00040E0000040E0200040E0400040E0600040E0800040E0A00040E0C00040E0E00080000000800020008000400080006000800080008000A0008000C0008000E00080200000802020008020400080206000802080008020A0008020C0008020E00080400000804020008040400080406000804080
310
008040A0008040C0008040E00080600000806020008060400080606000806080008060A0008060C0008060E00080800000808020008080400080806000808080008080A0008080C0008080E00080A0000080A0200080A0400080A0600080A0800080A0A00080A0C00080A0E00080C0000080C0200080C0400080C0600080C0
310
800080C0A00080C0C00080C0E00080E0000080E0200080E0400080E0600080E0800080E0A00080E0C00080E0E000C0000000C0002000C0004000C0006000C0008000C000A000C000C000C000E000C0200000C0202000C0204000C0206000C0208000C020A000C020C000C020E000C0400000C0402000C0404000C0406000C0
310
408000C040A000C040C000C040E000C0600000C0602000C0604000C0606000C0608000C060A000C060C000C060E000C0800000C0802000C0804000C0806000C0808000C080A000C080C000C080E000C0A00000C0A02000C0A04000C0A06000C0A08000C0A0A000C0A0C000C0A0E000C0C00000C0C02000C0C04000C0C06000
310
C0C08000C0C0A000F0FBFF00A4A0A000808080000000FF0000FF000000FFFF00FF000000FF00FF00FFFF0000FFFFFF00FFFFFFFFFFFFFFFFFFFFFFFFFFFFFFFFFFFFFFFFFFFFFFFFFFFFFFFFFFFFFFFFFFFFFFFFFFFFFFFFFFFFFFFFFFFFFF0000FFFFFFFFFFFFFFFFFFFFFFFFFFFFFFFFFFFFFFFFFFFFFFFFFFFFFFFF0000
310
FF0000FFFFFFFFFFFFFFFFFFFFFFFFFFFFFFFFFFFFFFFFFFFFFFFFFFFFFF00FFFFFF0000FFFFFFFFFFFFFFFFFFFFFFFFFFFFFFFFFFFFFFFFFFFFFFFFFFFF00FFFFFFFF0000FFFFFFFFFFFFFFFFFFFFFFFFFFFFFFFFFFFFFFFFFFFFFFFF00FF00000000FF00FFFFFFFFFFFFFFFFFFFFFFFFFFFFFFFFFFFFFFFFFFFFFFFF0000
310
00FFFF00FF00FFFFFFFFFFFFFFFFFFFFFFFFFFFFFFFFFFFFFFFFFFFFFFFF0000FFFFFFFF0000FFFFFFFFFFFFFFFFFFFFFFFFFFFFFFFFFFFFFFFFFFFFFFFF0000FFFFFFFF0000FFFFFFFFFFFFFFFFFFFFFFFFFFFFFFFFFFFFFFFFFFFFFF00FF00FFFFFFFF00FF00FFFFFFFFFFFFFFFFFFFFFFFFFFFFFFFFFFFFFFFFFFFF0000
310
FFFFFFFFFF00FF00FFFFFFFFFFFFFFFFFFFFFFFFFFFFFFFFFFFFFFFFFFFF0000FFFFFFFFFFFF0000FFFFFFFFFFFFFFFFFFFFFFFFFFFFFFFFFFFFFFFFFFFF0000FFFFFFFFFFFF0000FFFFFFFFFFFFFFFFFFFFFFFFFFFFFFFFFFFFFFFFFFFF0000FFFFFFFFFFFF0000FFFFFFFFFFFFFFFFFFFFFFFFFFFFFFFFFFFFFFFFFFFF00
310
00FFFFFFFFFFFF0000FFFFFFFFFFFFFFFFFFFFFFFFFFFFFFFFFFFFFFFFFFFF0000FFFFFFFFFFFF0000FFFFFFFFFFFFFFFFFFFFFFFFFFFFFFFFFFFFFFFFFFFF0000FFFFFFFFFFFF0000FFFFFFFFFFFFFFFFFFFFFFFFFFFFFFFFFFFFFFFFFFFF0000FFFFFFFFFFFF0000FFFFFFFFFFFFFFFFFFFFFFFFFFFFFFFFFFFFFFFFFFFF
310
0000FFFFFFFFFFFF0000FFFFFFFFFFFFFFFFFFFFFFFFFFFFFFFFFFFFFFFFFFFF0000FFFFFFFFFFFF0000FFFFFFFFFFFFFFFFFFFFFFFFFFFFFFFFFFFFFFFFFFFF0000FFFFFFFFFFFF0000FFFFFFFFFFFFFFFFFFFFFFFFFFFFFFFFFFFFFFFFFFFF00FF00FFFFFFFF00FF00FFFFFFFFFFFFFFFFFFFFFFFFFFFFFFFFFFFFFFFFFF
310
FF00FF00FFFFFFFF00FF00FFFFFFFFFFFFFFFFFFFFFFFFFFFFFFFFFFFFFFFFFFFF00FF00FFFFFFFF00FF00FFFFFFFFFFFFFFFFFFFFFFFFFFFFFFFFFFFFFFFFFFFFFF0000FFFFFFFF0000FFFFFFFFFFFFFFFFFFFFFFFFFFFFFFFFFFFFFFFFFFFFFFFF00FF00FFFF00FF00FFFFFFFFFFFFFFFFFFFFFFFFFFFFFFFFFFFFFFFFFF
310
FFFFFF00FF00000000FF00FFFFFFFFFFFFFFFFFFFFFFFFFFFFFFFFFFFFFFFFFFFFFFFFFF00FFFFFFFF0000FFFFFFFFFFFFFFFFFFFFFFFFFFFFFFFFFFFFFFFFFFFFFFFFFF00FFFFFFFF00FFFFFFFFFFFFFFFFFFFFFFFFFFFFFFFFFFFFFFFFFFFFFFFFFFFFFF00000000FFFFFFFFFFFFFFFFFFFFFFFFFFFFFFFFFFFFFFFFFFFF
310
FFFFFFFFFFFFFF0000FFFFFFFFFFFFFFFFFFFFFFFFFFFFFFFFFFFFFFFFFFFFFFFFFFFFFFFFFFFFFFFFFFFFFFFFFFFFFFFFFFFFFFFFFFFFFF
102
{BLKREFS
331
388
102
}
  0
BLOCK_RECORD
  5
35B
330
1
100
AcDbSymbolTableRecord
100
AcDbBlockTableRecord
  2
AI9-BLK8
340
0
310
2800000020000000200000000100080000000000000400000000000000000000000000000000000000000000000080000080000000808000800000008000800080800000C0C0C000C0DCC000F0CAA6000020400000206000002080000020A0000020C0000020E00000400000004020000040400000406000004080000040A0
310
000040C0000040E00000600000006020000060400000606000006080000060A0000060C0000060E00000800000008020000080400000806000008080000080A0000080C0000080E00000A0000000A0200000A0400000A0600000A0800000A0A00000A0C00000A0E00000C0000000C0200000C0400000C0600000C0800000C0
310
A00000C0C00000C0E00000E0000000E0200000E0400000E0600000E0800000E0A00000E0C00000E0E00040000000400020004000400040006000400080004000A0004000C0004000E00040200000402020004020400040206000402080004020A0004020C0004020E000404000004040200040404000404060004040800040
310
40A0004040C0004040E00040600000406020004060400040606000406080004060A0004060C0004060E00040800000408020004080400040806000408080004080A0004080C0004080E00040A0000040A0200040A0400040A0600040A0800040A0A00040A0C00040A0E00040C0000040C0200040C0400040C0600040C08000
310
40C0A00040C0C00040C0E00040E0000040E0200040E0400040E0600040E0800040E0A00040E0C00040E0E00080000000800020008000400080006000800080008000A0008000C0008000E00080200000802020008020400080206000802080008020A0008020C0008020E00080400000804020008040400080406000804080
310
008040A0008040C0008040E00080600000806020008060400080606000806080008060A0008060C0008060E00080800000808020008080400080806000808080008080A0008080C0008080E00080A0000080A0200080A0400080A0600080A0800080A0A00080A0C00080A0E00080C0000080C0200080C0400080C0600080C0
310
800080C0A00080C0C00080C0E00080E0000080E0200080E0400080E0600080E0800080E0A00080E0C00080E0E000C0000000C0002000C0004000C0006000C0008000C000A000C000C000C000E000C0200000C0202000C0204000C0206000C0208000C020A000C020C000C020E000C0400000C0402000C0404000C0406000C0
310
408000C040A000C040C000C040E000C0600000C0602000C0604000C0606000C0608000C060A000C060C000C060E000C0800000C0802000C0804000C0806000C0808000C080A000C080C000C080E000C0A00000C0A02000C0A04000C0A06000C0A08000C0A0A000C0A0C000C0A0E000C0C00000C0C02000C0C04000C0C06000
310
C0C08000C0C0A000F0FBFF00A4A0A000808080000000FF0000FF000000FFFF00FF000000FF00FF00FFFF0000FFFFFF00FFFFFFFFFFFFFFFFFFFFFFFFFFFFFFFFFFFFFFFFFFFFFFFFFFFFFFFFFFFFFFFFFFFFFFFFFFFFFFFFFFFFFF0000FFFFFFFFFFFF0000FFFFFFFFFFFFFFFFFFFFFFFFFFFFFFFFFFFFFFFFFFFF0000FFFF
310
FFFFFFFF0000FFFFFFFFFFFFFFFFFFFFFFFFFFFFFFFFFFFFFFFFFFFF0000FFFFFFFFFF00FF00FFFFFFFFFFFFFFFFFFFFFFFFFFFFFFFFFFFFFFFFFFFF0000FFFFFFFFFF00FF00FFFFFFFFFFFFFFFFFFFFFFFFFFFFFFFFFFFFFFFFFFFF0000FFFFFFFFFF00FF00FFFFFFFFFFFFFFFFFFFFFFFFFFFFFFFFFFFFFFFFFFFF0000FF
310
FFFFFF00FFFF00FFFFFFFFFFFFFFFFFFFFFFFFFFFFFFFFFFFFFFFFFFFF0000FFFFFFFF00FF0000FFFFFFFFFFFFFFFFFFFFFFFFFFFFFFFFFFFFFFFFFFFF0000FFFFFFFF00FF0000FFFFFFFFFFFFFFFFFFFFFFFFFFFFFFFFFFFFFFFFFFFF0000FFFFFFFF00000000FFFFFFFFFFFFFFFFFFFFFFFFFFFFFFFFFFFFFFFFFFFF0000
310
FFFFFF00FF000000FFFFFFFFFFFFFFFFFFFFFFFFFFFFFFFFFFFFFFFFFFFF0000FFFFFF00FF000000FFFFFFFFFFFFFFFFFFFFFFFFFFFFFFFFFFFFFFFFFFFF0000FFFFFF00FF000000FFFFFFFFFFFFFFFFFFFFFFFFFFFFFFFFFFFFFFFFFFFF0000FFFF00FF00FF0000FFFFFFFFFFFFFFFFFFFFFFFFFFFFFFFFFFFFFFFFFFFF00
310
00FFFF00FF00FF0000FFFFFFFFFFFFFFFFFFFFFFFFFFFFFFFFFFFFFFFFFFFF0000FFFF00FF00FF0000FFFFFFFFFFFFFFFFFFFFFFFFFFFFFFFFFFFFFFFFFFFF0000FF00FFFF00FF0000FFFFFFFFFFFFFFFFFFFFFFFFFFFFFFFFFFFFFFFFFFFF0000FF00FF00FFFF0000FFFFFFFFFFFFFFFFFFFFFFFFFFFFFFFFFFFFFFFFFFFF
310
0000FF00FF00FFFF0000FFFFFFFFFFFFFFFFFFFFFFFFFFFFFFFFFFFFFFFFFFFF0000FF00FF00FFFF0000FFFFFFFFFFFFFFFFFFFFFFFFFFFFFFFFFFFFFFFFFFFF000000FFFF00FFFF0000FFFFFFFFFFFFFFFFFFFFFFFFFFFFFFFFFFFFFFFFFFFF000000FF00FFFFFF0000FFFFFFFFFFFFFFFFFFFFFFFFFFFFFFFFFFFFFFFFFF
310
FF000000FF00FFFFFF0000FFFFFFFFFFFFFFFFFFFFFFFFFFFFFFFFFFFFFFFFFFFF0000FFFF00FFFFFF0000FFFFFFFFFFFFFFFFFFFFFFFFFFFFFFFFFFFFFFFFFFFF0000FFFF00FFFFFF0000FFFFFFFFFFFFFFFFFFFFFFFFFFFFFFFFFFFFFFFFFFFF00FFFF00FFFFFFFF0000FFFFFFFFFFFFFFFFFFFFFFFFFFFFFFFFFFFFFFFF
310
FFFF00FFFF00FFFFFFFF0000FFFFFFFFFFFFFFFFFFFFFFFFFFFFFFFFFFFFFFFFFFFF00FFFF00FFFFFFFF0000FFFFFFFFFFFFFFFFFFFFFFFFFFFFFFFFFFFFFFFFFFFF00FFFF00FFFFFFFF0000FFFFFFFFFFFFFFFFFFFFFFFFFFFFFFFFFFFFFFFFFFFF00FF00FFFFFFFFFF0000FFFFFFFFFFFFFFFFFFFFFFFFFFFFFFFFFFFFFF
310
FFFFFF000000FFFFFFFFFF0000FFFFFFFFFFFFFFFFFFFFFFFFFFFFFFFFFFFFFFFFFFFFFFFFFFFFFFFFFFFFFFFFFFFFFFFFFFFFFFFFFFFFFF
102
{BLKREFS
331
389
102
}
  0
BLOCK_RECORD
  5
360
330
1
100
AcDbSymbolTableRecord
100
AcDbBlockTableRecord
  2
AI9-BLK7
340
0
310
2800000020000000200000000100080000000000000400000000000000000000000000000000000000000000000080000080000000808000800000008000800080800000C0C0C000C0DCC000F0CAA6000020400000206000002080000020A0000020C0000020E00000400000004020000040400000406000004080000040A0
310
000040C0000040E00000600000006020000060400000606000006080000060A0000060C0000060E00000800000008020000080400000806000008080000080A0000080C0000080E00000A0000000A0200000A0400000A0600000A0800000A0A00000A0C00000A0E00000C0000000C0200000C0400000C0600000C0800000C0
310
A00000C0C00000C0E00000E0000000E0200000E0400000E0600000E0800000E0A00000E0C00000E0E00040000000400020004000400040006000400080004000A0004000C0004000E00040200000402020004020400040206000402080004020A0004020C0004020E000404000004040200040404000404060004040800040
310
40A0004040C0004040E00040600000406020004060400040606000406080004060A0004060C0004060E00040800000408020004080400040806000408080004080A0004080C0004080E00040A0000040A0200040A0400040A0600040A0800040A0A00040A0C00040A0E00040C0000040C0200040C0400040C0600040C08000
310
40C0A00040C0C00040C0E00040E0000040E0200040E0400040E0600040E0800040E0A00040E0C00040E0E00080000000800020008000400080006000800080008000A0008000C0008000E00080200000802020008020400080206000802080008020A0008020C0008020E00080400000804020008040400080406000804080
310
008040A0008040C0008040E00080600000806020008060400080606000806080008060A0008060C0008060E00080800000808020008080400080806000808080008080A0008080C0008080E00080A0000080A0200080A0400080A0600080A0800080A0A00080A0C00080A0E00080C0000080C0200080C0400080C0600080C0
310
800080C0A00080C0C00080C0E00080E0000080E0200080E0400080E0600080E0800080E0A00080E0C00080E0E000C0000000C0002000C0004000C0006000C0008000C000A000C000C000C000E000C0200000C0202000C0204000C0206000C0208000C020A000C020C000C020E000C0400000C0402000C0404000C0406000C0
310
408000C040A000C040C000C040E000C0600000C0602000C0604000C0606000C0608000C060A000C060C000C060E000C0800000C0802000C0804000C0806000C0808000C080A000C080C000C080E000C0A00000C0A02000C0A04000C0A06000C0A08000C0A0A000C0A0C000C0A0E000C0C00000C0C02000C0C04000C0C06000
310
C0C08000C0C0A000F0FBFF00A4A0A000808080000000FF0000FF000000FFFF00FF000000FF00FF00FFFF0000FFFFFF00FFFFFFFFFFFFFFFFFFFFFFFFFFFFFFFFFFFFFFFFFFFFFFFFFFFFFFFFFFFFFFFFFFFFFFFFFFFFFFFFFFFFFFFFFFFFFF0000FFFFFFFFFFFFFFFFFFFFFFFFFFFFFFFFFFFFFFFFFFFFFFFFFFFFFFFFFFFF
310
0000FFFFFFFFFFFFFFFFFFFFFFFFFFFFFFFFFFFFFFFFFFFFFFFFFFFFFFFFFFFF0000FFFFFFFFFFFFFFFFFFFFFFFFFFFFFFFFFFFFFFFFFFFFFFFFFFFFFFFFFFFF0000FFFFFFFFFFFFFFFFFFFFFFFFFFFFFFFFFFFFFFFFFFFFFFFFFFFFFFFFFFFF0000FFFFFFFFFFFFFFFFFFFFFFFFFFFFFFFFFFFFFFFFFFFFFFFFFFFFFFFFFF
310
FF0000FFFFFFFFFFFFFFFFFFFFFFFFFFFFFFFFFFFFFFFFFFFFFFFFFFFFFFFFFFFF0000FFFFFFFFFFFFFFFFFFFFFFFFFFFFFFFFFFFFFFFFFFFFFFFFFFFFFFFFFFFF0000FFFFFFFFFFFFFFFFFFFFFFFFFFFFFFFFFFFFFFFFFFFFFFFFFFFFFFFFFFFF0000FFFFFFFFFFFFFFFFFFFFFFFFFFFFFFFFFFFFFFFFFFFFFFFFFFFFFFFF
310
FFFF0000FFFFFFFFFFFFFFFFFFFFFFFFFFFFFFFFFFFFFFFFFFFFFFFFFFFFFFFFFFFF0000FFFFFFFFFFFFFFFFFFFFFFFFFFFFFFFFFFFFFFFFFFFFFFFFFFFFFFFFFFFF0000FFFFFFFFFFFFFFFFFFFFFFFFFFFFFFFFFFFFFFFFFFFFFFFFFFFFFFFFFFFF0000FFFFFFFFFFFFFFFFFFFFFFFFFFFFFFFFFFFFFFFFFFFFFFFFFFFFFF
310
FFFFFF0000FFFFFFFFFFFFFFFFFFFFFFFFFFFFFFFFFFFFFFFFFFFFFFFFFFFFFFFFFFFF0000FFFFFFFFFFFFFFFFFFFFFFFFFFFFFFFFFFFFFFFFFFFFFFFFFFFFFFFFFFFF0000FFFFFFFFFFFFFFFFFFFFFFFFFFFFFFFFFFFFFFFFFFFFFFFFFFFFFFFFFFFF0000FFFFFFFFFFFFFFFFFFFFFFFFFFFFFFFFFFFFFFFFFFFFFFFFFFFF
310
FFFFFFFF0000FFFFFFFFFFFFFFFFFFFFFFFFFFFFFFFFFFFFFFFFFFFFFFFFFFFFFFFFFFFF0000FFFFFFFFFFFFFFFFFFFFFFFFFFFFFFFFFFFFFFFFFFFFFFFFFFFFFFFFFFFF0000FFFFFFFFFFFFFFFFFFFFFFFFFFFFFFFFFFFFFFFFFFFFFFFFFFFFFFFFFFFF0000FFFFFFFFFFFFFFFFFFFFFFFFFFFFFFFFFFFFFFFFFFFFFFFFFF
310
FFFFFFFFFF0000FFFFFFFFFFFFFFFFFFFFFFFFFFFFFFFFFFFFFFFFFFFFFFFFFFFFFFFFFFFF0000FFFFFFFFFFFFFFFFFFFFFFFFFFFFFFFFFFFFFFFFFFFFFFFFFFFFFFFFFFFF0000FFFFFFFFFFFFFFFFFFFFFFFFFFFFFFFFFFFFFFFFFFFFFFFFFFFFFFFFFFFF0000FFFFFFFFFFFFFFFFFFFFFFFFFFFFFFFFFFFFFFFFFFFFFFFF
310
FFFFFFFFFFFF0000FFFFFFFFFFFFFFFFFFFFFFFFFFFFFFFFFFFFFFFFFFFFFFFFFFFFFFFFFFFF0000FFFFFFFFFFFFFFFFFFFFFFFFFFFFFFFFFFFFFFFFFFFFFFFFFFFFFFFFFFFF0000FFFFFFFFFFFFFFFFFFFFFFFFFFFFFFFFFFFFFFFFFFFFFFFFFFFFFFFFFFFF0000FFFFFFFFFFFFFFFFFFFFFFFFFFFFFFFFFFFFFFFFFFFFFF
310
FFFFFFFFFFFFFF0000FFFFFFFFFFFFFFFFFFFFFFFFFFFFFFFFFFFFFFFFFFFFFFFFFFFFFFFFFFFFFFFFFFFFFFFFFFFFFFFFFFFFFFFFFFFFFF
102
{BLKREFS
331
38A
102
}
  0
BLOCK_RECORD
  5
365
330
1
100
AcDbSymbolTableRecord
100
AcDbBlockTableRecord
  2
AI9-BLK6
340
0
310
2800000020000000200000000100080000000000000400000000000000000000000000000000000000000000000080000080000000808000800000008000800080800000C0C0C000C0DCC000F0CAA6000020400000206000002080000020A0000020C0000020E00000400000004020000040400000406000004080000040A0
310
000040C0000040E00000600000006020000060400000606000006080000060A0000060C0000060E00000800000008020000080400000806000008080000080A0000080C0000080E00000A0000000A0200000A0400000A0600000A0800000A0A00000A0C00000A0E00000C0000000C0200000C0400000C0600000C0800000C0
310
A00000C0C00000C0E00000E0000000E0200000E0400000E0600000E0800000E0A00000E0C00000E0E00040000000400020004000400040006000400080004000A0004000C0004000E00040200000402020004020400040206000402080004020A0004020C0004020E000404000004040200040404000404060004040800040
310
40A0004040C0004040E00040600000406020004060400040606000406080004060A0004060C0004060E00040800000408020004080400040806000408080004080A0004080C0004080E00040A0000040A0200040A0400040A0600040A0800040A0A00040A0C00040A0E00040C0000040C0200040C0400040C0600040C08000
310
40C0A00040C0C00040C0E00040E0000040E0200040E0400040E0600040E0800040E0A00040E0C00040E0E00080000000800020008000400080006000800080008000A0008000C0008000E00080200000802020008020400080206000802080008020A0008020C0008020E00080400000804020008040400080406000804080
310
008040A0008040C0008040E00080600000806020008060400080606000806080008060A0008060C0008060E00080800000808020008080400080806000808080008080A0008080C0008080E00080A0000080A0200080A0400080A0600080A0800080A0A00080A0C00080A0E00080C0000080C0200080C0400080C0600080C0
310
800080C0A00080C0C00080C0E00080E0000080E0200080E0400080E0600080E0800080E0A00080E0C00080E0E000C0000000C0002000C0004000C0006000C0008000C000A000C000C000C000E000C0200000C0202000C0204000C0206000C0208000C020A000C020C000C020E000C0400000C0402000C0404000C0406000C0
310
408000C040A000C040C000C040E000C0600000C0602000C0604000C0606000C0608000C060A000C060C000C060E000C0800000C0802000C0804000C0806000C0808000C080A000C080C000C080E000C0A00000C0A02000C0A04000C0A06000C0A08000C0A0A000C0A0C000C0A0E000C0C00000C0C02000C0C04000C0C06000
310
C0C08000C0C0A000F0FBFF00A4A0A000808080000000FF0000FF000000FFFF00FF000000FF00FF00FFFF0000FFFFFF00FFFFFFFFFFFFFFFFFFFFFFFF00FFFFFFFFFFFFFF00FFFFFFFFFFFFFFFFFFFFFFFFFFFFFFFFFFFFFFFFFFFFFF00FFFFFFFFFFFFFF00FFFFFFFFFFFFFFFFFFFFFFFFFFFFFFFFFFFFFFFFFFFFFF00FFFF
310
FFFFFFFFFF00FFFFFFFFFFFFFFFFFFFFFFFFFFFFFFFFFFFFFFFFFFFF00FFFFFFFFFFFFFFFF00FFFFFFFFFFFFFFFFFFFFFFFFFFFFFFFFFFFFFFFFFFFF00FFFFFFFFFFFFFF00FFFFFFFFFFFFFFFFFFFFFFFFFFFFFFFFFFFFFFFFFFFFFF00FFFFFFFFFFFFFF00FFFFFFFFFFFFFFFFFFFFFFFFFFFFFFFFFFFFFFFFFFFF00FFFFFF
310
FFFFFFFFFF00FFFFFFFFFFFFFFFFFFFFFFFFFFFFFFFFFFFFFFFFFFFF00FFFFFFFFFFFFFF00FFFFFFFFFFFFFFFFFFFFFFFFFFFFFFFFFFFFFFFFFFFF00FFFFFFFFFFFFFFFF00FFFFFFFFFFFFFFFFFFFFFFFFFFFFFFFFFFFFFFFFFF00FFFFFFFFFFFFFFFFFF00FFFFFFFFFFFFFFFFFFFFFFFFFFFFFFFFFFFFFFFF00FFFFFFFFFF
310
FFFFFFFFFF00FFFFFFFFFFFFFFFFFFFFFFFFFFFFFFFFFFFFFF00FFFFFFFFFFFFFFFFFFFF00FFFFFFFFFFFFFFFFFFFFFFFFFFFFFFFFFFFF0000FFFFFFFFFFFFFFFFFFFFFF00FFFFFFFFFFFFFFFFFFFFFFFFFFFF00000000FFFFFFFFFFFFFFFFFFFFFFFFFF00FFFFFFFFFFFFFFFFFFFFFFFFFFFFFFFFFFFFFFFFFFFFFFFFFFFF
310
FFFFFFFF00FFFFFFFFFFFFFFFFFFFFFFFFFFFFFFFFFFFFFFFFFFFFFFFFFFFFFFFFFFFFFF00FFFFFFFFFFFFFFFFFFFFFFFFFFFFFFFFFFFFFFFFFFFFFFFFFFFFFFFFFFFFFF00FFFFFFFFFFFFFFFFFFFFFFFFFFFFFFFFFFFFFFFFFFFFFFFFFFFFFFFFFFFF00FFFFFFFFFFFFFFFFFFFFFFFFFFFFFFFFFFFFFFFFFFFFFFFFFFFFFF
310
FFFFFFFF00FFFFFFFFFFFFFFFFFFFFFFFFFFFFFFFFFFFFFFFFFFFFFFFFFFFFFFFFFFFF00FFFFFFFFFFFFFFFFFFFFFFFFFFFFFFFFFFFFFFFFFFFFFFFFFFFFFFFFFFFF00FFFFFFFFFFFFFFFFFFFFFFFFFFFFFFFFFFFFFFFFFFFFFFFFFFFFFFFFFFFF00FFFFFFFFFFFFFFFFFFFFFFFFFFFFFFFFFFFFFFFFFFFFFFFFFFFFFFFFFF
310
FF00FFFFFFFFFFFFFFFFFFFFFFFFFFFFFFFFFFFFFFFFFFFFFFFFFFFFFFFFFFFFFF00FFFFFFFFFFFFFFFFFFFFFFFFFFFFFFFFFFFFFFFFFFFFFFFFFFFFFFFFFFFF00FFFFFFFFFFFFFFFFFFFFFFFFFFFFFFFFFFFFFFFFFFFFFFFFFFFFFFFFFF0000FFFFFFFFFFFFFFFFFFFFFFFFFFFFFFFFFFFFFFFFFFFFFFFFFFFFFFFF0000FF
310
FFFFFFFFFFFFFFFFFFFFFFFFFFFFFFFFFFFFFFFFFFFFFFFFFF00000000FFFFFFFFFFFFFFFFFFFFFFFFFFFFFFFFFFFFFFFFFFFFFFFFFFFF0000FFFFFFFFFFFFFFFFFFFFFFFFFFFFFFFFFFFFFFFFFFFFFFFFFFFFFFFFFFFFFFFFFFFFFFFFFFFFFFFFFFFFFFFFFFFFFFFFFFFFFFFFFFFFFFFFFFFFFFFFFFFFFFFFFFFFFFFFFFFF
310
FFFFFFFFFFFFFFFFFFFFFFFFFFFFFFFFFFFFFFFFFFFFFFFFFFFFFFFFFFFFFFFFFFFFFFFFFFFFFFFFFFFFFFFFFFFFFFFFFFFFFFFFFFFFFFFF
102
{BLKREFS
331
38B
102
}
  0
BLOCK_RECORD
  5
369
330
1
100
AcDbSymbolTableRecord
100
AcDbBlockTableRecord
  2
AI9-BLK5
340
0
310
2800000020000000200000000100080000000000000400000000000000000000000000000000000000000000000080000080000000808000800000008000800080800000C0C0C000C0DCC000F0CAA6000020400000206000002080000020A0000020C0000020E00000400000004020000040400000406000004080000040A0
310
000040C0000040E00000600000006020000060400000606000006080000060A0000060C0000060E00000800000008020000080400000806000008080000080A0000080C0000080E00000A0000000A0200000A0400000A0600000A0800000A0A00000A0C00000A0E00000C0000000C0200000C0400000C0600000C0800000C0
310
A00000C0C00000C0E00000E0000000E0200000E0400000E0600000E0800000E0A00000E0C00000E0E00040000000400020004000400040006000400080004000A0004000C0004000E00040200000402020004020400040206000402080004020A0004020C0004020E000404000004040200040404000404060004040800040
310
40A0004040C0004040E00040600000406020004060400040606000406080004060A0004060C0004060E00040800000408020004080400040806000408080004080A0004080C0004080E00040A0000040A0200040A0400040A0600040A0800040A0A00040A0C00040A0E00040C0000040C0200040C0400040C0600040C08000
310
40C0A00040C0C00040C0E00040E0000040E0200040E0400040E0600040E0800040E0A00040E0C00040E0E00080000000800020008000400080006000800080008000A0008000C0008000E00080200000802020008020400080206000802080008020A0008020C0008020E00080400000804020008040400080406000804080
310
008040A0008040C0008040E00080600000806020008060400080606000806080008060A0008060C0008060E00080800000808020008080400080806000808080008080A0008080C0008080E00080A0000080A0200080A0400080A0600080A0800080A0A00080A0C00080A0E00080C0000080C0200080C0400080C0600080C0
310
800080C0A00080C0C00080C0E00080E0000080E0200080E0400080E0600080E0800080E0A00080E0C00080E0E000C0000000C0002000C0004000C0006000C0008000C000A000C000C000C000E000C0200000C0202000C0204000C0206000C0208000C020A000C020C000C020E000C0400000C0402000C0404000C0406000C0
310
408000C040A000C040C000C040E000C0600000C0602000C0604000C0606000C0608000C060A000C060C000C060E000C0800000C0802000C0804000C0806000C0808000C080A000C080C000C080E000C0A00000C0A02000C0A04000C0A06000C0A08000C0A0A000C0A0C000C0A0E000C0C00000C0C02000C0C04000C0C06000
310
C0C08000C0C0A000F0FBFF00A4A0A000808080000000FF0000FF000000FFFF00FF000000FF00FF00FFFF0000FFFFFF00FFFFFFFFFFFFFFFFFFFFFFFFFFFFFFFFFFFFFFFFFFFFFFFFFFFFFFFFFFFFFFFFFFFFFFFFFFFFFFFF000000000000000000000000000000000000000000000000FFFFFFFFFFFFFFFF00FFFFFFFFFFFF
310
FFFFFFFFFFFFFFFFFFFFFFFFFFFFFFFFFFFFFFFFFFFFFFFFFF00FFFFFFFFFFFFFFFFFFFFFFFFFFFFFFFFFFFFFFFFFFFFFFFFFFFFFFFFFFFFFF00FFFFFFFFFFFFFFFFFFFFFFFFFFFFFFFFFFFFFFFFFFFFFFFFFFFFFFFFFFFFFF00FFFFFFFFFFFFFFFFFFFFFFFFFFFFFFFFFFFFFFFFFFFFFFFFFFFFFFFFFFFFFF00FFFFFFFFFF
310
FFFFFFFFFFFFFFFFFFFFFFFFFFFFFFFFFFFFFFFFFFFFFFFFFFFF00FFFFFFFFFFFFFFFFFFFFFFFFFFFFFFFFFFFFFFFFFFFFFFFFFFFFFFFFFFFFFF00FFFFFFFFFFFFFFFFFFFFFFFFFFFFFFFFFFFFFFFFFFFFFFFFFFFFFFFFFFFFFF00FFFFFFFFFFFFFFFFFFFFFFFFFFFFFFFFFFFFFFFFFFFFFFFFFFFFFFFFFFFFFF00FFFFFFFF
310
FFFFFFFFFFFFFFFFFFFFFFFFFFFFFFFFFFFFFFFFFFFFFFFFFFFFFF00FFFFFFFFFFFFFFFFFFFFFFFFFFFFFFFFFFFFFFFFFFFFFFFFFFFFFFFFFFFFFF00FFFFFFFFFFFFFFFFFFFFFFFFFFFFFFFFFFFFFFFFFFFFFFFFFFFFFFFFFFFFFF00FFFFFFFFFFFFFFFFFFFFFFFFFFFFFFFFFFFFFFFFFFFFFFFFFFFFFFFFFFFFFF00FFFFFF
310
FFFFFFFFFFFFFFFFFFFFFFFFFFFFFFFFFFFFFFFFFFFFFFFFFFFFFFFF00FFFFFFFFFFFFFFFFFFFFFFFFFFFFFFFFFFFFFFFFFFFFFFFFFFFFFFFFFFFFFF00FFFFFFFFFFFFFFFFFFFFFFFFFFFFFFFFFFFFFFFFFFFFFFFFFFFFFFFFFFFFFF00FFFFFFFFFFFFFFFFFFFFFFFFFFFFFFFFFFFFFFFFFFFFFFFFFFFFFFFFFFFFFF00FFFF
310
FFFFFFFFFFFFFFFFFFFFFFFFFFFFFFFFFFFFFFFFFFFFFFFFFFFFFFFFFF00FFFFFFFFFFFFFFFFFFFFFFFFFFFFFFFFFFFFFFFFFFFFFFFFFFFFFFFFFFFFFF00FFFFFFFFFFFFFFFFFFFFFFFFFFFFFFFFFFFFFFFFFFFFFFFFFFFFFFFFFFFFFF00FFFFFFFFFFFFFFFFFFFFFFFFFFFFFFFFFFFFFFFFFFFFFFFFFFFFFFFFFFFFFF00FF
310
FFFFFFFFFFFFFFFFFFFFFFFFFFFFFFFFFFFFFFFFFFFFFFFFFFFFFFFFFFFF00FFFFFFFFFFFFFFFFFFFFFFFFFFFFFFFFFFFFFFFFFFFFFFFFFFFFFFFFFFFFFF00FFFFFFFFFFFFFFFFFFFFFFFFFFFFFFFFFFFFFFFFFFFFFFFFFFFFFFFFFFFFFF00FFFFFFFFFFFFFFFFFFFFFFFFFFFFFFFFFFFFFFFFFFFFFFFFFFFFFFFFFFFFFF00
310
FFFFFFFFFFFFFFFFFFFFFFFFFFFFFFFFFFFFFFFFFFFFFFFFFFFFFFFFFFFFFF00FFFFFFFFFFFFFFFFFFFFFFFFFFFFFFFFFFFFFFFFFFFFFFFFFFFFFFFFFFFFFF00FFFFFFFFFFFFFFFFFFFFFFFFFFFFFFFFFFFFFFFFFFFFFFFFFFFFFFFFFFFFFF00FFFFFFFFFFFFFFFFFFFFFFFFFFFFFFFFFFFFFFFFFFFFFFFFFFFFFFFFFFFFFF
310
00FFFFFFFFFFFFFFFFFFFFFFFFFFFF000000000000000000FFFFFFFFFFFFFFFF00FFFFFFFFFFFFFFFFFFFFFFFFFFFF00FFFFFFFFFFFFFFFF
102
{BLKREFS
331
38C
102
}
  0
BLOCK_RECORD
  5
36E
330
1
100
AcDbSymbolTableRecord
100
AcDbBlockTableRecord
  2
AI9-BLK4
340
0
310
2800000020000000200000000100080000000000000400000000000000000000000000000000000000000000000080000080000000808000800000008000800080800000C0C0C000C0DCC000F0CAA6000020400000206000002080000020A0000020C0000020E00000400000004020000040400000406000004080000040A0
310
000040C0000040E00000600000006020000060400000606000006080000060A0000060C0000060E00000800000008020000080400000806000008080000080A0000080C0000080E00000A0000000A0200000A0400000A0600000A0800000A0A00000A0C00000A0E00000C0000000C0200000C0400000C0600000C0800000C0
310
A00000C0C00000C0E00000E0000000E0200000E0400000E0600000E0800000E0A00000E0C00000E0E00040000000400020004000400040006000400080004000A0004000C0004000E00040200000402020004020400040206000402080004020A0004020C0004020E000404000004040200040404000404060004040800040
310
40A0004040C0004040E00040600000406020004060400040606000406080004060A0004060C0004060E00040800000408020004080400040806000408080004080A0004080C0004080E00040A0000040A0200040A0400040A0600040A0800040A0A00040A0C00040A0E00040C0000040C0200040C0400040C0600040C08000
310
40C0A00040C0C00040C0E00040E0000040E0200040E0400040E0600040E0800040E0A00040E0C00040E0E00080000000800020008000400080006000800080008000A0008000C0008000E00080200000802020008020400080206000802080008020A0008020C0008020E00080400000804020008040400080406000804080
310
008040A0008040C0008040E00080600000806020008060400080606000806080008060A0008060C0008060E00080800000808020008080400080806000808080008080A0008080C0008080E00080A0000080A0200080A0400080A0600080A0800080A0A00080A0C00080A0E00080C0000080C0200080C0400080C0600080C0
310
800080C0A00080C0C00080C0E00080E0000080E0200080E0400080E0600080E0800080E0A00080E0C00080E0E000C0000000C0002000C0004000C0006000C0008000C000A000C000C000C000E000C0200000C0202000C0204000C0206000C0208000C020A000C020C000C020E000C0400000C0402000C0404000C0406000C0
310
408000C040A000C040C000C040E000C0600000C0602000C0604000C0606000C0608000C060A000C060C000C060E000C0800000C0802000C0804000C0806000C0808000C080A000C080C000C080E000C0A00000C0A02000C0A04000C0A06000C0A08000C0A0A000C0A0C000C0A0E000C0C00000C0C02000C0C04000C0C06000
310
C0C08000C0C0A000F0FBFF00A4A0A000808080000000FF0000FF000000FFFF00FF000000FF00FF00FFFF0000FFFFFF00FFFFFFFFFFFFFFFFFFFFFFFFFFFFFFFFFFFFFFFFFFFFFFFFFFFFFFFFFFFFFFFFFFFFFFFFFFFFFFFFFFFFFFFFFFFF00000000FFFFFFFFFFFFFFFFFFFFFF000000FFFFFFFFFFFFFFFFFFFFFFFFFFFF00
310
FFFF00FFFFFFFFFFFFFFFFFFFFFF00FFFFFFFFFFFFFFFFFFFFFFFFFFFFFFFF00FFFF00FFFFFFFFFFFFFFFFFFFFFF00FFFFFFFFFFFFFFFFFFFFFFFFFFFFFFFF00FFFF00FFFFFFFFFFFFFFFFFFFFFF00FFFFFFFFFFFFFFFFFFFFFFFFFFFFFFFF00FFFF00FFFFFFFFFFFFFFFFFFFFFF00FFFFFFFFFFFFFFFFFFFFFFFFFFFFFFFF
310
00FFFF00FFFFFFFFFFFFFFFFFFFFFF00FFFFFFFFFFFFFFFFFFFFFFFFFFFFFFFF00FFFF00FFFFFFFFFFFFFFFFFFFFFF00FFFFFFFFFFFFFFFFFFFFFFFFFFFFFFFF00FFFF00FFFFFFFFFFFFFFFFFFFFFF00FFFFFFFFFFFFFFFFFFFFFFFFFFFFFFFF00FFFF00FFFFFFFFFFFFFFFFFFFFFF00FFFFFFFFFFFFFFFFFFFFFFFFFFFFFF
310
FF00FFFF00FFFFFFFFFFFFFFFFFFFFFF00FFFFFFFFFFFFFFFFFFFFFFFFFFFFFFFF00FFFF00FFFFFFFFFFFFFFFFFFFFFF00FFFFFFFFFFFFFFFFFFFFFFFFFFFFFFFF00FFFF00FFFFFFFFFFFFFFFFFFFFFF00FFFFFFFFFFFFFFFFFFFFFFFFFFFFFFFF00FFFF00FFFFFFFFFFFFFFFFFFFFFF00FFFFFFFFFFFFFFFFFFFFFFFFFFFF
310
FFFF00FFFF00FFFFFFFFFFFFFFFFFFFFFF00FFFFFFFFFFFFFFFFFFFFFFFFFFFFFFFF00FFFF00FFFFFFFFFFFFFFFFFFFFFF00FFFFFFFFFFFFFFFFFFFFFFFFFFFFFFFF00FFFF00FFFFFFFFFFFFFFFFFFFFFF00FFFFFFFFFFFFFFFFFFFFFFFFFFFFFFFF00FFFF00FFFFFFFFFFFFFFFFFFFF00FFFFFFFFFFFFFFFFFFFFFFFFFFFF
310
FFFFFF00FFFF00FFFFFFFFFFFFFFFFFFFF00FFFFFFFFFFFFFFFFFFFFFFFFFFFFFFFFFF00FFFF00FFFFFFFFFFFFFFFFFFFF00FFFFFFFFFFFFFFFFFFFFFFFFFFFFFFFFFF00FFFF00FFFFFFFFFFFFFFFFFFFF00FFFFFFFFFFFFFFFFFFFFFFFFFFFFFFFFFF00FFFF00FFFFFFFFFFFFFFFFFFFF00FFFFFFFFFFFFFFFFFFFFFFFFFF
310
FFFFFFFF00FFFF00FFFFFFFFFFFFFFFFFF0000FFFF00FFFFFFFFFFFFFFFFFFFFFFFFFFFF00FFFF00FFFFFFFFFFFFFFFF0000FFFFFF00FFFFFFFFFFFFFFFFFFFFFFFFFFFF00FFFF00000000000000000000FFFFFFFF00FFFFFFFFFFFFFFFFFFFFFFFFFFFF00FFFFFFFFFFFFFFFFFFFFFFFFFFFFFF00FFFFFFFFFFFFFFFFFFFF
310
FFFFFFFFFF00FFFFFFFFFFFFFFFFFFFFFFFFFFFF00FFFFFFFFFFFFFFFFFFFFFFFFFFFFFFFF00FFFFFFFFFFFFFFFFFFFFFFFFFFFF00FFFFFFFFFFFFFFFFFFFFFFFFFFFFFFFF00FFFFFFFFFFFFFFFFFFFFFFFFFFFFFF00FFFFFFFFFFFFFFFFFFFFFFFFFFFFFF00FFFFFFFFFFFFFFFFFFFFFFFFFFFFFF00FFFFFFFFFFFFFFFFFF
310
FFFFFFFFFFFF00FFFF00000000000000000000FFFFFFFF00FFFFFFFFFFFFFFFFFFFFFFFFFFFF00FFFF00FFFFFFFFFFFFFFFFFF0000FFFF00
102
{BLKREFS
331
38D
102
}
  0
BLOCK_RECORD
  5
373
330
1
100
AcDbSymbolTableRecord
100
AcDbBlockTableRecord
  2
AI9-BLK3
340
0
310
2800000020000000200000000100080000000000000400000000000000000000000000000000000000000000000080000080000000808000800000008000800080800000C0C0C000C0DCC000F0CAA6000020400000206000002080000020A0000020C0000020E00000400000004020000040400000406000004080000040A0
310
000040C0000040E00000600000006020000060400000606000006080000060A0000060C0000060E00000800000008020000080400000806000008080000080A0000080C0000080E00000A0000000A0200000A0400000A0600000A0800000A0A00000A0C00000A0E00000C0000000C0200000C0400000C0600000C0800000C0
310
A00000C0C00000C0E00000E0000000E0200000E0400000E0600000E0800000E0A00000E0C00000E0E00040000000400020004000400040006000400080004000A0004000C0004000E00040200000402020004020400040206000402080004020A0004020C0004020E000404000004040200040404000404060004040800040
310
40A0004040C0004040E00040600000406020004060400040606000406080004060A0004060C0004060E00040800000408020004080400040806000408080004080A0004080C0004080E00040A0000040A0200040A0400040A0600040A0800040A0A00040A0C00040A0E00040C0000040C0200040C0400040C0600040C08000
310
40C0A00040C0C00040C0E00040E0000040E0200040E0400040E0600040E0800040E0A00040E0C00040E0E00080000000800020008000400080006000800080008000A0008000C0008000E00080200000802020008020400080206000802080008020A0008020C0008020E00080400000804020008040400080406000804080
310
008040A0008040C0008040E00080600000806020008060400080606000806080008060A0008060C0008060E00080800000808020008080400080806000808080008080A0008080C0008080E00080A0000080A0200080A0400080A0600080A0800080A0A00080A0C00080A0E00080C0000080C0200080C0400080C0600080C0
310
800080C0A00080C0C00080C0E00080E0000080E0200080E0400080E0600080E0800080E0A00080E0C00080E0E000C0000000C0002000C0004000C0006000C0008000C000A000C000C000C000E000C0200000C0202000C0204000C0206000C0208000C020A000C020C000C020E000C0400000C0402000C0404000C0406000C0
310
408000C040A000C040C000C040E000C0600000C0602000C0604000C0606000C0608000C060A000C060C000C060E000C0800000C0802000C0804000C0806000C0808000C080A000C080C000C080E000C0A00000C0A02000C0A04000C0A06000C0A08000C0A0A000C0A0C000C0A0E000C0C00000C0C02000C0C04000C0C06000
310
C0C08000C0C0A000F0FBFF00A4A0A000808080000000FF0000FF000000FFFF00FF000000FF00FF00FFFF0000FFFFFF00FFFFFFFFFFFFFFFFFFFFFFFFFFFFFFFFFFFFFFFFFFFFFFFFFFFFFFFFFFFFFFFFFFFFFFFFFFFFFFFFFFFFFFFFFFFFFF0000FFFFFFFFFFFFFFFFFFFFFFFFFFFFFFFFFFFFFFFFFFFFFFFFFFFFFFFFFFFF
310
0000FFFFFFFFFFFFFFFFFFFFFFFFFFFFFFFFFFFFFFFFFFFFFFFFFFFFFFFFFFFF0000FFFFFFFFFFFFFFFFFFFFFFFFFFFFFFFFFFFFFFFFFFFFFFFFFFFFFFFFFFFF0000FFFFFFFFFFFFFFFFFFFFFFFFFFFFFFFFFFFFFFFFFFFFFFFFFFFFFFFFFFFF0000FFFFFFFFFFFFFFFFFFFFFFFFFFFFFFFFFFFFFFFFFFFFFFFFFFFFFFFFFF
310
FF0000FFFFFFFFFFFFFFFFFFFFFFFFFFFFFFFFFFFFFFFFFFFFFFFFFFFFFFFFFFFF0000FFFFFFFFFFFFFFFFFFFFFFFFFFFFFFFFFFFFFFFFFFFFFFFFFFFFFFFFFFFF0000FFFFFFFFFFFFFFFFFFFFFFFFFFFFFFFFFFFFFFFFFFFFFFFFFFFFFFFFFFFF0000FFFFFFFFFFFFFFFFFFFFFFFFFFFFFFFFFFFFFFFFFFFFFFFFFFFFFFFF
310
FFFF0000FFFFFFFFFFFFFFFFFFFFFFFFFFFFFFFFFFFFFFFFFFFFFFFFFFFFFFFFFFFF0000FFFFFFFFFFFFFFFFFFFFFFFFFFFFFFFFFFFFFFFFFFFFFFFFFFFFFFFFFFFF0000FFFFFFFFFFFFFFFFFFFFFFFFFFFFFFFFFFFFFFFFFFFFFFFFFFFFFFFFFFFF0000FFFFFFFFFFFFFFFFFFFFFFFFFFFFFFFFFFFFFFFFFFFFFFFFFFFFFF
310
FFFFFF0000FFFFFFFFFFFFFFFFFFFFFFFFFFFFFFFFFFFFFFFFFFFFFFFFFFFFFFFFFFFF0000FFFFFFFFFFFFFFFFFFFFFFFFFFFFFFFFFFFFFFFFFFFFFFFFFFFFFFFFFFFF0000FFFFFFFFFFFFFFFFFFFFFFFFFFFFFFFFFFFFFFFFFFFFFFFFFFFFFFFFFFFF0000FFFFFFFFFFFFFFFFFFFFFFFFFFFFFFFFFFFFFFFFFFFFFFFFFFFF
310
FFFFFFFF0000FFFFFFFFFFFFFFFFFFFFFFFFFFFFFFFFFFFFFFFFFFFFFFFFFFFFFFFFFFFF0000FFFFFFFFFFFFFFFFFFFFFFFFFFFFFFFFFFFFFFFFFFFFFFFFFFFFFFFFFFFF0000FFFFFFFFFFFFFFFFFFFFFFFFFFFFFFFFFFFFFFFFFFFFFFFFFFFFFFFFFFFF0000FFFFFFFFFFFFFFFFFFFFFFFFFFFFFFFFFFFFFFFFFFFFFFFFFF
310
FFFFFFFFFF0000FFFFFFFFFFFFFFFFFFFFFFFFFFFFFFFFFFFFFFFFFFFFFFFFFFFFFFFFFFFF0000FFFFFFFFFFFFFFFFFFFFFFFFFFFFFFFFFFFFFFFFFFFFFFFFFFFFFFFFFFFF0000FFFFFFFFFFFFFFFFFFFFFFFFFFFFFFFFFFFFFFFFFFFFFFFFFFFFFFFFFFFF0000FFFFFFFFFFFFFFFFFFFFFFFFFFFFFFFFFFFFFFFFFFFFFFFF
310
FFFFFFFFFFFF0000FFFFFFFFFFFFFFFFFFFFFFFFFFFFFFFFFFFFFFFFFFFFFFFFFFFFFFFFFFFF0000FFFFFFFFFFFFFFFFFFFFFFFFFFFFFFFFFFFFFFFFFFFFFFFFFFFFFFFFFFFF0000FFFFFFFFFFFFFFFFFFFFFFFFFFFFFFFFFFFFFFFFFFFFFFFFFFFFFFFFFFFF0000FFFFFFFFFFFFFFFFFFFFFFFFFFFFFFFFFFFFFFFFFFFFFF
310
FFFFFFFFFFFFFF0000FFFFFFFFFFFFFFFFFFFFFFFFFFFFFFFFFFFFFFFFFFFFFFFFFFFFFFFFFFFFFFFFFFFFFFFFFFFFFFFFFFFFFFFFFFFFFF
102
{BLKREFS
331
38E
102
}
  0
BLOCK_RECORD
  5
378
330
1
100
AcDbSymbolTableRecord
100
AcDbBlockTableRecord
  2
AI9-BLK2
340
0
310
2800000020000000200000000100080000000000000400000000000000000000000000000000000000000000000080000080000000808000800000008000800080800000C0C0C000C0DCC000F0CAA6000020400000206000002080000020A0000020C0000020E00000400000004020000040400000406000004080000040A0
310
000040C0000040E00000600000006020000060400000606000006080000060A0000060C0000060E00000800000008020000080400000806000008080000080A0000080C0000080E00000A0000000A0200000A0400000A0600000A0800000A0A00000A0C00000A0E00000C0000000C0200000C0400000C0600000C0800000C0
310
A00000C0C00000C0E00000E0000000E0200000E0400000E0600000E0800000E0A00000E0C00000E0E00040000000400020004000400040006000400080004000A0004000C0004000E00040200000402020004020400040206000402080004020A0004020C0004020E000404000004040200040404000404060004040800040
310
40A0004040C0004040E00040600000406020004060400040606000406080004060A0004060C0004060E00040800000408020004080400040806000408080004080A0004080C0004080E00040A0000040A0200040A0400040A0600040A0800040A0A00040A0C00040A0E00040C0000040C0200040C0400040C0600040C08000
310
40C0A00040C0C00040C0E00040E0000040E0200040E0400040E0600040E0800040E0A00040E0C00040E0E00080000000800020008000400080006000800080008000A0008000C0008000E00080200000802020008020400080206000802080008020A0008020C0008020E00080400000804020008040400080406000804080
310
008040A0008040C0008040E00080600000806020008060400080606000806080008060A0008060C0008060E00080800000808020008080400080806000808080008080A0008080C0008080E00080A0000080A0200080A0400080A0600080A0800080A0A00080A0C00080A0E00080C0000080C0200080C0400080C0600080C0
310
800080C0A00080C0C00080C0E00080E0000080E0200080E0400080E0600080E0800080E0A00080E0C00080E0E000C0000000C0002000C0004000C0006000C0008000C000A000C000C000C000E000C0200000C0202000C0204000C0206000C0208000C020A000C020C000C020E000C0400000C0402000C0404000C0406000C0
310
408000C040A000C040C000C040E000C0600000C0602000C0604000C0606000C0608000C060A000C060C000C060E000C0800000C0802000C0804000C0806000C0808000C080A000C080C000C080E000C0A00000C0A02000C0A04000C0A06000C0A08000C0A0A000C0A0C000C0A0E000C0C00000C0C02000C0C04000C0C06000
310
C0C08000C0C0A000F0FBFF00A4A0A000808080000000FF0000FF000000FFFF00FF000000FF00FF00FFFF0000FFFFFF00FFFFFFFFFFFFFFFFFFFFFFFFFFFFFFFFFFFFFFFFFFFFFFFFFFFFFFFFFFFFFFFFFFFFFFFFFFFFFFFFFFFFFFFFFFFFFF0000FFFFFFFFFFFFFFFFFFFFFFFFFFFFFFFFFFFFFFFFFFFFFFFFFFFFFFFFFFFF
310
0000FFFFFFFFFFFFFFFFFFFFFFFFFFFFFFFFFFFFFFFFFFFFFFFFFFFFFFFFFFFF0000FFFFFFFFFFFFFFFFFFFFFFFFFFFFFFFFFFFFFFFFFFFFFFFFFFFFFFFFFF00FFFF00FFFFFFFFFFFFFFFFFFFFFFFFFFFFFFFFFFFFFFFFFFFFFFFFFFFFFFFF00FFFF00FFFFFFFFFFFFFFFFFFFFFFFFFFFFFFFFFFFFFFFFFFFFFFFFFFFFFFFF
310
00FF0000FFFFFFFFFFFFFFFFFFFFFFFFFFFFFFFFFFFFFFFFFFFFFFFFFFFFFFFF00FF0000FFFFFFFFFFFFFFFFFFFFFFFFFFFFFFFFFFFFFFFFFFFFFFFFFFFFFFFF00FF0000FFFFFFFFFFFFFFFFFFFFFFFFFFFFFFFFFFFFFFFFFFFFFFFFFFFFFFFF00000000FFFFFFFFFFFFFFFFFFFFFFFFFFFFFFFFFFFFFFFFFFFFFFFFFFFFFF
310
00FF00FF0000FFFFFFFFFFFFFFFFFFFFFFFFFFFFFFFFFFFFFFFFFFFFFFFFFFFF00FF00FF0000FFFFFFFFFFFFFFFFFFFFFFFFFFFFFFFFFFFFFFFFFFFFFFFFFFFF00FF00FF0000FFFFFFFFFFFFFFFFFFFFFFFFFFFFFFFFFFFFFFFFFFFFFFFFFFFF00FF00FF0000FFFFFFFFFFFFFFFFFFFFFFFFFFFFFFFFFFFFFFFFFFFFFFFFFF
310
FF00FF00FF0000FFFFFFFFFFFFFFFFFFFFFFFFFFFFFFFFFFFFFFFFFFFFFFFFFFFF0000FFFF0000FFFFFFFFFFFFFFFFFFFFFFFFFFFFFFFFFFFFFFFFFFFFFFFFFF00FF00FFFF00FF00FFFFFFFFFFFFFFFFFFFFFFFFFFFFFFFFFFFFFFFFFFFFFFFF00FF00FFFF00FF00FFFFFFFFFFFFFFFFFFFFFFFFFFFFFFFFFFFFFFFFFFFFFF
310
FF00FF00FFFFFF0000FFFFFFFFFFFFFFFFFFFFFFFFFFFFFFFFFFFFFFFFFFFFFFFF00FF00FFFFFF0000FFFFFFFFFFFFFFFFFFFFFFFFFFFFFFFFFFFFFFFFFFFFFFFF00FF00FFFFFF0000FFFFFFFFFFFFFFFFFFFFFFFFFFFFFFFFFFFFFFFFFFFFFFFF0000FFFFFFFF0000FFFFFFFFFFFFFFFFFFFFFFFFFFFFFFFFFFFFFFFFFFFF
310
FF00FF00FFFFFFFF00FF00FFFFFFFFFFFFFFFFFFFFFFFFFFFFFFFFFFFFFFFFFFFF00FF00FFFFFFFF00FF00FFFFFFFFFFFFFFFFFFFFFFFFFFFFFFFFFFFFFFFFFFFF00FF00FFFFFFFF00FF00FFFFFFFFFFFFFFFFFFFFFFFFFFFFFFFFFFFFFFFFFFFF00FF00FFFFFFFF00FF00FFFFFFFFFFFFFFFFFFFFFFFFFFFFFFFFFFFFFFFF
310
FFFF00FF00FFFFFFFFFF0000FFFFFFFFFFFFFFFFFFFFFFFFFFFFFFFFFFFFFFFFFFFF0000FFFFFFFFFFFF0000FFFFFFFFFFFFFFFFFFFFFFFFFFFFFFFFFFFFFFFFFF00FF00FFFFFFFFFFFF00FF00FFFFFFFFFFFFFFFFFFFFFFFFFFFFFFFFFFFFFFFF00FF00FFFFFFFFFFFF00FF00FFFFFFFFFFFFFFFFFFFFFFFFFFFFFFFFFFFF
310
FFFF000000FFFFFFFFFFFF000000FFFFFFFFFFFFFFFFFFFFFFFFFFFFFFFFFFFFFFFFFFFFFFFFFFFFFFFFFFFFFFFFFFFFFFFFFFFFFFFFFFFF
102
{BLKREFS
331
38F
102
}
  0
BLOCK_RECORD
  5
37D
330
1
100
AcDbSymbolTableRecord
100
AcDbBlockTableRecord
  2
AI9-BLK1
340
0
310
2800000020000000200000000100080000000000000400000000000000000000000000000000000000000000000080000080000000808000800000008000800080800000C0C0C000C0DCC000F0CAA6000020400000206000002080000020A0000020C0000020E00000400000004020000040400000406000004080000040A0
310
000040C0000040E00000600000006020000060400000606000006080000060A0000060C0000060E00000800000008020000080400000806000008080000080A0000080C0000080E00000A0000000A0200000A0400000A0600000A0800000A0A00000A0C00000A0E00000C0000000C0200000C0400000C0600000C0800000C0
310
A00000C0C00000C0E00000E0000000E0200000E0400000E0600000E0800000E0A00000E0C00000E0E00040000000400020004000400040006000400080004000A0004000C0004000E00040200000402020004020400040206000402080004020A0004020C0004020E000404000004040200040404000404060004040800040
310
40A0004040C0004040E00040600000406020004060400040606000406080004060A0004060C0004060E00040800000408020004080400040806000408080004080A0004080C0004080E00040A0000040A0200040A0400040A0600040A0800040A0A00040A0C00040A0E00040C0000040C0200040C0400040C0600040C08000
310
40C0A00040C0C00040C0E00040E0000040E0200040E0400040E0600040E0800040E0A00040E0C00040E0E00080000000800020008000400080006000800080008000A0008000C0008000E00080200000802020008020400080206000802080008020A0008020C0008020E00080400000804020008040400080406000804080
310
008040A0008040C0008040E00080600000806020008060400080606000806080008060A0008060C0008060E00080800000808020008080400080806000808080008080A0008080C0008080E00080A0000080A0200080A0400080A0600080A0800080A0A00080A0C00080A0E00080C0000080C0200080C0400080C0600080C0
310
800080C0A00080C0C00080C0E00080E0000080E0200080E0400080E0600080E0800080E0A00080E0C00080E0E000C0000000C0002000C0004000C0006000C0008000C000A000C000C000C000E000C0200000C0202000C0204000C0206000C0208000C020A000C020C000C020E000C0400000C0402000C0404000C0406000C0
310
408000C040A000C040C000C040E000C0600000C0602000C0604000C0606000C0608000C060A000C060C000C060E000C0800000C0802000C0804000C0806000C0808000C080A000C080C000C080E000C0A00000C0A02000C0A04000C0A06000C0A08000C0A0A000C0A0C000C0A0E000C0C00000C0C02000C0C04000C0C06000
310
C0C08000C0C0A000F0FBFF00A4A0A000808080000000FF0000FF000000FFFF00FF000000FF00FF00FFFF0000FFFFFF00FFFFFFFFFFFFFFFFFFFFFFFFFFFFFFFFFFFFFFFFFFFFFFFFFFFFFFFFFFFFFFFFFFFFFFFFFFFFFFFFFFFFFF00000000000000000000FFFFFFFFFFFFFFFFFFFFFFFFFFFFFFFFFFFFFFFFFFFF00FFFFFF
310
FFFFFFFFFF00FFFFFFFFFFFFFFFFFFFFFFFFFFFFFFFFFFFFFFFFFFFF00FFFFFFFFFFFFFFFF00FFFFFFFFFFFFFFFFFFFFFFFFFFFFFFFFFFFFFFFFFFFF00FFFFFFFFFFFFFFFF00FFFFFFFFFFFFFFFFFFFFFFFFFFFFFFFFFFFFFFFFFFFF00FF0000000000000000FFFFFFFFFFFFFFFFFFFFFFFFFFFFFFFFFFFFFFFFFFFF00FF00
310
FFFFFFFFFFFFFFFFFFFFFFFFFFFFFFFFFFFFFFFFFFFFFFFFFFFFFFFFFF00FF00FFFFFFFFFFFFFFFFFFFFFFFFFFFFFFFFFFFFFFFFFFFFFFFFFFFFFFFFFF00FF00FFFFFFFFFFFFFFFFFFFFFFFFFFFFFFFFFFFFFFFFFFFFFFFFFFFFFFFFFF00FF00FFFFFFFFFFFFFFFFFFFFFFFFFFFFFFFFFFFFFFFFFFFFFFFFFFFFFFFFFF00FF
310
00FFFFFFFFFFFFFFFFFFFFFFFFFFFFFFFFFFFFFFFFFFFFFFFFFFFFFFFFFF00FF00FFFFFFFFFFFFFFFFFFFFFFFFFFFFFFFFFFFFFFFFFFFFFFFFFFFFFFFFFF00FF00FFFFFFFFFFFFFFFFFFFFFFFFFFFFFFFFFFFFFFFFFFFFFFFFFFFFFFFFFF00FF00FFFFFFFFFFFFFFFFFFFFFFFFFFFFFFFFFFFFFFFFFFFFFFFFFFFFFFFFFF00
310
FF00000000000000FFFFFFFFFFFFFFFFFFFFFFFFFFFFFFFFFFFFFFFFFFFFFF00FFFFFFFFFFFFFF00FFFFFFFFFFFFFFFFFFFFFFFFFFFFFFFFFFFFFFFFFFFFFF00FFFFFFFFFFFFFF00FFFFFFFFFFFFFFFFFFFFFFFFFFFFFFFFFFFFFFFFFFFFFF00FFFFFFFFFFFFFF00FFFFFFFFFFFFFFFFFFFFFFFFFFFFFFFFFFFFFFFFFFFFFF
310
00FF00000000000000FFFFFFFFFFFFFFFFFFFFFFFFFFFFFFFFFFFFFFFFFFFFFF00FF00FFFFFFFFFFFFFFFFFFFFFFFFFFFFFFFFFFFFFFFFFFFFFFFFFFFFFFFFFF00FF00FFFFFFFFFFFFFFFFFFFFFFFFFFFFFFFFFFFFFFFFFFFFFFFFFFFFFFFFFF00FF00FFFFFFFFFFFFFFFFFFFFFFFFFFFFFFFFFFFFFFFFFFFFFFFFFFFFFFFF
310
FF00FF00FFFFFFFFFFFFFFFFFFFFFFFFFFFFFFFFFFFFFFFFFFFFFFFFFFFFFFFFFF00FF00FFFFFFFFFFFFFFFFFFFFFFFFFFFFFFFFFFFFFFFFFFFFFFFFFFFFFFFFFF00FF00FFFFFFFFFFFFFFFFFFFFFFFFFFFFFFFFFFFFFFFFFFFFFFFFFFFFFFFFFF00FF00FFFFFFFFFFFFFFFFFFFFFFFFFFFFFFFFFFFFFFFFFFFFFFFFFFFFFF
310
FFFF00FF0000000000000000FFFFFFFFFFFFFFFFFFFFFFFFFFFFFFFFFFFFFFFFFFFF00FFFFFFFFFFFFFFFF00FFFFFFFFFFFFFFFFFFFFFFFFFFFFFFFFFFFFFFFFFFFF00FFFFFFFFFFFFFFFF00FFFFFFFFFFFFFFFFFFFFFFFFFFFFFFFFFFFFFFFFFFFF00FFFFFFFFFFFFFFFF00FFFFFFFFFFFFFFFFFFFFFFFFFFFFFFFFFFFFFF
310
FFFFFF00000000000000000000FFFFFFFFFFFFFFFFFFFFFFFFFFFFFFFFFFFFFFFFFFFFFFFFFFFFFFFFFFFFFFFFFFFFFFFFFFFFFFFFFFFFFF
102
{BLKREFS
331
390
102
}
  0
BLOCK_RECORD
  5
382
330
1
100
AcDbSymbolTableRecord
100
AcDbBlockTableRecord
  2
HD_LLC_logo_OT5
340
0
310
2800000020000000200000000100080000000000000400000000000000000000000000000000000000000000000080000080000000808000800000008000800080800000C0C0C000C0DCC000F0CAA6000020400000206000002080000020A0000020C0000020E00000400000004020000040400000406000004080000040A0
310
000040C0000040E00000600000006020000060400000606000006080000060A0000060C0000060E00000800000008020000080400000806000008080000080A0000080C0000080E00000A0000000A0200000A0400000A0600000A0800000A0A00000A0C00000A0E00000C0000000C0200000C0400000C0600000C0800000C0
310
A00000C0C00000C0E00000E0000000E0200000E0400000E0600000E0800000E0A00000E0C00000E0E00040000000400020004000400040006000400080004000A0004000C0004000E00040200000402020004020400040206000402080004020A0004020C0004020E000404000004040200040404000404060004040800040
310
40A0004040C0004040E00040600000406020004060400040606000406080004060A0004060C0004060E00040800000408020004080400040806000408080004080A0004080C0004080E00040A0000040A0200040A0400040A0600040A0800040A0A00040A0C00040A0E00040C0000040C0200040C0400040C0600040C08000
310
40C0A00040C0C00040C0E00040E0000040E0200040E0400040E0600040E0800040E0A00040E0C00040E0E00080000000800020008000400080006000800080008000A0008000C0008000E00080200000802020008020400080206000802080008020A0008020C0008020E00080400000804020008040400080406000804080
310
008040A0008040C0008040E00080600000806020008060400080606000806080008060A0008060C0008060E00080800000808020008080400080806000808080008080A0008080C0008080E00080A0000080A0200080A0400080A0600080A0800080A0A00080A0C00080A0E00080C0000080C0200080C0400080C0600080C0
310
800080C0A00080C0C00080C0E00080E0000080E0200080E0400080E0600080E0800080E0A00080E0C00080E0E000C0000000C0002000C0004000C0006000C0008000C000A000C000C000C000E000C0200000C0202000C0204000C0206000C0208000C020A000C020C000C020E000C0400000C0402000C0404000C0406000C0
310
408000C040A000C040C000C040E000C0600000C0602000C0604000C0606000C0608000C060A000C060C000C060E000C0800000C0802000C0804000C0806000C0808000C080A000C080C000C080E000C0A00000C0A02000C0A04000C0A06000C0A08000C0A0A000C0A0C000C0A0E000C0C00000C0C02000C0C04000C0C06000
310
C0C08000C0C0A000F0FBFF00A4A0A000808080000000FF0000FF000000FFFF00FF000000FF00FF00FFFF0000FFFFFF00FFFFFFFFFFFFFFFFFFFFFFFFFFFFFFFFFFFFFFFFFFFFFFFFFFFFFFFFFFFFFFFFFFFFFFFFFFFFFFFFFFFFFFFFFFFFFFFFFFFFFFFFFFFFFFFFFFFFFFFFFFFFFFFFFFFFFFFFFFFFFFFFFFFFFFFFFFFFFF
310
FFFFFFFFFFFFFFFFFFFFFFFFFFFFFFFFFFFFFFFFFFFFFFFFFFFFFFFFFFFFFFFFFFFFFFFFFFFFFFFFFFFFFFFFFFFFFFFFFFFFFFFFFFFFFFFFFFFFFFFFFFFFFFFFFFFFFFFFFFFFFFFFFFFFFFFFFFFFFFFFFFFFFFFFFFFFFFFFFFFFFFFFFFFFFFFFFFFFFFFFFFFFFFFFFFFFFFFFFFFFFFFFFFFFFFFFFFFFFFFFFFFFFFFFFFFFFF
310
FFFFFFFFFFFFFFFFFFFFFFFFFFFFFFFFFFFFFFFFFFFFFFFFFFFFFFFFFFFFFFFFFFFFFFFFFFFFFFFFFFFFFFFFFFFFFFFFFFFFFFFFFFFFFFFFFFFFFFFFFFFFFFFFFFFFFFFFFFFFFFFFFFFFFFFFFFFFFFFFFFFFFFFFFFFFFFFFFFFFFFFFFFFFFFFFFFFFFFFFFFFFFFFFFFFFFFFFFFFFFFFFFFFFFFFFFFFFFFFFFFFFFFFFFFFFFF
310
FFFFFFFFFFFFFFFFFFFFFFFFFFFFFFFFFFFFFFFFFFFFFFFFFFFFFFFFFFFFFFFFFFFFFFFFFFFFFFFFFFFFFFFFFFFFFFFFFFFFFFFF0000000000000000000000000000000000000000000000000000000000FFFFFF0000000000000000000000000000000000FFFFFFFFFFFFFFFFFFFF0000FFFFFF0000000000000000000000
310
00000000000000FFFFFFFFFFFFFFFFFFFF0000FFFF000000000000000000000000000000000000FFFFFF00000000FFFFFF0000FFFF00FFFFFFFFFFFF00FFFFFF00FFFFFFFFFF00FFFFFF0000000000FFFF0000FFFF00FFFFFFFFFFFF00FFFFFF00FFFFFFFFFF00FFFFFF00FFFF0000FFFF0000FFFF00FFFFFFFFFFFF00FFFF
310
00FFFFFFFFFFFF00FFFFFF00FFFF0000FFFF0000FFFF0000000000FFFF00000000FFFFFF00000000FFFFFF00000000FFFFFF0000FFFFFFFFFFFF00FFFFFFFFFFFFFFFFFF00FFFFFFFFFFFFFFFFFFFFFFFFFF0000FFFFFFFFFFFF00FFFFFFFFFFFFFFFFFF00FFFFFFFFFFFFFFFFFFFFFFFFFF0000FFFFFFFFFFFF00FFFFFFFF
310
FFFFFFFFFF00FFFFFFFFFFFFFFFFFFFFFFFF0000FFFFFF0000000000FFFF00000000FFFFFF0000000000000000000000000000FFFFFFFF00FFFFFFFFFFFF00FFFF00FFFFFFFFFFFF00FFFFFFFFFFFFFFFFFFFFFFFFFFFF00FFFFFFFFFFFF00FFFFFF00FFFFFFFFFF00FFFFFFFFFFFFFFFFFFFFFFFFFFFF0000000000000000
310
FFFFFF00000000000000FFFFFFFFFFFFFFFFFFFFFFFFFFFFFFFFFFFFFFFFFFFFFFFFFFFFFFFFFFFFFFFFFFFFFFFFFFFFFFFFFFFFFFFFFFFFFFFFFFFFFFFFFFFFFFFFFFFFFFFFFFFFFFFFFFFFFFFFFFFFFFFFFFFFFFFFFFFFFFFFFFFFFFFFFFFFFFFFFFFFFFFFFFFFFFFFFFFFFFFFFFFFFFFFFFFFFFFFFFFFFFFFFFFFFFFFFF
310
FFFFFFFFFFFFFFFFFFFFFFFFFFFFFFFFFFFFFFFFFFFFFFFFFFFFFFFFFFFFFFFFFFFFFFFFFFFFFFFFFFFFFFFFFFFFFFFFFFFFFFFFFFFFFFFF
102
{BLKREFS
331
3A8
102
}
  0
BLOCK_RECORD
  5
3A7
330
1
100
AcDbSymbolTableRecord
100
AcDbBlockTableRecord
  2
HD logo-new
340
0
310
2800000020000000200000000100080000000000000400000000000000000000000000000000000000000000000080000080000000808000800000008000800080800000C0C0C000C0DCC000F0CAA6000020400000206000002080000020A0000020C0000020E00000400000004020000040400000406000004080000040A0
310
000040C0000040E00000600000006020000060400000606000006080000060A0000060C0000060E00000800000008020000080400000806000008080000080A0000080C0000080E00000A0000000A0200000A0400000A0600000A0800000A0A00000A0C00000A0E00000C0000000C0200000C0400000C0600000C0800000C0
310
A00000C0C00000C0E00000E0000000E0200000E0400000E0600000E0800000E0A00000E0C00000E0E00040000000400020004000400040006000400080004000A0004000C0004000E00040200000402020004020400040206000402080004020A0004020C0004020E000404000004040200040404000404060004040800040
310
40A0004040C0004040E00040600000406020004060400040606000406080004060A0004060C0004060E00040800000408020004080400040806000408080004080A0004080C0004080E00040A0000040A0200040A0400040A0600040A0800040A0A00040A0C00040A0E00040C0000040C0200040C0400040C0600040C08000
310
40C0A00040C0C00040C0E00040E0000040E0200040E0400040E0600040E0800040E0A00040E0C00040E0E00080000000800020008000400080006000800080008000A0008000C0008000E00080200000802020008020400080206000802080008020A0008020C0008020E00080400000804020008040400080406000804080
310
008040A0008040C0008040E00080600000806020008060400080606000806080008060A0008060C0008060E00080800000808020008080400080806000808080008080A0008080C0008080E00080A0000080A0200080A0400080A0600080A0800080A0A00080A0C00080A0E00080C0000080C0200080C0400080C0600080C0
310
800080C0A00080C0C00080C0E00080E0000080E0200080E0400080E0600080E0800080E0A00080E0C00080E0E000C0000000C0002000C0004000C0006000C0008000C000A000C000C000C000E000C0200000C0202000C0204000C0206000C0208000C020A000C020C000C020E000C0400000C0402000C0404000C0406000C0
310
408000C040A000C040C000C040E000C0600000C0602000C0604000C0606000C0608000C060A000C060C000C060E000C0800000C0802000C0804000C0806000C0808000C080A000C080C000C080E000C0A00000C0A02000C0A04000C0A06000C0A08000C0A0A000C0A0C000C0A0E000C0C00000C0C02000C0C04000C0C06000
310
C0C08000C0C0A000F0FBFF00A4A0A000808080000000FF0000FF000000FFFF00FF000000FF00FF00FFFF0000FFFFFF00FFFFFFFFFFFFFFFFFFFFFFFFFFFFFFFFFFFFFFFFFFFFFFFFFFFFFFFFFFFFFFFFFFFFFFFFFFFFFFFFFFFFFFFFFFFFFFFFFFFFFFFFFFFFFFFFFFFFFFFFFFFFFFFFFFFFFFFFFFFFFFFFFFFFFFFFFFFFFF
310
FFFFFFFFFFFFFFFFFFFFFFFFFFFFFFFFFFFFFFFFFFFFFFFFFFFFFFFFFFFFFFFFFFFFFFFFFFFFFFFFFFFFFFFFFFFFFFFFFFFFFFFFFFFFFFFFFFFFFFFFFFFFFFFFFFFFFFFFFFFFFFFFFFFFFFFFFFFFFFFFFFFFFFFFFFFFFFFFFFFFFFFFFFFFFFFFFFFFFFFFFFFFFFFFFFFFFFFFFFFFFFFFFFFFFFFFFFFFFFFFFFFFFFFFFFFFFF
310
FFFFFFFFFFFFFFFFFFFFFFFFFFFFFFFFFFFFFFFFFFFFFFFFFFFFFFFFFFFFFFFFFFFFFFFFFFFFFFFFFFFFFFFFFFFFFFFFFFFFFFFFFFFFFFFFFFFFFFFFFFFFFFFFFFFFFFFFFFFFFFFFFFFFFFFFFFFFFFFFFFFFFFFFFFFFFFFFFFFFFFFFFFFFFFFFFFFFFFFFFFFFFFFFFFFFFFFFFFFFFFFFFFFFFFFFFFFFFFFFFFFFFFFFFFFFFF
310
FFFFFFFFFFFFFFFFFFFFFFFFFFFFFFFFFFFFFFFFFFFFFFFFFFFFFFFFFFFFFFFFFFFFFFFFFFFFFFFFFFFFFFFFFFFFFFFFFFFFFFFF0000000000000000000000000000000000000000000000000000000000FFFFFF0000000000000000000000000000000000FFFFFFFFFFFFFFFFFFFF0000FFFFFF0000000000000000000000
310
00000000000000FFFFFFFFFFFFFFFFFFFF0000FFFF000000000000000000000000000000000000FFFFFF00000000FFFFFF0000FFFF00FFFFFFFFFFFF00FFFFFF00FFFFFFFFFF00FFFFFF0000000000FFFF0000FFFF00FFFFFFFFFFFF00FFFFFF00FFFFFFFFFF00FFFFFF00FFFF0000FFFF0000FFFF00FFFFFFFFFFFF00FFFF
310
00FFFFFFFFFFFF00FFFFFF00FFFF0000FFFF0000FFFF0000000000FFFF00000000FFFFFF00000000FFFFFF00000000FFFFFF0000FFFFFFFFFFFF00FFFFFFFFFFFFFFFFFF00FFFFFFFFFFFFFFFFFFFFFFFFFF0000FFFFFFFFFFFF00FFFFFFFFFFFFFFFFFF00FFFFFFFFFFFFFFFFFFFFFFFFFF0000FFFFFFFFFFFF00FFFFFFFF
310
FFFFFFFFFF00FFFFFFFFFFFFFFFFFFFFFFFF0000FFFFFF0000000000FFFF00000000FFFFFF0000000000000000000000000000FFFFFFFF00FFFFFFFFFFFF00FFFF00FFFFFFFFFFFF00FFFFFFFFFFFFFFFFFFFFFFFFFFFF00FFFFFFFFFFFF00FFFFFF00FFFFFFFFFF00FFFFFFFFFFFFFFFFFFFFFFFFFFFF0000000000000000
310
FFFFFF00000000000000FFFFFFFFFFFFFFFFFFFFFFFFFFFFFFFFFFFFFFFFFFFFFFFFFFFFFFFFFFFFFFFFFFFFFFFFFFFFFFFFFFFFFFFFFFFFFFFFFFFFFFFFFFFFFFFFFFFFFFFFFFFFFFFFFFFFFFFFFFFFFFFFFFFFFFFFFFFFFFFFFFFFFFFFFFFFFFFFFFFFFFFFFFFFFFFFFFFFFFFFFFFFFFFFFFFFFFFFFFFFFFFFFFFFFFFFFF
310
FFFFFFFFFFFFFFFFFFFFFFFFFFFFFFFFFFFFFFFFFFFFFFFFFFFFFFFFFFFFFFFFFFFFFFFFFFFFFFFFFFFFFFFFFFFFFFFFFFFFFFFFFFFFFFFF
102
{BLKREFS
331
3AC
102
}
  0
BLOCK_RECORD
  5
3AB
330
1
100
AcDbSymbolTableRecord
100
AcDbBlockTableRecord
  2
HD Logo
340
0
310
2800000020000000200000000100080000000000000400000000000000000000000000000000000000000000000080000080000000808000800000008000800080800000C0C0C000C0DCC000F0CAA6000020400000206000002080000020A0000020C0000020E00000400000004020000040400000406000004080000040A0
310
000040C0000040E00000600000006020000060400000606000006080000060A0000060C0000060E00000800000008020000080400000806000008080000080A0000080C0000080E00000A0000000A0200000A0400000A0600000A0800000A0A00000A0C00000A0E00000C0000000C0200000C0400000C0600000C0800000C0
310
A00000C0C00000C0E00000E0000000E0200000E0400000E0600000E0800000E0A00000E0C00000E0E00040000000400020004000400040006000400080004000A0004000C0004000E00040200000402020004020400040206000402080004020A0004020C0004020E000404000004040200040404000404060004040800040
310
40A0004040C0004040E00040600000406020004060400040606000406080004060A0004060C0004060E00040800000408020004080400040806000408080004080A0004080C0004080E00040A0000040A0200040A0400040A0600040A0800040A0A00040A0C00040A0E00040C0000040C0200040C0400040C0600040C08000
310
40C0A00040C0C00040C0E00040E0000040E0200040E0400040E0600040E0800040E0A00040E0C00040E0E00080000000800020008000400080006000800080008000A0008000C0008000E00080200000802020008020400080206000802080008020A0008020C0008020E00080400000804020008040400080406000804080
310
008040A0008040C0008040E00080600000806020008060400080606000806080008060A0008060C0008060E00080800000808020008080400080806000808080008080A0008080C0008080E00080A0000080A0200080A0400080A0600080A0800080A0A00080A0C00080A0E00080C0000080C0200080C0400080C0600080C0
310
800080C0A00080C0C00080C0E00080E0000080E0200080E0400080E0600080E0800080E0A00080E0C00080E0E000C0000000C0002000C0004000C0006000C0008000C000A000C000C000C000E000C0200000C0202000C0204000C0206000C0208000C020A000C020C000C020E000C0400000C0402000C0404000C0406000C0
310
408000C040A000C040C000C040E000C0600000C0602000C0604000C0606000C0608000C060A000C060C000C060E000C0800000C0802000C0804000C0806000C0808000C080A000C080C000C080E000C0A00000C0A02000C0A04000C0A06000C0A08000C0A0A000C0A0C000C0A0E000C0C00000C0C02000C0C04000C0C06000
310
C0C08000C0C0A000F0FBFF00A4A0A000808080000000FF0000FF000000FFFF00FF000000FF00FF00FFFF0000FFFFFF00FFFFFFFFFFFFFFFFFFFFFFFFFFFFFFFFFFFFFFFFFFFFFFFFFFFFFFFFFFFFFFFFFFFFFFFFFFFFFFFFFFFFFFFFFFFFFFFFFFFFFFFFFFFFFFFFFFFFFFFFFFFFFFFFFFFFFFFFFFFFFFFFFFFFFFFFFFFFFF
310
FFFFFFFFFFFFFFFFFFFFFFFFFFFFFFFFFFFFFFFFFFFFFFFFFFFFFFFFFFFFFFFFFFFFFFFFFFFFFFFFFFFFFFFFFFFFFFFFFFFFFFFFFFFFFFFFFFFFFFFFFFFFFFFFFFFFFFFFFFFFFFFFFFFFFFFFFFFFFFFFFFFFFFFFFFFFFFFFFFFFFFFFFFFFFFFFFFFFFFFFFFFFFFFFFFFFFFFFFFFFFFFFFFFFFFFFFFFFFFFFFFFFFFFFFFFFFF
310
FFFFFFFFFFFFFFFFFFFFFFFFFFFFFFFFFFFFFFFFFFFFFFFFFFFFFFFFFFFFFFFFFFFFFFFFFFFFFFFFFFFFFFFFFFFFFFFFFFFFFFFFFFFFFFFFFFFFFFFFFFFFFFFFFFFFFFFFFFFFFFFFFFFFFFFFFFFFFFFFFFFFFFFFFFFFFFFFFFFFFFFFFFFFFFFFFFFFFFFFFFFFFFFFFFFFFFFFFFFFFFFFFFFFFFFFFFFFFFFFFFFFFFFFFFFFFF
310
FFFFFFFFFFFFFFFFFFFFFFFFFFFFFFFFFFFFFFFFFFFFFFFFFFFFFFFFFFFFFFFFFFFFFFFFFFFFFFFFFFFFFFFFFFFFFFFFFFFFFFFF0000000000000000000000000000000000000000000000000000000000FFFFFF0000000000000000000000000000000000FFFFFFFFFFFFFFFFFFFF0000FFFFFF0000000000000000000000
310
00000000000000FFFFFFFFFFFFFFFFFFFF0000FFFF000000000000000000000000000000000000FFFFFF00000000FFFFFF0000FFFF00FFFFFFFFFFFF00FFFFFF00FFFFFFFFFF00FFFFFF0000000000FFFF0000FFFF00FFFFFFFFFFFF00FFFFFF00FFFFFFFFFF00FFFFFF00FFFF0000FFFF0000FFFF00FFFFFFFFFFFF00FFFF
310
00FFFFFFFFFFFF00FFFFFF00FFFF0000FFFF0000FFFF0000000000FFFF00000000FFFFFF00000000FFFFFF00000000FFFFFF0000FFFFFFFFFFFF00FFFFFFFFFFFFFFFFFF00FFFFFFFFFFFFFFFFFFFFFFFFFF0000FFFFFFFFFFFF00FFFFFFFFFFFFFFFFFF00FFFFFFFFFFFFFFFFFFFFFFFFFF0000FFFFFFFFFFFF00FFFFFFFF
310
FFFFFFFFFF00FFFFFFFFFFFFFFFFFFFFFFFF0000FFFFFF0000000000FFFF00000000FFFFFF0000000000000000000000000000FFFFFFFF00FFFFFFFFFFFF00FFFF00FFFFFFFFFFFF00FFFFFFFFFFFFFFFFFFFFFFFFFFFF00FFFFFFFFFFFF00FFFFFF00FFFFFFFFFF00FFFFFFFFFFFFFFFFFFFFFFFFFFFF0000000000000000
310
FFFFFF00000000000000FFFFFFFFFFFFFFFFFFFFFFFFFFFFFFFFFFFFFFFFFFFFFFFFFFFFFFFFFFFFFFFFFFFFFFFFFFFFFFFFFFFFFFFFFFFFFFFFFFFFFFFFFFFFFFFFFFFFFFFFFFFFFFFFFFFFFFFFFFFFFFFFFFFFFFFFFFFFFFFFFFFFFFFFFFFFFFFFFFFFFFFFFFFFFFFFFFFFFFFFFFFFFFFFFFFFFFFFFFFFFFFFFFFFFFFFFF
310
FFFFFFFFFFFFFFFFFFFFFFFFFFFFFFFFFFFFFFFFFFFFFFFFFFFFFFFFFFFFFFFFFFFFFFFFFFFFFFFFFFFFFFFFFFFFFFFFFFFFFFFFFFFFFFFF
102
{BLKREFS
331
3B1
331
3B5
102
}
  0
BLOCK_RECORD
  5
3B6
330
1
100
AcDbSymbolTableRecord
100
AcDbBlockTableRecord
  2
HD LLC
340
0
310
2800000020000000200000000100080000000000000400000000000000000000000000000000000000000000000080000080000000808000800000008000800080800000C0C0C000C0DCC000F0CAA6000020400000206000002080000020A0000020C0000020E00000400000004020000040400000406000004080000040A0
310
000040C0000040E00000600000006020000060400000606000006080000060A0000060C0000060E00000800000008020000080400000806000008080000080A0000080C0000080E00000A0000000A0200000A0400000A0600000A0800000A0A00000A0C00000A0E00000C0000000C0200000C0400000C0600000C0800000C0
310
A00000C0C00000C0E00000E0000000E0200000E0400000E0600000E0800000E0A00000E0C00000E0E00040000000400020004000400040006000400080004000A0004000C0004000E00040200000402020004020400040206000402080004020A0004020C0004020E000404000004040200040404000404060004040800040
310
40A0004040C0004040E00040600000406020004060400040606000406080004060A0004060C0004060E00040800000408020004080400040806000408080004080A0004080C0004080E00040A0000040A0200040A0400040A0600040A0800040A0A00040A0C00040A0E00040C0000040C0200040C0400040C0600040C08000
310
40C0A00040C0C00040C0E00040E0000040E0200040E0400040E0600040E0800040E0A00040E0C00040E0E00080000000800020008000400080006000800080008000A0008000C0008000E00080200000802020008020400080206000802080008020A0008020C0008020E00080400000804020008040400080406000804080
310
008040A0008040C0008040E00080600000806020008060400080606000806080008060A0008060C0008060E00080800000808020008080400080806000808080008080A0008080C0008080E00080A0000080A0200080A0400080A0600080A0800080A0A00080A0C00080A0E00080C0000080C0200080C0400080C0600080C0
310
800080C0A00080C0C00080C0E00080E0000080E0200080E0400080E0600080E0800080E0A00080E0C00080E0E000C0000000C0002000C0004000C0006000C0008000C000A000C000C000C000E000C0200000C0202000C0204000C0206000C0208000C020A000C020C000C020E000C0400000C0402000C0404000C0406000C0
310
408000C040A000C040C000C040E000C0600000C0602000C0604000C0606000C0608000C060A000C060C000C060E000C0800000C0802000C0804000C0806000C0808000C080A000C080C000C080E000C0A00000C0A02000C0A04000C0A06000C0A08000C0A0A000C0A0C000C0A0E000C0C00000C0C02000C0C04000C0C06000
310
C0C08000C0C0A000F0FBFF00A4A0A000808080000000FF0000FF000000FFFF00FF000000FF00FF00FFFF0000FFFFFF00FFFFFFFFFFFFFFFFFFFFFFFFFFFFFFFFFFFFFFFFFFFFFFFFFFFFFFFFFFFFFFFFFFFFFFFFFFFFFFFFFFFFFFFFFFFFFFFFFFFFFFFFFFFFFFFFFFFFFFFFFFFFFFFFFFFFFFFFFFFFFFFFFFFFFFFFFFFFFF
310
FFFFFFFFFFFFFFFFFFFFFFFFFFFFFFFFFFFFFFFFFFFFFFFFFFFFFFFFFFFFFFFFFFFFFFFFFFFFFFFFFFFFFFFFFFFFFFFFFFFFFFFFFFFFFFFFFFFFFFFFFFFFFFFFFFFFFFFFFFFFFFFFFFFFFFFFFFFFFFFFFFFFFFFFFFFFFFFFFFFFFFFFFFFFFFFFFFFFFFFFFFFFFFFFFFFFFFFFFFFFFFFFFFFFFFFFFFFFFFFFFFFFFFFFFFFFFF
310
FFFFFFFFFFFFFFFFFFFFFFFFFFFFFFFFFFFFFFFFFFFFFFFFFFFFFFFFFFFFFFFFFFFFFFFFFFFFFFFFFFFFFFFFFFFFFFFFFFFFFFFFFFFFFFFFFFFFFFFFFFFFFFFFFFFFFFFFFFFFFFFFFFFFFFFFFFFFFFFFFFFFFFFFFFFFFFFFFFFFFFFFFFFFFFFFFFFFFFFFFFFFFFFFFFFFFFFFFFFFFFFFFFFFFFFFFFFFFFFFFFFFFFFFFFFFFF
310
FFFFFFFFFFFFFFFFFFFFFFFFFFFFFFFFFFFFFFFFFFFFFFFFFFFFFFFFFFFFFFFFFFFFFFFFFFFFFFFFFFFFFFFFFFFFFFFFFFFFFFFFFFFFFFFFFFFFFFFFFFFFFFFFFFFFFFFFFFFFFFFFFFFFFFFFFFFFFFFFFFFFFFFFFFFFFFFFFFFFFFFFFFFFFFFFFFFFFFFFFFFFFFFFFFFFFFFFFFFFFFFFFFFFFFFFFFFFFFFFFFFFFFFFFFFF00
310
000000000000000000FFFFFFFFFFFFFFFFFFFFFFFFFFFFFFFFFFFFFFFFFFFF00000000000000000000FFFFFFFFFFFFFFFFFFFFFFFFFFFFFFFFFFFFFFFFFFFF00000000000000000000FFFFFFFFFFFFFFFFFFFFFFFFFFFFFFFFFFFFFFFFFFFF00000000000000000000FFFFFFFFFFFFFFFFFFFFFFFFFFFFFFFFFFFFFFFFFFFF
310
FFFFFFFFFFFFFFFFFFFFFFFFFFFFFFFFFFFFFFFFFFFFFFFFFFFFFFFFFFFFFFFFFFFFFFFFFFFFFFFFFFFFFFFFFFFFFFFFFFFFFFFFFFFFFFFFFFFFFFFFFFFFFFFFFFFFFFFFFFFFFFFFFFFFFFFFFFFFFFFFFFFFFFFFFFFFFFFFFFFFFFFFFFFFFFFFFFFFFFFFFFFFFFFFFFFFFFFFFFFFFFFFFFFFFFFFFFFFFFFFFFFFFFFFFFFFFF
310
FFFFFFFFFFFFFFFFFFFFFFFFFFFFFFFFFFFFFFFFFFFFFFFFFFFFFFFFFFFFFFFFFFFFFFFFFFFFFFFFFFFFFFFFFFFFFFFFFFFFFFFFFFFFFFFFFFFFFFFFFFFFFFFFFFFFFFFFFFFFFFFFFFFFFFFFFFFFFFFFFFFFFFFFFFFFFFFFFFFFFFFFFFFFFFFFFFFFFFFFFFFFFFFFFFFFFFFFFFFFFFFFFFFFFFFFFFFFFFFFFFFFFFFFFFFFFF
310
FFFFFFFFFFFFFFFFFFFFFFFFFFFFFFFFFFFFFFFFFFFFFFFFFFFFFFFFFFFFFFFFFFFFFFFFFFFFFFFFFFFFFFFFFFFFFFFFFFFFFFFFFFFFFFFFFFFFFFFFFFFFFFFFFFFFFFFFFFFFFFFFFFFFFFFFFFFFFFFFFFFFFFFFFFFFFFFFFFFFFFFFFFFFFFFFFFFFFFFFFFFFFFFFFFFFFFFFFFFFFFFFFFFFFFFFFFFFFFFFFFFFFFFFFFFFFF
310
FFFFFFFFFFFFFFFFFFFFFFFFFFFFFFFFFFFFFFFFFFFFFFFFFFFFFFFFFFFFFFFFFFFFFFFFFFFFFFFFFFFFFFFFFFFFFFFFFFFFFFFFFFFFFFFF
102
{BLKREFS
331
3BB
331
3BF
102
}
  0
BLOCK_RECORD
  5
3C9
330
1
100
AcDbSymbolTableRecord
100
AcDbBlockTableRecord
  2
NTC
340
0
310
2800000020000000200000000100080000000000000400000000000000000000000000000000000000000000000080000080000000808000800000008000800080800000C0C0C000C0DCC000F0CAA6000020400000206000002080000020A0000020C0000020E00000400000004020000040400000406000004080000040A0
310
000040C0000040E00000600000006020000060400000606000006080000060A0000060C0000060E00000800000008020000080400000806000008080000080A0000080C0000080E00000A0000000A0200000A0400000A0600000A0800000A0A00000A0C00000A0E00000C0000000C0200000C0400000C0600000C0800000C0
310
A00000C0C00000C0E00000E0000000E0200000E0400000E0600000E0800000E0A00000E0C00000E0E00040000000400020004000400040006000400080004000A0004000C0004000E00040200000402020004020400040206000402080004020A0004020C0004020E000404000004040200040404000404060004040800040
310
40A0004040C0004040E00040600000406020004060400040606000406080004060A0004060C0004060E00040800000408020004080400040806000408080004080A0004080C0004080E00040A0000040A0200040A0400040A0600040A0800040A0A00040A0C00040A0E00040C0000040C0200040C0400040C0600040C08000
310
40C0A00040C0C00040C0E00040E0000040E0200040E0400040E0600040E0800040E0A00040E0C00040E0E00080000000800020008000400080006000800080008000A0008000C0008000E00080200000802020008020400080206000802080008020A0008020C0008020E00080400000804020008040400080406000804080
310
008040A0008040C0008040E00080600000806020008060400080606000806080008060A0008060C0008060E00080800000808020008080400080806000808080008080A0008080C0008080E00080A0000080A0200080A0400080A0600080A0800080A0A00080A0C00080A0E00080C0000080C0200080C0400080C0600080C0
310
800080C0A00080C0C00080C0E00080E0000080E0200080E0400080E0600080E0800080E0A00080E0C00080E0E000C0000000C0002000C0004000C0006000C0008000C000A000C000C000C000E000C0200000C0202000C0204000C0206000C0208000C020A000C020C000C020E000C0400000C0402000C0404000C0406000C0
310
408000C040A000C040C000C040E000C0600000C0602000C0604000C0606000C0608000C060A000C060C000C060E000C0800000C0802000C0804000C0806000C0808000C080A000C080C000C080E000C0A00000C0A02000C0A04000C0A06000C0A08000C0A0A000C0A0C000C0A0E000C0C00000C0C02000C0C04000C0C06000
310
C0C08000C0C0A000F0FBFF00A4A0A000808080000000FF0000FF000000FFFF00FF000000FF00FF00FFFF0000FFFFFF00FFFFFFFFFFFFFFFFFFFFFFFFFFFFFFFFFFFFFFFFFFFFFFFFFFFFFFFFFFFFFFFFFFFFFFFFFFFFFFFFFFFFFFFFFFFFFFFFFFFFFFFFFFFFFFFFFFFFFFFFFFFFFFFFFFFFFFFFFFFFFFFFFFFFFFFFFFFFFF
310
FFFFFFFFFFFFFFFFFFFFFFFFFFFFFFFFFFFFFFFFFFFFFFFFFFFFFFFFFFFFFFFFFFFFFFFFFFFFFFFFFFFFFFFFFFFFFFFFFFFFFFFFFFFFFFFFFFFFFFFFFFFFFFFFFFFFFFFFFFFFFFFFFFFFFFFFFFFFFFFFFFFFFFFFFFFFFFFFFFFFFFFFFFFFFFFFFFFFFFFFFFFFFFFFFFFFFFFFFFFFFFFFFFFFFFFFFFFFFFFFFFFFFFFFFFFFFF
310
FFFFFFFFFFFFFFFFFFFFFFFFFFFFFFFFFFFFFFFFFFFFFFFFFFFFFFFFFFFFFFFFFFFFFFFFFFFFFFFFFFFFFFFFFFFFFFFFFFFFFFFFFFFFFFFFFFFFFFFFFFFFFFFFFFFFFFFFFFFFFFFFFFFFFFFFFFFFFFFFFFFFFFFFFFFFFFFFFFFFFFFFFFFFFFFFFFFFFFFFFFFFFFFFFFFFFFFFFFFFFFFFFFFFFFFFFFFFFFFFFFFFFFFFFFFFFF
310
FFFFFFFFFFFFFFFFFFFFFFFFFFFFFFFFFFFFFFFF000000000000000000000000000000000000000000000000000000000000FFFF00FF0000000000000000FFFFFFFFFFFFFFFFFFFFFFFFFFFFFFFFFFFFFF00FFFF00FF0000000000000000FFFFFFFFFFFFFFFFFFFFFFFFFFFFFFFFFFFFFF00FFFF00FF000000000000000000
310
00000000000000000000000000FFFFFFFFFF00FFFF00FF0000000000000000000000000000000000000000000000000000FF00FFFF00FF0000000000000000000000000000000000000000000000000000FF00FFFF00FF0000000000000000000000000000000000000000000000000000FF00FFFF00FF0000000000000000
310
00000000000000000000000000000000FFFFFF00FFFF00FF0000000000FFFFFFFFFFFFFFFFFFFFFFFFFFFFFFFFFFFFFFFFFFFF00FFFF000000000000000000000000000000000000000000000000000000000000FFFFFFFFFFFFFFFFFFFFFFFFFFFFFFFFFFFFFFFFFFFFFFFFFFFFFFFFFFFFFFFFFFFFFFFFFFFFFFFFFFFFFF
310
FFFFFFFFFFFFFFFFFFFFFFFFFFFFFFFFFFFFFFFFFFFFFFFFFFFFFFFFFFFFFFFFFFFFFFFFFFFFFFFFFFFFFFFFFFFFFFFFFFFFFFFFFFFFFFFFFFFFFFFFFFFFFFFFFFFFFFFFFFFFFFFFFFFFFFFFFFFFFFFFFFFFFFFFFFFFFFFFFFFFFFFFFFFFFFFFFFFFFFFFFFFFFFFFFFFFFFFFFFFFFFFFFFFFFFFFFFFFFFFFFFFFFFFFFFFFFF
310
FFFFFFFFFFFFFFFFFFFFFFFFFFFFFFFFFFFFFFFFFFFFFFFFFFFFFFFFFFFFFFFFFFFFFFFFFFFFFFFFFFFFFFFFFFFFFFFFFFFFFFFFFFFFFFFFFFFFFFFFFFFFFFFFFFFFFFFFFFFFFFFFFFFFFFFFFFFFFFFFFFFFFFFFFFFFFFFFFFFFFFFFFFFFFFFFFFFFFFFFFFFFFFFFFFFFFFFFFFFFFFFFFFFFFFFFFFFFFFFFFFFFFFFFFFFFFF
310
FFFFFFFFFFFFFFFFFFFFFFFFFFFFFFFFFFFFFFFFFFFFFFFFFFFFFFFFFFFFFFFFFFFFFFFFFFFFFFFFFFFFFFFFFFFFFFFFFFFFFFFFFFFFFFFF
102
{BLKREFS
331
3CF
331
3D4
102
}
  0
ENDTAB
  0
ENDSEC
  0
SECTION
  2
BLOCKS
  0
BLOCK
  5
1F
330
1E
100
AcDbEntity
  8
0
100
AcDbBlockBegin
  2
*Model_Space
 70
     0
 10
0.0
 20
0.0
 30
0.0
  3
*Model_Space
  1

  0
ENDBLK
  5
20
330
1E
100
AcDbEntity
  8
0
100
AcDbBlockEnd
  0
BLOCK
  5
1B
330
1A
100
AcDbEntity
 67
     1
  8
0
100
AcDbBlockBegin
  2
*Paper_Space
 70
     0
 10
0.0
 20
0.0
 30
0.0
  3
*Paper_Space
  1

  0
ENDBLK
  5
1C
330
1A
100
AcDbEntity
 67
     1
  8
0
100
AcDbBlockEnd
  0
BLOCK
  5
346
330
343
100
AcDbEntity
  8
0
 62
     7
100
AcDbBlockBegin
  2
AI9-BLK14
 70
     0
 10
0.0
 20
0.0
 30
0.0
  3
AI9-BLK14
  1

  0
SPLINE
  5
344
330
343
100
AcDbEntity
  8
LAYER_1
 62
     7
100
AcDbSpline
210
0.0
220
0.0
230
1.0
 70
    11
 71
     3
 72
    23
 73
    19
 74
     0
 42
0.0000000001
 43
0.0000000001
 40
0.0
 40
0.0
 40
0.0
 40
0.0
 40
1.0
 40
1.0
 40
1.0
 40
2.0
 40
2.0
 40
2.0
 40
3.0
 40
3.0
 40
3.0
 40
4.0
 40
4.0
 40
4.0
 40
5.0
 40
5.0
 40
5.0
 40
6.0
 40
6.0
 40
6.0
 40
6.0
 10
-10.90321044921874
 20
10.88107571072048
 30
0.0
 10
-10.90321044921874
 20
10.88107571072048
 30
0.0
 10
-10.90321044921874
 20
-10.88107571072048
 30
0.0
 10
-10.90321044921874
 20
-10.88107571072048
 30
0.0
 10
-10.90321044921874
 20
-10.88107571072048
 30
0.0
 10
1.752692328559025
 20
-10.88107571072048
 30
0.0
 10
1.752692328559025
 20
-10.88107571072048
 30
0.0
 10
3.280592176649305
 20
-10.88107571072048
 30
0.0
 10
10.90321044921874
 20
-10.32383151584201
 30
0.0
 10
10.90321044921874
 20
0.6792867024739583
 30
0.0
 10
10.90321044921874
 20
10.61700914171006
 30
0.0
 10
2.773129611545138
 20
10.87952541775172
 30
0.0
 10
2.691136338975693
 20
10.88090345594618
 30
0.0
 10
2.691136338975693
 20
10.88090345594618
 30
0.0
 10
-9.903099229600693
 20
10.88107571072048
 30
0.0
 10
-9.903099229600693
 20
10.88107571072048
 30
0.0
 10
-9.903099229600693
 20
10.88107571072048
 30
0.0
 10
-10.90321044921874
 20
10.88107571072048
 30
0.0
 10
-10.90321044921874
 20
10.88107571072048
 30
0.0
  0
SPLINE
  5
345
330
343
100
AcDbEntity
  8
LAYER_1
 62
     7
100
AcDbSpline
210
0.0
220
0.0
230
1.0
 70
    11
 71
     3
 72
    20
 73
    16
 74
     0
 42
0.0000000001
 43
0.0000000001
 40
0.0
 40
0.0
 40
0.0
 40
0.0
 40
1.0
 40
1.0
 40
1.0
 40
2.0
 40
2.0
 40
2.0
 40
3.0
 40
3.0
 40
3.0
 40
4.0
 40
4.0
 40
4.0
 40
5.0
 40
5.0
 40
5.0
 40
5.0
 10
2.672877332899305
 20
8.881197781032986
 30
0.0
 10
2.905421278211805
 20
8.874307590060762
 30
0.0
 10
8.902988009982637
 20
8.616442192925347
 30
0.0
 10
8.902988009982637
 20
0.6792867024739583
 30
0.0
 10
8.902988009982637
 20
-8.191661919487842
 30
0.0
 10
3.430109320746526
 20
-8.881197781032986
 30
0.0
 10
1.752692328559025
 20
-8.881197781032986
 30
0.0
 10
1.752692328559025
 20
-8.881197781032986
 30
0.0
 10
-7.231427680121528
 20
-8.881197781032986
 30
0.0
 10
-8.902988009982637
 20
-8.881197781032986
 30
0.0
 10
-8.902988009982637
 20
-7.174497477213541
 30
0.0
 10
-8.902988009982637
 20
7.174497477213541
 30
0.0
 10
-8.902988009982637
 20
8.881197781032986
 30
0.0
 10
-7.208690049913191
 20
8.881197781032986
 30
0.0
 10
2.672877332899305
 20
8.881197781032986
 30
0.0
 10
2.672877332899305
 20
8.881197781032986
 30
0.0
  0
ENDBLK
  5
347
330
343
100
AcDbEntity
  8
0
100
AcDbBlockEnd
  0
BLOCK
  5
34B
330
348
100
AcDbEntity
  8
0
 62
     7
100
AcDbBlockBegin
  2
AI9-BLK13
 70
     0
 10
0.0
 20
0.0
 30
0.0
  3
AI9-BLK13
  1

  0
LWPOLYLINE
  5
349
330
348
100
AcDbEntity
  8
LAYER_1
 62
     7
100
AcDbPolyline
 90
       12
 70
     1
 43
0.0
 10
-3.792361111111107
 20
10.7376736111111
 10
-2.469444444444443
 20
10.7376736111111
 10
-2.469444444444443
 20
1.874131944444444
 10
2.469444444444443
 20
1.874131944444444
 10
2.469444444444443
 20
10.7376736111111
 10
3.792361111111107
 20
10.7376736111111
 10
3.792361111111107
 20
-10.7376736111111
 10
2.469444444444443
 20
-10.7376736111111
 10
2.469444444444443
 20
-0.6835069444444444
 10
-2.469444444444443
 20
-0.6835069444444444
 10
-2.469444444444443
 20
-10.7376736111111
 10
-3.792361111111107
 20
-10.7376736111111
  0
HATCH
  5
34A
330
348
100
AcDbEntity
  8
LAYER_1
 62
     7
100
AcDbHatch
 10
0.0
 20
0.0
 30
0.0
210
0.0
220
0.0
230
1.0
  2
SOLID
 70
     1
 71
     0
 91
        1
 92
        3
 72
     0
 73
     1
 93
       12
 10
-3.792361111111107
 20
10.7376736111111
 10
-2.469444444444443
 20
10.7376736111111
 10
-2.469444444444443
 20
1.874131944444444
 10
2.469444444444443
 20
1.874131944444444
 10
2.469444444444443
 20
10.7376736111111
 10
3.792361111111107
 20
10.7376736111111
 10
3.792361111111107
 20
-10.7376736111111
 10
2.469444444444443
 20
-10.7376736111111
 10
2.469444444444443
 20
-0.6835069444444444
 10
-2.469444444444443
 20
-0.6835069444444444
 10
-2.469444444444443
 20
-10.7376736111111
 10
-3.792361111111107
 20
-10.7376736111111
 97
        0
 75
     2
 76
     1
 98
        1
 10
0.0
 20
0.0
  0
ENDBLK
  5
34C
330
348
100
AcDbEntity
  8
0
100
AcDbBlockEnd
  0
BLOCK
  5
350
330
34D
100
AcDbEntity
  8
0
 62
     7
100
AcDbBlockBegin
  2
AI9-BLK11
 70
     0
 10
0.0
 20
0.0
 30
0.0
  3
AI9-BLK11
  1

  0
SPLINE
  5
34E
330
34D
100
AcDbEntity
  8
LAYER_1
 62
     7
100
AcDbSpline
210
0.0
220
0.0
230
1.0
 70
    11
 71
     3
 72
    26
 73
    22
 74
     0
 42
0.0000000001
 43
0.0000000001
 40
0.0
 40
0.0
 40
0.0
 40
0.0
 40
1.0
 40
1.0
 40
1.0
 40
2.0
 40
2.0
 40
2.0
 40
3.0
 40
3.0
 40
3.0
 40
4.0
 40
4.0
 40
4.0
 40
5.0
 40
5.0
 40
5.0
 40
6.0
 40
6.0
 40
6.0
 40
7.0
 40
7.0
 40
7.0
 40
7.0
 10
-2.645833333333333
 20
0.9039930555555551
 30
0.0
 10
-2.645833333333333
 20
0.9039930555555551
 30
0.0
 10
-2.645833333333333
 20
8.180034722222217
 30
0.0
 10
-2.645833333333333
 20
8.180034722222217
 30
0.0
 10
-2.645833333333333
 20
8.180034722222217
 30
0.0
 10
0.465087890625
 20
8.180034722222217
 30
0.0
 10
0.465087890625
 20
8.180034722222217
 30
0.0
 10
0.9026150173611108
 20
8.180034722222217
 30
0.0
 10
1.24988064236111
 20
8.034651692708331
 30
0.0
 10
1.506884765625
 20
7.745263671874997
 30
0.0
 10
2.001600477430554
 20
7.194048394097221
 30
0.0
 10
2.248958333333332
 20
6.160519748263887
 30
0.0
 10
2.248958333333332
 20
4.643299696180553
 30
0.0
 10
2.248958333333332
 20
3.232188585069443
 30
0.0
 10
2.072569444444444
 20
2.256537543402775
 30
0.0
 10
1.720480685763888
 20
1.715657552083333
 30
0.0
 10
1.368391927083333
 20
1.174088541666665
 30
0.0
 10
0.8929687499999998
 20
0.9039930555555551
 30
0.0
 10
0.2942111545138888
 20
0.9039930555555551
 30
0.0
 10
0.2942111545138888
 20
0.9039930555555551
 30
0.0
 10
-2.645833333333333
 20
0.9039930555555551
 30
0.0
 10
-2.645833333333333
 20
0.9039930555555551
 30
0.0
  0
SPLINE
  5
34F
330
34D
100
AcDbEntity
  8
LAYER_1
 62
     7
100
AcDbSpline
210
0.0
220
0.0
230
1.0
 70
    11
 71
     3
 72
    68
 73
    64
 74
     0
 42
0.0000000001
 43
0.0000000001
 40
0.0
 40
0.0
 40
0.0
 40
0.0
 40
1.0
 40
1.0
 40
1.0
 40
2.0
 40
2.0
 40
2.0
 40
3.0
 40
3.0
 40
3.0
 40
4.0
 40
4.0
 40
4.0
 40
5.0
 40
5.0
 40
5.0
 40
6.0
 40
6.0
 40
6.0
 40
7.0
 40
7.0
 40
7.0
 40
8.0
 40
8.0
 40
8.0
 40
9.0
 40
9.0
 40
9.0
 40
10.0
 40
10.0
 40
10.0
 40
11.0
 40
11.0
 40
11.0
 40
12.0
 40
12.0
 40
12.0
 40
13.0
 40
13.0
 40
13.0
 40
14.0
 40
14.0
 40
14.0
 40
15.0
 40
15.0
 40
15.0
 40
16.0
 40
16.0
 40
16.0
 40
17.0
 40
17.0
 40
17.0
 40
18.0
 40
18.0
 40
18.0
 40
19.0
 40
19.0
 40
19.0
 40
20.0
 40
20.0
 40
20.0
 40
21.0
 40
21.0
 40
21.0
 40
21.0
 10
-3.968749999999998
 20
-10.7376736111111
 30
0.0
 10
-3.968749999999998
 20
-10.7376736111111
 30
0.0
 10
-2.645833333333333
 20
-10.7376736111111
 30
0.0
 10
-2.645833333333333
 20
-10.7376736111111
 30
0.0
 10
-2.645833333333333
 20
-10.7376736111111
 30
0.0
 10
-2.645833333333333
 20
-1.521354166666665
 30
0.0
 10
-2.645833333333333
 20
-1.521354166666665
 30
0.0
 10
-2.645833333333333
 20
-1.521354166666665
 30
0.0
 10
0.2390896267361111
 20
-1.521354166666665
 30
0.0
 10
0.2390896267361111
 20
-1.521354166666665
 30
0.0
 10
0.7599880642361111
 20
-1.521354166666665
 30
0.0
 10
1.143771701388887
 20
-1.65295681423611
 30
0.0
 10
1.390440538194444
 20
-1.916162109374999
 30
0.0
 10
1.816254340277773
 20
-2.39434136284722
 30
0.0
 10
2.04363064236111
 20
-3.335541449652775
 30
0.0
 10
2.072569444444444
 20
-4.739762369791666
 30
0.0
 10
2.072569444444444
 20
-4.739762369791666
 30
0.0
 10
2.160763888888888
 20
-8.324039713541665
 30
0.0
 10
2.160763888888888
 20
-8.324039713541665
 30
0.0
 10
2.18005642361111
 20
-9.163264973958332
 30
0.0
 10
2.202794053819443
 20
-9.728949652777775
 30
0.0
 10
2.227598741319444
 20
-10.02109374999998
 30
0.0
 10
2.252403428819443
 20
-10.31392686631944
 30
0.0
 10
2.28892144097222
 20
-10.55301649305555
 30
0.0
 10
2.33853081597222
 20
-10.7376736111111
 30
0.0
 10
2.33853081597222
 20
-10.7376736111111
 30
0.0
 10
3.968749999999998
 20
-10.7376736111111
 30
0.0
 10
3.968749999999998
 20
-10.7376736111111
 30
0.0
 10
3.968749999999998
 20
-10.7376736111111
 30
0.0
 10
3.968749999999998
 20
-10.25260416666666
 30
0.0
 10
3.968749999999998
 20
-10.25260416666666
 30
0.0
 10
3.766867404513888
 20
-10.05830078125
 30
0.0
 10
3.625618489583333
 20
-9.621462673611112
 30
0.0
 10
3.545692274305555
 20
-8.942089843749997
 30
0.0
 10
3.49470486111111
 20
-8.543836805555555
 30
0.0
 10
3.459564887152775
 20
-7.937499999999999
 30
0.0
 10
3.439583333333333
 20
-7.121701388888887
 30
0.0
 10
3.439583333333333
 20
-7.121701388888887
 30
0.0
 10
3.395486111111106
 20
-4.232644314236106
 30
0.0
 10
3.395486111111106
 20
-4.232644314236106
 30
0.0
 10
3.375504557291666
 20
-2.981385633680555
 30
0.0
 10
3.26870659722222
 20
-2.077392578125
 30
0.0
 10
3.075781249999999
 20
-1.522043185763888
 30
0.0
 10
2.882166883680555
 20
-0.9666937934027776
 30
0.0
 10
2.592089843749999
 20
-0.5188313802083333
 30
0.0
 10
2.204861111111104
 20
-0.1770779079861111
 30
0.0
 10
2.63618706597222
 20
0.3197048611111111
 30
0.0
 10
2.971739366319443
 20
0.9770290798611107
 30
0.0
 10
3.211518012152775
 20
1.79558376736111
 30
0.0
 10
3.451296657986107
 20
2.613449435763888
 30
0.0
 10
3.571874999999999
 20
3.66558159722222
 30
0.0
 10
3.571874999999999
 20
4.951291232638888
 30
0.0
 10
3.571874999999999
 20
7.415912543402777
 30
0.0
 10
3.124701605902775
 20
9.106076388888887
 30
0.0
 10
2.231043836805555
 20
10.02178276909722
 30
0.0
 10
1.759754774305553
 20
10.498583984375
 30
0.0
 10
1.163753255208332
 20
10.7376736111111
 30
0.0
 10
0.443039279513889
 20
10.7376736111111
 30
0.0
 10
0.443039279513889
 20
10.7376736111111
 30
0.0
 10
-3.968749999999998
 20
10.7376736111111
 30
0.0
 10
-3.968749999999998
 20
10.7376736111111
 30
0.0
 10
-3.968749999999998
 20
10.7376736111111
 30
0.0
 10
-3.968749999999998
 20
-10.7376736111111
 30
0.0
 10
-3.968749999999998
 20
-10.7376736111111
 30
0.0
  0
ENDBLK
  5
351
330
34D
100
AcDbEntity
  8
0
100
AcDbBlockEnd
  0
BLOCK
  5
354
330
352
100
AcDbEntity
  8
0
 62
     7
100
AcDbBlockBegin
  2
AI9-BLK10
 70
     0
 10
0.0
 20
0.0
 30
0.0
  3
AI9-BLK10
  1

  0
SPLINE
  5
353
330
352
100
AcDbEntity
  8
LAYER_1
 62
     7
100
AcDbSpline
210
0.0
220
0.0
230
1.0
 70
    11
 71
     3
 72
    59
 73
    55
 74
     0
 42
0.0000000001
 43
0.0000000001
 40
0.0
 40
0.0
 40
0.0
 40
0.0
 40
1.0
 40
1.0
 40
1.0
 40
2.0
 40
2.0
 40
2.0
 40
3.0
 40
3.0
 40
3.0
 40
4.0
 40
4.0
 40
4.0
 40
5.0
 40
5.0
 40
5.0
 40
6.0
 40
6.0
 40
6.0
 40
7.0
 40
7.0
 40
7.0
 40
8.0
 40
8.0
 40
8.0
 40
9.0
 40
9.0
 40
9.0
 40
10.0
 40
10.0
 40
10.0
 40
11.0
 40
11.0
 40
11.0
 40
12.0
 40
12.0
 40
12.0
 40
13.0
 40
13.0
 40
13.0
 40
14.0
 40
14.0
 40
14.0
 40
15.0
 40
15.0
 40
15.0
 40
16.0
 40
16.0
 40
16.0
 40
17.0
 40
17.0
 40
17.0
 40
18.0
 40
18.0
 40
18.0
 40
18.0
 10
-4.652256944444443
 20
10.7376736111111
 30
0.0
 10
-4.652256944444443
 20
10.7376736111111
 30
0.0
 10
-2.798795572916666
 20
10.7376736111111
 30
0.0
 10
-2.798795572916666
 20
10.7376736111111
 30
0.0
 10
-2.798795572916666
 20
10.7376736111111
 30
0.0
 10
0.0
 20
-7.419357638888887
 30
0.0
 10
0.0
 20
-7.419357638888887
 30
0.0
 10
0.0
 20
-7.419357638888887
 30
0.0
 10
2.793283420138888
 20
10.7376736111111
 30
0.0
 10
2.793283420138888
 20
10.7376736111111
 30
0.0
 10
2.793283420138888
 20
10.7376736111111
 30
0.0
 10
4.652256944444443
 20
10.7376736111111
 30
0.0
 10
4.652256944444443
 20
10.7376736111111
 30
0.0
 10
4.652256944444443
 20
10.7376736111111
 30
0.0
 10
4.652256944444443
 20
-10.7376736111111
 30
0.0
 10
4.652256944444443
 20
-10.7376736111111
 30
0.0
 10
4.652256944444443
 20
-10.7376736111111
 30
0.0
 10
3.41753472222222
 20
-10.7376736111111
 30
0.0
 10
3.41753472222222
 20
-10.7376736111111
 30
0.0
 10
3.41753472222222
 20
-10.7376736111111
 30
0.0
 10
3.41753472222222
 20
1.936832682291665
 30
0.0
 10
3.41753472222222
 20
1.936832682291665
 30
0.0
 10
3.41753472222222
 20
2.375048828124999
 30
0.0
 10
3.424424913194443
 20
3.101274956597221
 30
0.0
 10
3.439583333333333
 20
4.11482204861111
 30
0.0
 10
3.454052734374998
 20
5.128369140624998
 30
0.0
 10
3.461631944444443
 20
6.214952256944441
 30
0.0
 10
3.461631944444443
 20
7.375260416666666
 30
0.0
 10
3.461631944444443
 20
7.375260416666666
 30
0.0
 10
0.6538791232638889
 20
-10.7376736111111
 30
0.0
 10
0.6538791232638889
 20
-10.7376736111111
 30
0.0
 10
0.6538791232638889
 20
-10.7376736111111
 30
0.0
 10
-0.6628363715277778
 20
-10.7376736111111
 30
0.0
 10
-0.6628363715277778
 20
-10.7376736111111
 30
0.0
 10
-0.6628363715277778
 20
-10.7376736111111
 30
0.0
 10
-3.461631944444443
 20
7.375260416666666
 30
0.0
 10
-3.461631944444443
 20
7.375260416666666
 30
0.0
 10
-3.461631944444443
 20
7.375260416666666
 30
0.0
 10
-3.461631944444443
 20
6.717247178819441
 30
0.0
 10
-3.461631944444443
 20
6.717247178819441
 30
0.0
 10
-3.461631944444443
 20
6.190836588541666
 30
0.0
 10
-3.45474175347222
 20
5.389507378472222
 30
0.0
 10
-3.439583333333333
 20
4.312570529513888
 30
0.0
 10
-3.425113932291666
 20
3.235633680555555
 30
0.0
 10
-3.41753472222222
 20
2.44395073784722
 30
0.0
 10
-3.41753472222222
 20
1.936832682291665
 30
0.0
 10
-3.41753472222222
 20
1.936832682291665
 30
0.0
 10
-3.41753472222222
 20
-10.7376736111111
 30
0.0
 10
-3.41753472222222
 20
-10.7376736111111
 30
0.0
 10
-3.41753472222222
 20
-10.7376736111111
 30
0.0
 10
-4.652256944444443
 20
-10.7376736111111
 30
0.0
 10
-4.652256944444443
 20
-10.7376736111111
 30
0.0
 10
-4.652256944444443
 20
-10.7376736111111
 30
0.0
 10
-4.652256944444443
 20
10.7376736111111
 30
0.0
 10
-4.652256944444443
 20
10.7376736111111
 30
0.0
  0
ENDBLK
  5
355
330
352
100
AcDbEntity
  8
0
100
AcDbBlockEnd
  0
BLOCK
  5
359
330
356
100
AcDbEntity
  8
0
 62
     7
100
AcDbBlockBegin
  2
AI9-BLK9
 70
     0
 10
0.0
 20
0.0
 30
0.0
  3
AI9-BLK9
  1

  0
SPLINE
  5
357
330
356
100
AcDbEntity
  8
LAYER_1
 62
     7
100
AcDbSpline
210
0.0
220
0.0
230
1.0
 70
    11
 71
     3
 72
    29
 73
    25
 74
     0
 42
0.0000000001
 43
0.0000000001
 40
0.0
 40
0.0
 40
0.0
 40
0.0
 40
1.0
 40
1.0
 40
1.0
 40
2.0
 40
2.0
 40
2.0
 40
3.0
 40
3.0
 40
3.0
 40
4.0
 40
4.0
 40
4.0
 40
5.0
 40
5.0
 40
5.0
 40
6.0
 40
6.0
 40
6.0
 40
7.0
 40
7.0
 40
7.0
 40
8.0
 40
8.0
 40
8.0
 40
8.0
 10
0.0668348524305556
 20
-8.753298611111111
 30
0.0
 10
-0.9067491319444444
 20
-8.753298611111111
 30
0.0
 10
-1.60954861111111
 20
-7.936810980902778
 30
0.0
 10
-2.041563585069444
 20
-6.30383572048611
 30
0.0
 10
-2.474267578124999
 20
-4.670860460069443
 30
0.0
 10
-2.689930555555555
 20
-2.664436848958333
 30
0.0
 10
-2.689930555555555
 20
-0.28525390625
 30
0.0
 10
-2.689930555555555
 20
2.68855251736111
 30
0.0
 10
-2.439127604166666
 20
4.938199869791666
 30
0.0
 10
-1.937521701388888
 20
6.464377170138886
 30
0.0
 10
-1.43591579861111
 20
7.989865451388887
 30
0.0
 10
-0.7827256944444444
 20
8.753298611111111
 30
0.0
 10
0.0220486111111111
 20
8.753298611111111
 30
0.0
 10
0.8468044704861108
 20
8.753298611111111
 30
0.0
 10
1.49792751736111
 20
7.982975260416663
 30
0.0
 10
1.974728732638888
 20
6.442328559027776
 30
0.0
 10
2.451529947916665
 20
4.901681857638886
 30
0.0
 10
2.689930555555555
 20
2.868386501736111
 30
0.0
 10
2.689930555555555
 20
0.3438205295138888
 30
0.0
 10
2.689930555555555
 20
-2.045697699652774
 30
0.0
 10
2.483224826388884
 20
-4.15891927083333
 30
0.0
 10
2.071191406249999
 20
-5.996533203124998
 30
0.0
 10
1.65915798611111
 20
-7.834836154513887
 30
0.0
 10
0.9908094618055557
 20
-8.753298611111111
 30
0.0
 10
0.0668348524305556
 20
-8.753298611111111
 30
0.0
  0
SPLINE
  5
358
330
356
100
AcDbEntity
  8
LAYER_1
 62
     7
100
AcDbSpline
210
0.0
220
0.0
230
1.0
 70
    11
 71
     3
 72
    29
 73
    25
 74
     0
 42
0.0000000001
 43
0.0000000001
 40
0.0
 40
0.0
 40
0.0
 40
0.0
 40
1.0
 40
1.0
 40
1.0
 40
2.0
 40
2.0
 40
2.0
 40
3.0
 40
3.0
 40
3.0
 40
4.0
 40
4.0
 40
4.0
 40
5.0
 40
5.0
 40
5.0
 40
6.0
 40
6.0
 40
6.0
 40
7.0
 40
7.0
 40
7.0
 40
8.0
 40
8.0
 40
8.0
 40
8.0
 10
-0.0289388020833333
 20
11.35503472222222
 30
0.0
 10
-1.317404513888887
 20
11.35503472222222
 30
0.0
 10
-2.28892144097222
 20
10.02798394097222
 30
0.0
 10
-2.94280056423611
 20
7.374571397569441
 30
0.0
 10
-3.450607638888888
 20
5.30613606770833
 30
0.0
 10
-3.704166666666666
 20
2.81877712673611
 30
0.0
 10
-3.704166666666666
 20
-0.0881944444444445
 30
0.0
 10
-3.704166666666666
 20
-3.307291666666666
 30
0.0
 10
-3.406510416666666
 20
-5.97035047743055
 30
0.0
 10
-2.811197916666666
 20
-8.077370876736106
 30
0.0
 10
-2.147672526041664
 20
-10.26293945312499
 30
0.0
 10
-1.229899088541666
 20
-11.35503472222222
 30
0.0
 10
-0.0585666232638889
 20
-11.35503472222222
 30
0.0
 10
1.20027126736111
 20
-11.35503472222222
 30
0.0
 10
2.166276041666665
 20
-10.10653211805555
 30
0.0
 10
2.840136718749998
 20
-7.609526909722221
 30
0.0
 10
3.416156684027776
 20
-5.483213975694441
 30
0.0
 10
3.704166666666666
 20
-2.814643012152775
 30
0.0
 10
3.704166666666666
 20
0.3948079427083333
 30
0.0
 10
3.704166666666666
 20
3.360346137152776
 30
0.0
 10
3.449918619791666
 20
5.793961588541666
 30
0.0
 10
2.94280056423611
 20
7.696343315972222
 30
0.0
 10
2.298567708333333
 20
10.13547092013888
 30
0.0
 10
1.307758246527777
 20
11.35503472222222
 30
0.0
 10
-0.0289388020833333
 20
11.35503472222222
 30
0.0
  0
ENDBLK
  5
35A
330
356
100
AcDbEntity
  8
0
100
AcDbBlockEnd
  0
BLOCK
  5
35E
330
35B
100
AcDbEntity
  8
0
 62
     7
100
AcDbBlockBegin
  2
AI9-BLK8
 70
     0
 10
0.0
 20
0.0
 30
0.0
  3
AI9-BLK8
  1

  0
LWPOLYLINE
  5
35C
330
35B
100
AcDbEntity
  8
LAYER_1
 62
     7
100
AcDbPolyline
 90
       10
 70
     1
 43
0.0
 10
-3.792361111111107
 20
10.7376736111111
 10
-2.268939887152773
 20
10.7376736111111
 10
2.557638888888888
 20
-6.505718315972222
 10
2.557638888888888
 20
10.7376736111111
 10
3.792361111111107
 20
10.7376736111111
 10
3.792361111111107
 20
-10.7376736111111
 10
2.32612847222222
 20
-10.7376736111111
 10
-2.557638888888888
 20
6.549815538194441
 10
-2.557638888888888
 20
-10.7376736111111
 10
-3.792361111111107
 20
-10.7376736111111
  0
HATCH
  5
35D
330
35B
100
AcDbEntity
  8
LAYER_1
 62
     7
100
AcDbHatch
 10
0.0
 20
0.0
 30
0.0
210
0.0
220
0.0
230
1.0
  2
SOLID
 70
     1
 71
     0
 91
        1
 92
        3
 72
     0
 73
     1
 93
       10
 10
-3.792361111111107
 20
10.7376736111111
 10
-2.268939887152773
 20
10.7376736111111
 10
2.557638888888888
 20
-6.505718315972222
 10
2.557638888888888
 20
10.7376736111111
 10
3.792361111111107
 20
10.7376736111111
 10
3.792361111111107
 20
-10.7376736111111
 10
2.32612847222222
 20
-10.7376736111111
 10
-2.557638888888888
 20
6.549815538194441
 10
-2.557638888888888
 20
-10.7376736111111
 10
-3.792361111111107
 20
-10.7376736111111
 97
        0
 75
     2
 76
     1
 98
        1
 10
0.0
 20
0.0
  0
ENDBLK
  5
35F
330
35B
100
AcDbEntity
  8
0
100
AcDbBlockEnd
  0
BLOCK
  5
363
330
360
100
AcDbEntity
  8
0
 62
     7
100
AcDbBlockBegin
  2
AI9-BLK7
 70
     0
 10
0.0
 20
0.0
 30
0.0
  3
AI9-BLK7
  1

  0
LWPOLYLINE
  5
361
330
360
100
AcDbEntity
  8
LAYER_1
 62
     7
100
AcDbPolyline
 90
        4
 70
     1
 43
0.0
 10
-0.6614583333333333
 20
10.7376736111111
 10
0.6614583333333333
 20
10.7376736111111
 10
0.6614583333333333
 20
-10.7376736111111
 10
-0.6614583333333333
 20
-10.7376736111111
  0
HATCH
  5
362
330
360
100
AcDbEntity
  8
LAYER_1
 62
     7
100
AcDbHatch
 10
0.0
 20
0.0
 30
0.0
210
0.0
220
0.0
230
1.0
  2
SOLID
 70
     1
 71
     0
 91
        1
 92
        3
 72
     0
 73
     1
 93
        4
 10
-0.6614583333333333
 20
10.7376736111111
 10
0.6614583333333333
 20
10.7376736111111
 10
0.6614583333333333
 20
-10.7376736111111
 10
-0.6614583333333333
 20
-10.7376736111111
 97
        0
 75
     2
 76
     1
 98
        1
 10
0.0
 20
0.0
  0
ENDBLK
  5
364
330
360
100
AcDbEntity
  8
0
100
AcDbBlockEnd
  0
BLOCK
  5
367
330
365
100
AcDbEntity
  8
0
 62
     7
100
AcDbBlockBegin
  2
AI9-BLK6
 70
     0
 10
0.0
 20
0.0
 30
0.0
  3
AI9-BLK6
  1

  0
SPLINE
  5
366
330
365
100
AcDbEntity
  8
LAYER_1
 62
     7
100
AcDbSpline
210
0.0
220
0.0
230
1.0
 70
    11
 71
     3
 72
    59
 73
    55
 74
     0
 42
0.0000000001
 43
0.0000000001
 40
0.0
 40
0.0
 40
0.0
 40
0.0
 40
1.0
 40
1.0
 40
1.0
 40
2.0
 40
2.0
 40
2.0
 40
3.0
 40
3.0
 40
3.0
 40
4.0
 40
4.0
 40
4.0
 40
5.0
 40
5.0
 40
5.0
 40
6.0
 40
6.0
 40
6.0
 40
7.0
 40
7.0
 40
7.0
 40
8.0
 40
8.0
 40
8.0
 40
9.0
 40
9.0
 40
9.0
 40
10.0
 40
10.0
 40
10.0
 40
11.0
 40
11.0
 40
11.0
 40
12.0
 40
12.0
 40
12.0
 40
13.0
 40
13.0
 40
13.0
 40
14.0
 40
14.0
 40
14.0
 40
15.0
 40
15.0
 40
15.0
 40
16.0
 40
16.0
 40
16.0
 40
17.0
 40
17.0
 40
17.0
 40
18.0
 40
18.0
 40
18.0
 40
18.0
 10
3.062689887152775
 20
9.168088107638887
 30
0.0
 10
3.735172526041666
 20
7.739062499999997
 30
0.0
 10
4.110687934027776
 20
6.116422526041666
 30
0.0
 10
4.189236111111108
 20
4.299479166666666
 30
0.0
 10
4.189236111111108
 20
4.299479166666666
 30
0.0
 10
2.866319444444443
 20
4.299479166666666
 30
0.0
 10
2.866319444444443
 20
4.299479166666666
 30
0.0
 10
2.720936414930555
 20
5.667871093749997
 30
0.0
 10
2.435682508680555
 20
6.752387152777776
 30
0.0
 10
2.009868706597218
 20
7.553027343749997
 30
0.0
 10
1.584054904513888
 20
8.352978515624997
 30
0.0
 10
0.9839192708333332
 20
8.753298611111111
 30
0.0
 10
0.2101508246527778
 20
8.753298611111111
 30
0.0
 10
-0.7386284722222222
 20
8.753298611111111
 30
0.0
 10
-1.503439670138888
 20
8.010536024305555
 30
0.0
 10
-2.083593749999999
 20
6.526388888888886
 30
0.0
 10
-2.664436848958333
 20
5.042241753472221
 30
0.0
 10
-2.954513888888888
 20
2.767100694444443
 30
0.0
 10
-2.954513888888888
 20
-0.2990342881944444
 30
0.0
 10
-2.954513888888888
 20
-2.811197916666666
 30
0.0
 10
-2.693375651041666
 20
-4.847938368055555
 30
0.0
 10
-2.17041015625
 20
-6.409944661458332
 30
0.0
 10
-1.648133680555553
 20
-7.972639973958332
 30
0.0
 10
-0.8640299479166666
 20
-8.753298611111111
 30
0.0
 10
0.1812120225694444
 20
-8.753298611111111
 30
0.0
 10
1.138948567708333
 20
-8.753298611111111
 30
0.0
 10
1.865174696180553
 20
-7.927853732638887
 30
0.0
 10
2.359201388888884
 20
-6.275585937499998
 30
0.0
 10
2.62998589409722
 20
-5.406043836805555
 30
0.0
 10
2.828423394097221
 20
-4.262272135416666
 30
0.0
 10
2.954513888888888
 20
-2.844270833333331
 30
0.0
 10
2.954513888888888
 20
-2.844270833333331
 30
0.0
 10
4.277430555555555
 20
-2.844270833333331
 30
0.0
 10
4.277430555555555
 20
-2.844270833333331
 30
0.0
 10
4.169943576388888
 20
-5.109765624999996
 30
0.0
 10
3.795117187499998
 20
-7.009391276041665
 30
0.0
 10
3.151573350694443
 20
-8.542458767361106
 30
0.0
 10
2.381249999999999
 20
-10.38834092881943
 30
0.0
 10
1.347721354166665
 20
-11.3109375
 30
0.0
 10
0.0509874131944445
 20
-11.3109375
 30
0.0
 10
-1.07004665798611
 20
-11.3109375
 30
0.0
 10
-2.010557725694444
 20
-10.55577256944443
 30
0.0
 10
-2.771234809027776
 20
-9.04475368923611
 30
0.0
 10
-3.775824652777775
 20
-7.046598307291666
 30
0.0
 10
-4.277430555555555
 20
-3.961170789930555
 30
0.0
 10
-4.277430555555555
 20
0.2115288628472222
 30
0.0
 10
-4.277430555555555
 20
3.379638671874998
 30
0.0
 10
-3.902604166666666
 20
5.977929687499997
 30
0.0
 10
-3.151573350694443
 20
8.005712890624996
 30
0.0
 10
-2.333018663194443
 20
10.20919596354165
 30
0.0
 10
-1.20647243923611
 20
11.3109375
 30
0.0
 10
0.2266872829861111
 20
11.3109375
 30
0.0
 10
1.444873046875
 20
11.3109375
 30
0.0
 10
2.390207248263884
 20
10.59642469618055
 30
0.0
 10
3.062689887152775
 20
9.168088107638887
 30
0.0
  0
ENDBLK
  5
368
330
365
100
AcDbEntity
  8
0
100
AcDbBlockEnd
  0
BLOCK
  5
36C
330
369
100
AcDbEntity
  8
0
 62
     7
100
AcDbBlockBegin
  2
AI9-BLK5
 70
     0
 10
0.0
 20
0.0
 30
0.0
  3
AI9-BLK5
  1

  0
SPLINE
  5
36A
330
369
100
AcDbEntity
  8
LAYER_1
 62
     7
100
AcDbSpline
210
0.0
220
0.0
230
1.0
 70
    11
 71
     3
 72
    32
 73
    28
 74
     0
 42
0.0000000001
 43
0.0000000001
 40
0.0
 40
0.0
 40
0.0
 40
0.0
 40
1.0
 40
1.0
 40
1.0
 40
2.0
 40
2.0
 40
2.0
 40
3.0
 40
3.0
 40
3.0
 40
4.0
 40
4.0
 40
4.0
 40
5.0
 40
5.0
 40
5.0
 40
6.0
 40
6.0
 40
6.0
 40
7.0
 40
7.0
 40
7.0
 40
8.0
 40
8.0
 40
8.0
 40
9.0
 40
9.0
 40
9.0
 40
9.0
 10
-2.62378472222222
 20
-8.268229166666666
 30
0.0
 10
-2.62378472222222
 20
-8.268229166666666
 30
0.0
 10
-2.62378472222222
 20
8.180034722222217
 30
0.0
 10
-2.62378472222222
 20
8.180034722222217
 30
0.0
 10
-2.62378472222222
 20
8.180034722222217
 30
0.0
 10
-0.3376193576388888
 20
8.180034722222217
 30
0.0
 10
-0.3376193576388888
 20
8.180034722222217
 30
0.0
 10
0.6972873263888888
 20
8.180034722222217
 30
0.0
 10
1.449007161458333
 20
7.445540364583332
 30
0.0
 10
1.918918185763885
 20
5.977929687499997
 30
0.0
 10
2.388829210069443
 20
4.510319010416666
 30
0.0
 10
2.62378472222222
 20
2.449462890624999
 30
0.0
 10
2.62378472222222
 20
-0.204638671875
 30
0.0
 10
2.62378472222222
 20
-0.8950358072916666
 30
0.0
 10
2.590022786458332
 20
-1.643310546874999
 30
0.0
 10
2.523187934027772
 20
-2.45015190972222
 30
0.0
 10
2.408121744791666
 20
-3.80200737847222
 30
0.0
 10
2.226220703124999
 20
-4.909950086805555
 30
0.0
 10
1.976795789930553
 20
-5.774669053819441
 30
0.0
 10
1.659847005208333
 20
-6.853672960069442
 30
0.0
 10
1.252636718749998
 20
-7.583344184027778
 30
0.0
 10
0.7544759114583333
 20
-7.962304687499997
 30
0.0
 10
0.4664659288194444
 20
-8.166254340277777
 30
0.0
 10
0.1074869791666666
 20
-8.268229166666666
 30
0.0
 10
-0.3231499565972222
 20
-8.268229166666666
 30
0.0
 10
-0.3231499565972222
 20
-8.268229166666666
 30
0.0
 10
-2.62378472222222
 20
-8.268229166666666
 30
0.0
 10
-2.62378472222222
 20
-8.268229166666666
 30
0.0
  0
SPLINE
  5
36B
330
369
100
AcDbEntity
  8
LAYER_1
 62
     7
100
AcDbSpline
210
0.0
220
0.0
230
1.0
 70
    11
 71
     3
 72
    26
 73
    22
 74
     0
 42
0.0000000001
 43
0.0000000001
 40
0.0
 40
0.0
 40
0.0
 40
0.0
 40
1.0
 40
1.0
 40
1.0
 40
2.0
 40
2.0
 40
2.0
 40
3.0
 40
3.0
 40
3.0
 40
4.0
 40
4.0
 40
4.0
 40
5.0
 40
5.0
 40
5.0
 40
6.0
 40
6.0
 40
6.0
 40
7.0
 40
7.0
 40
7.0
 40
7.0
 10
-3.946701388888888
 20
-10.7376736111111
 30
0.0
 10
-3.946701388888888
 20
-10.7376736111111
 30
0.0
 10
-0.0943956163194444
 20
-10.7376736111111
 30
0.0
 10
-0.0943956163194444
 20
-10.7376736111111
 30
0.0
 10
1.546847873263885
 20
-10.7376736111111
 30
0.0
 10
2.705777994791666
 20
-9.11021050347222
 30
0.0
 10
3.381705729166666
 20
-5.854595269097222
 30
0.0
 10
3.757910156249999
 20
-4.01284722222222
 30
0.0
 10
3.946701388888888
 20
-1.951991102430555
 30
0.0
 10
3.946701388888888
 20
0.328662109375
 30
0.0
 10
3.946701388888888
 20
3.281797960069443
 30
0.0
 10
3.622862413194443
 20
5.703700086805552
 30
0.0
 10
2.976562499999998
 20
7.594368489583332
 30
0.0
 10
2.25171440972222
 20
9.689675564236106
 30
0.0
 10
1.233344184027777
 20
10.7376736111111
 30
0.0
 10
-0.0799262152777778
 20
10.7376736111111
 30
0.0
 10
-0.0799262152777778
 20
10.7376736111111
 30
0.0
 10
-3.946701388888888
 20
10.7376736111111
 30
0.0
 10
-3.946701388888888
 20
10.7376736111111
 30
0.0
 10
-3.946701388888888
 20
10.7376736111111
 30
0.0
 10
-3.946701388888888
 20
-10.7376736111111
 30
0.0
 10
-3.946701388888888
 20
-10.7376736111111
 30
0.0
  0
ENDBLK
  5
36D
330
369
100
AcDbEntity
  8
0
100
AcDbBlockEnd
  0
BLOCK
  5
371
330
36E
100
AcDbEntity
  8
0
 62
     7
100
AcDbBlockBegin
  2
AI9-BLK4
 70
     0
 10
0.0
 20
0.0
 30
0.0
  3
AI9-BLK4
  1

  0
SPLINE
  5
36F
330
36E
100
AcDbEntity
  8
LAYER_1
 62
     7
100
AcDbSpline
210
0.0
220
0.0
230
1.0
 70
    11
 71
     3
 72
    26
 73
    22
 74
     0
 42
0.0000000001
 43
0.0000000001
 40
0.0
 40
0.0
 40
0.0
 40
0.0
 40
1.0
 40
1.0
 40
1.0
 40
2.0
 40
2.0
 40
2.0
 40
3.0
 40
3.0
 40
3.0
 40
4.0
 40
4.0
 40
4.0
 40
5.0
 40
5.0
 40
5.0
 40
6.0
 40
6.0
 40
6.0
 40
7.0
 40
7.0
 40
7.0
 40
7.0
 10
-2.645833333333333
 20
0.9039930555555551
 30
0.0
 10
-2.645833333333333
 20
0.9039930555555551
 30
0.0
 10
-2.645833333333333
 20
8.180034722222217
 30
0.0
 10
-2.645833333333333
 20
8.180034722222217
 30
0.0
 10
-2.645833333333333
 20
8.180034722222217
 30
0.0
 10
0.465087890625
 20
8.180034722222217
 30
0.0
 10
0.465087890625
 20
8.180034722222217
 30
0.0
 10
0.9026150173611108
 20
8.180034722222217
 30
0.0
 10
1.24988064236111
 20
8.034651692708331
 30
0.0
 10
1.506884765625
 20
7.745263671874997
 30
0.0
 10
2.001600477430554
 20
7.194048394097221
 30
0.0
 10
2.248958333333332
 20
6.160519748263887
 30
0.0
 10
2.248958333333332
 20
4.643299696180553
 30
0.0
 10
2.248958333333332
 20
3.232188585069443
 30
0.0
 10
2.072569444444444
 20
2.256537543402775
 30
0.0
 10
1.720480685763888
 20
1.715657552083333
 30
0.0
 10
1.368391927083333
 20
1.174088541666665
 30
0.0
 10
0.8929687499999998
 20
0.9039930555555551
 30
0.0
 10
0.2942111545138888
 20
0.9039930555555551
 30
0.0
 10
0.2942111545138888
 20
0.9039930555555551
 30
0.0
 10
-2.645833333333333
 20
0.9039930555555551
 30
0.0
 10
-2.645833333333333
 20
0.9039930555555551
 30
0.0
  0
SPLINE
  5
370
330
36E
100
AcDbEntity
  8
LAYER_1
 62
     7
100
AcDbSpline
210
0.0
220
0.0
230
1.0
 70
    11
 71
     3
 72
    68
 73
    64
 74
     0
 42
0.0000000001
 43
0.0000000001
 40
0.0
 40
0.0
 40
0.0
 40
0.0
 40
1.0
 40
1.0
 40
1.0
 40
2.0
 40
2.0
 40
2.0
 40
3.0
 40
3.0
 40
3.0
 40
4.0
 40
4.0
 40
4.0
 40
5.0
 40
5.0
 40
5.0
 40
6.0
 40
6.0
 40
6.0
 40
7.0
 40
7.0
 40
7.0
 40
8.0
 40
8.0
 40
8.0
 40
9.0
 40
9.0
 40
9.0
 40
10.0
 40
10.0
 40
10.0
 40
11.0
 40
11.0
 40
11.0
 40
12.0
 40
12.0
 40
12.0
 40
13.0
 40
13.0
 40
13.0
 40
14.0
 40
14.0
 40
14.0
 40
15.0
 40
15.0
 40
15.0
 40
16.0
 40
16.0
 40
16.0
 40
17.0
 40
17.0
 40
17.0
 40
18.0
 40
18.0
 40
18.0
 40
19.0
 40
19.0
 40
19.0
 40
20.0
 40
20.0
 40
20.0
 40
21.0
 40
21.0
 40
21.0
 40
21.0
 10
-3.968749999999998
 20
-10.7376736111111
 30
0.0
 10
-3.968749999999998
 20
-10.7376736111111
 30
0.0
 10
-2.645833333333333
 20
-10.7376736111111
 30
0.0
 10
-2.645833333333333
 20
-10.7376736111111
 30
0.0
 10
-2.645833333333333
 20
-10.7376736111111
 30
0.0
 10
-2.645833333333333
 20
-1.521354166666665
 30
0.0
 10
-2.645833333333333
 20
-1.521354166666665
 30
0.0
 10
-2.645833333333333
 20
-1.521354166666665
 30
0.0
 10
0.2390896267361111
 20
-1.521354166666665
 30
0.0
 10
0.2390896267361111
 20
-1.521354166666665
 30
0.0
 10
0.7599880642361111
 20
-1.521354166666665
 30
0.0
 10
1.143771701388887
 20
-1.65295681423611
 30
0.0
 10
1.390440538194444
 20
-1.916162109374999
 30
0.0
 10
1.816254340277773
 20
-2.39434136284722
 30
0.0
 10
2.04363064236111
 20
-3.335541449652775
 30
0.0
 10
2.072569444444444
 20
-4.739762369791666
 30
0.0
 10
2.072569444444444
 20
-4.739762369791666
 30
0.0
 10
2.160763888888888
 20
-8.324039713541665
 30
0.0
 10
2.160763888888888
 20
-8.324039713541665
 30
0.0
 10
2.18005642361111
 20
-9.163264973958332
 30
0.0
 10
2.202794053819443
 20
-9.728949652777775
 30
0.0
 10
2.227598741319444
 20
-10.02109374999998
 30
0.0
 10
2.252403428819443
 20
-10.31392686631944
 30
0.0
 10
2.28892144097222
 20
-10.55301649305555
 30
0.0
 10
2.33853081597222
 20
-10.7376736111111
 30
0.0
 10
2.33853081597222
 20
-10.7376736111111
 30
0.0
 10
3.968749999999998
 20
-10.7376736111111
 30
0.0
 10
3.968749999999998
 20
-10.7376736111111
 30
0.0
 10
3.968749999999998
 20
-10.7376736111111
 30
0.0
 10
3.968749999999998
 20
-10.25260416666666
 30
0.0
 10
3.968749999999998
 20
-10.25260416666666
 30
0.0
 10
3.766867404513888
 20
-10.05830078125
 30
0.0
 10
3.625618489583333
 20
-9.621462673611112
 30
0.0
 10
3.545692274305555
 20
-8.942089843749997
 30
0.0
 10
3.49470486111111
 20
-8.543836805555555
 30
0.0
 10
3.459564887152775
 20
-7.937499999999999
 30
0.0
 10
3.439583333333333
 20
-7.121701388888887
 30
0.0
 10
3.439583333333333
 20
-7.121701388888887
 30
0.0
 10
3.395486111111106
 20
-4.232644314236106
 30
0.0
 10
3.395486111111106
 20
-4.232644314236106
 30
0.0
 10
3.375504557291666
 20
-2.981385633680555
 30
0.0
 10
3.26870659722222
 20
-2.077392578125
 30
0.0
 10
3.075781249999999
 20
-1.522043185763888
 30
0.0
 10
2.882166883680555
 20
-0.9666937934027776
 30
0.0
 10
2.592089843749999
 20
-0.5188313802083333
 30
0.0
 10
2.204861111111104
 20
-0.1770779079861111
 30
0.0
 10
2.63618706597222
 20
0.3197048611111111
 30
0.0
 10
2.971739366319443
 20
0.9770290798611107
 30
0.0
 10
3.211518012152775
 20
1.79558376736111
 30
0.0
 10
3.451296657986107
 20
2.613449435763888
 30
0.0
 10
3.571874999999999
 20
3.66558159722222
 30
0.0
 10
3.571874999999999
 20
4.951291232638888
 30
0.0
 10
3.571874999999999
 20
7.415912543402777
 30
0.0
 10
3.124701605902775
 20
9.106076388888887
 30
0.0
 10
2.231043836805555
 20
10.02178276909722
 30
0.0
 10
1.759754774305553
 20
10.498583984375
 30
0.0
 10
1.163753255208332
 20
10.7376736111111
 30
0.0
 10
0.443039279513889
 20
10.7376736111111
 30
0.0
 10
0.443039279513889
 20
10.7376736111111
 30
0.0
 10
-3.968749999999998
 20
10.7376736111111
 30
0.0
 10
-3.968749999999998
 20
10.7376736111111
 30
0.0
 10
-3.968749999999998
 20
10.7376736111111
 30
0.0
 10
-3.968749999999998
 20
-10.7376736111111
 30
0.0
 10
-3.968749999999998
 20
-10.7376736111111
 30
0.0
  0
ENDBLK
  5
372
330
36E
100
AcDbEntity
  8
0
100
AcDbBlockEnd
  0
BLOCK
  5
376
330
373
100
AcDbEntity
  8
0
 62
     7
100
AcDbBlockBegin
  2
AI9-BLK3
 70
     0
 10
0.0
 20
0.0
 30
0.0
  3
AI9-BLK3
  1

  0
LWPOLYLINE
  5
374
330
373
100
AcDbEntity
  8
LAYER_1
 62
     7
100
AcDbPolyline
 90
        4
 70
     1
 43
0.0
 10
-0.6613722059461809
 20
10.7376736111111
 10
0.6613722059461809
 20
10.7376736111111
 10
0.6613722059461809
 20
-10.7376736111111
 10
-0.6613722059461809
 20
-10.7376736111111
  0
HATCH
  5
375
330
373
100
AcDbEntity
  8
LAYER_1
 62
     7
100
AcDbHatch
 10
0.0
 20
0.0
 30
0.0
210
0.0
220
0.0
230
1.0
  2
SOLID
 70
     1
 71
     0
 91
        1
 92
        3
 72
     0
 73
     1
 93
        4
 10
-0.6613722059461809
 20
10.7376736111111
 10
0.6613722059461809
 20
10.7376736111111
 10
0.6613722059461809
 20
-10.7376736111111
 10
-0.6613722059461809
 20
-10.7376736111111
 97
        0
 75
     2
 76
     1
 98
        1
 10
0.0
 20
0.0
  0
ENDBLK
  5
377
330
373
100
AcDbEntity
  8
0
100
AcDbBlockEnd
  0
BLOCK
  5
37B
330
378
100
AcDbEntity
  8
0
 62
     7
100
AcDbBlockBegin
  2
AI9-BLK2
 70
     0
 10
0.0
 20
0.0
 30
0.0
  3
AI9-BLK2
  1

  0
LWPOLYLINE
  5
379
330
378
100
AcDbEntity
  8
LAYER_1
 62
     7
100
AcDbPolyline
 90
        7
 70
     1
 43
0.0
 10
-2.785704210069443
 20
10.7376736111111
 10
0.0
 20
-7.550960286458332
 10
2.771234809027776
 20
10.7376736111111
 10
4.233333333333331
 20
10.7376736111111
 10
0.6910861545138888
 20
-10.7376736111111
 10
-0.7055555555555558
 20
-10.7376736111111
 10
-4.233333333333331
 20
10.7376736111111
  0
HATCH
  5
37A
330
378
100
AcDbEntity
  8
LAYER_1
 62
     7
100
AcDbHatch
 10
0.0
 20
0.0
 30
0.0
210
0.0
220
0.0
230
1.0
  2
SOLID
 70
     1
 71
     0
 91
        1
 92
        3
 72
     0
 73
     1
 93
        7
 10
-2.785704210069443
 20
10.7376736111111
 10
0.0
 20
-7.550960286458332
 10
2.771234809027776
 20
10.7376736111111
 10
4.233333333333331
 20
10.7376736111111
 10
0.6910861545138888
 20
-10.7376736111111
 10
-0.7055555555555558
 20
-10.7376736111111
 10
-4.233333333333331
 20
10.7376736111111
 97
        0
 75
     2
 76
     1
 98
        1
 10
0.0
 20
0.0
  0
ENDBLK
  5
37C
330
378
100
AcDbEntity
  8
0
100
AcDbBlockEnd
  0
BLOCK
  5
380
330
37D
100
AcDbEntity
  8
0
 62
     7
100
AcDbBlockBegin
  2
AI9-BLK1
 70
     0
 10
0.0
 20
0.0
 30
0.0
  3
AI9-BLK1
  1

  0
LWPOLYLINE
  5
37E
330
37D
100
AcDbEntity
  8
LAYER_1
 62
     7
100
AcDbPolyline
 90
       12
 70
     1
 43
0.0
 10
-3.571874999999999
 20
10.7376736111111
 10
3.483680555555555
 20
10.7376736111111
 10
3.483680555555555
 20
8.091840277777777
 10
-2.248958333333332
 20
8.091840277777777
 10
-2.248958333333332
 20
1.565451388888888
 10
3.042708333333333
 20
1.565451388888888
 10
3.042708333333333
 20
-0.9039930555555551
 10
-2.248958333333332
 20
-0.9039930555555551
 10
-2.248958333333332
 20
-8.180034722222217
 10
3.571874999999999
 20
-8.180034722222217
 10
3.571874999999999
 20
-10.7376736111111
 10
-3.571874999999999
 20
-10.7376736111111
  0
HATCH
  5
37F
330
37D
100
AcDbEntity
  8
LAYER_1
 62
     7
100
AcDbHatch
 10
0.0
 20
0.0
 30
0.0
210
0.0
220
0.0
230
1.0
  2
SOLID
 70
     1
 71
     0
 91
        1
 92
        3
 72
     0
 73
     1
 93
       12
 10
-3.571874999999999
 20
10.7376736111111
 10
3.483680555555555
 20
10.7376736111111
 10
3.483680555555555
 20
8.091840277777777
 10
-2.248958333333332
 20
8.091840277777777
 10
-2.248958333333332
 20
1.565451388888888
 10
3.042708333333333
 20
1.565451388888888
 10
3.042708333333333
 20
-0.9039930555555551
 10
-2.248958333333332
 20
-0.9039930555555551
 10
-2.248958333333332
 20
-8.180034722222217
 10
3.571874999999999
 20
-8.180034722222217
 10
3.571874999999999
 20
-10.7376736111111
 10
-3.571874999999999
 20
-10.7376736111111
 97
        0
 75
     2
 76
     1
 98
        1
 10
0.0
 20
0.0
  0
ENDBLK
  5
381
330
37D
100
AcDbEntity
  8
0
100
AcDbBlockEnd
  0
BLOCK
  5
3A5
330
382
100
AcDbEntity
  8
0
100
AcDbBlockBegin
  2
HD_LLC_logo_OT5
 70
     0
 10
0.0
 20
0.0
 30
0.0
  3
HD_LLC_logo_OT5
  1

  0
SPLINE
  5
383
102
{ACAD_REACTORS
330
3A3
102
}
330
382
100
AcDbEntity
  8
LAYER_1
 62
     7
100
AcDbSpline
210
0.0
220
0.0
230
1.0
 70
    11
 71
     3
 72
   113
 73
   109
 74
     0
 42
0.0000000001
 43
0.0000000001
 40
0.0
 40
0.0
 40
0.0
 40
0.0
 40
1.0
 40
1.0
 40
1.0
 40
2.0
 40
2.0
 40
2.0
 40
3.0
 40
3.0
 40
3.0
 40
4.0
 40
4.0
 40
4.0
 40
5.0
 40
5.0
 40
5.0
 40
6.0
 40
6.0
 40
6.0
 40
7.0
 40
7.0
 40
7.0
 40
8.0
 40
8.0
 40
8.0
 40
9.0
 40
9.0
 40
9.0
 40
10.0
 40
10.0
 40
10.0
 40
11.0
 40
11.0
 40
11.0
 40
12.0
 40
12.0
 40
12.0
 40
13.0
 40
13.0
 40
13.0
 40
14.0
 40
14.0
 40
14.0
 40
15.0
 40
15.0
 40
15.0
 40
16.0
 40
16.0
 40
16.0
 40
17.0
 40
17.0
 40
17.0
 40
18.0
 40
18.0
 40
18.0
 40
19.0
 40
19.0
 40
19.0
 40
20.0
 40
20.0
 40
20.0
 40
21.0
 40
21.0
 40
21.0
 40
22.0
 40
22.0
 40
22.0
 40
23.0
 40
23.0
 40
23.0
 40
24.0
 40
24.0
 40
24.0
 40
25.0
 40
25.0
 40
25.0
 40
26.0
 40
26.0
 40
26.0
 40
27.0
 40
27.0
 40
27.0
 40
28.0
 40
28.0
 40
28.0
 40
29.0
 40
29.0
 40
29.0
 40
30.0
 40
30.0
 40
30.0
 40
31.0
 40
31.0
 40
31.0
 40
32.0
 40
32.0
 40
32.0
 40
33.0
 40
33.0
 40
33.0
 40
34.0
 40
34.0
 40
34.0
 40
35.0
 40
35.0
 40
35.0
 40
36.0
 40
36.0
 40
36.0
 40
36.0
 10
193.3039632161458
 20
186.1548733181423
 30
0.0
 10
193.3039632161458
 20
186.1860514322916
 30
0.0
 10
193.3039632161458
 20
219.6932223849826
 30
0.0
 10
193.3039632161458
 20
219.6932223849826
 30
0.0
 10
193.3039632161458
 20
219.6932223849826
 30
0.0
 10
193.2974175347219
 20
219.7488606770833
 30
0.0
 10
193.2974175347219
 20
219.7488606770833
 30
0.0
 10
191.5293945312499
 20
235.455740017361
 30
0.0
 10
175.1458984374999
 20
235.2467949761284
 30
0.0
 10
174.9808783637151
 20
235.2428331163193
 30
0.0
 10
174.9808783637151
 20
235.2428331163193
 30
0.0
 10
125.8827555338541
 20
235.2430053710937
 30
0.0
 10
125.8827555338541
 20
235.2430053710937
 30
0.0
 10
125.8827555338541
 20
235.2430053710937
 30
0.0
 10
125.8827555338541
 20
255.5278998480901
 30
0.0
 10
125.8827555338541
 20
255.5278998480901
 30
0.0
 10
125.8827555338541
 20
255.5278998480901
 30
0.0
 10
84.5626247829861
 20
255.5278998480901
 30
0.0
 10
84.5626247829861
 20
255.5278998480901
 30
0.0
 10
84.5626247829861
 20
255.5278998480901
 30
0.0
 10
84.55711263020829
 20
233.7919311523436
 30
0.0
 10
84.55711263020829
 20
233.7919311523436
 30
0.0
 10
84.55711263020829
 20
233.7919311523436
 30
0.0
 10
64.42052951388888
 20
233.7919311523436
 30
0.0
 10
64.42052951388888
 20
233.7919311523436
 30
0.0
 10
64.42052951388888
 20
233.7919311523436
 30
0.0
 10
64.41501736111111
 20
255.5278998480901
 30
0.0
 10
64.41501736111111
 20
255.5278998480901
 30
0.0
 10
64.41501736111111
 20
255.5278998480901
 30
0.0
 10
23.91757541232637
 20
255.5278998480901
 30
0.0
 10
23.91757541232637
 20
255.5278998480901
 30
0.0
 10
23.91757541232637
 20
255.5278998480901
 30
0.0
 10
23.91757541232637
 20
233.2393378363715
 30
0.0
 10
23.91757541232637
 20
233.2393378363715
 30
0.0
 10
23.91757541232637
 20
233.2393378363715
 30
0.0
 10
43.65624999999999
 20
233.2393378363715
 30
0.0
 10
43.65624999999999
 20
233.2393378363715
 30
0.0
 10
43.65624999999999
 20
233.2393378363715
 30
0.0
 10
43.65624999999999
 20
211.5188720703125
 30
0.0
 10
43.65624999999999
 20
211.5188720703125
 30
0.0
 10
43.65624999999999
 20
211.5188720703125
 30
0.0
 10
23.91757541232637
 20
211.5188720703125
 30
0.0
 10
23.91757541232637
 20
211.5188720703125
 30
0.0
 10
23.91757541232637
 20
211.5188720703125
 30
0.0
 10
23.91757541232637
 20
189.2303100585936
 30
0.0
 10
23.91757541232637
 20
189.2303100585936
 30
0.0
 10
23.91757541232637
 20
189.2303100585936
 30
0.0
 10
64.41501736111111
 20
189.2303100585936
 30
0.0
 10
64.41501736111111
 20
189.2303100585936
 30
0.0
 10
64.41501736111111
 20
189.2303100585936
 30
0.0
 10
64.42052951388888
 20
211.069976128472
 30
0.0
 10
64.42052951388888
 20
211.069976128472
 30
0.0
 10
64.42052951388888
 20
211.069976128472
 30
0.0
 10
84.55711263020829
 20
211.069976128472
 30
0.0
 10
84.55711263020829
 20
211.069976128472
 30
0.0
 10
84.55711263020829
 20
211.069976128472
 30
0.0
 10
84.5626247829861
 20
189.2303100585936
 30
0.0
 10
84.5626247829861
 20
189.2303100585936
 30
0.0
 10
84.5626247829861
 20
189.2303100585936
 30
0.0
 10
125.8827555338541
 20
189.2303100585936
 30
0.0
 10
125.8827555338541
 20
189.2303100585936
 30
0.0
 10
125.8827555338541
 20
189.2303100585936
 30
0.0
 10
125.8827555338541
 20
211.5188720703125
 30
0.0
 10
125.8827555338541
 20
211.5188720703125
 30
0.0
 10
125.8827555338541
 20
211.5188720703125
 30
0.0
 10
105.3213921440971
 20
211.5188720703125
 30
0.0
 10
105.3213921440971
 20
211.5188720703125
 30
0.0
 10
105.3213921440971
 20
211.5188720703125
 30
0.0
 10
105.3213921440971
 20
233.2393378363715
 30
0.0
 10
105.3213921440971
 20
233.2393378363715
 30
0.0
 10
105.3213921440971
 20
233.2393378363715
 30
0.0
 10
175.0046495225693
 20
233.243127441406
 30
0.0
 10
175.0046495225693
 20
233.243127441406
 30
0.0
 10
175.6268337673611
 20
233.2560465494791
 30
0.0
 10
189.7165852864583
 20
233.3962619357638
 30
0.0
 10
191.3037407769094
 20
219.5690266927083
 30
0.0
 10
191.3037407769094
 20
219.4332899305555
 30
0.0
 10
191.3037407769094
 20
186.1142211914062
 30
0.0
 10
191.3037407769094
 20
186.1142211914062
 30
0.0
 10
191.3037407769094
 20
186.1142211914062
 30
0.0
 10
191.3051188151039
 20
186.0880384657115
 30
0.0
 10
191.3051188151039
 20
186.0880384657115
 30
0.0
 10
191.3054633246526
 20
186.0787367078991
 30
0.0
 10
191.3109754774304
 20
185.9566080729166
 30
0.0
 10
191.3109754774304
 20
185.7399115668401
 30
0.0
 10
191.3109754774304
 20
184.2090833875865
 30
0.0
 10
191.0488037109374
 20
177.9643310546874
 30
0.0
 10
186.9866916232638
 20
173.5652886284722
 30
0.0
 10
184.2540418836804
 20
170.6064683702255
 30
0.0
 10
180.3224989149304
 20
169.0308539496526
 30
0.0
 10
175.300927734375
 20
168.8825425889756
 30
0.0
 10
175.300927734375
 20
168.8825425889756
 30
0.0
 10
107.0094889322916
 20
168.8828870985243
 30
0.0
 10
107.0094889322916
 20
168.8828870985243
 30
0.0
 10
107.0094889322916
 20
168.8828870985243
 30
0.0
 10
107.0094889322916
 20
166.8830091688368
 30
0.0
 10
107.0094889322916
 20
166.8830091688368
 30
0.0
 10
107.0094889322916
 20
166.8830091688368
 30
0.0
 10
175.3305555555555
 20
166.8830091688368
 30
0.0
 10
175.3305555555555
 20
166.8830091688368
 30
0.0
 10
180.9467502170138
 20
167.0485460069444
 30
0.0
 10
185.3571614583333
 20
168.8448187934026
 30
0.0
 10
188.4687717013888
 20
172.2223904079861
 30
0.0
 10
192.9649658203124
 20
177.1034016927083
 30
0.0
 10
193.3136094835069
 20
183.7202243381076
 30
0.0
 10
193.3136094835069
 20
185.6520616319443
 30
0.0
 10
193.3136094835069
 20
185.9247409396701
 30
0.0
 10
193.3070638020833
 20
186.0868326822916
 30
0.0
 10
193.3039632161458
 20
186.1548733181423
 30
0.0
  0
INSERT
  5
384
102
{ACAD_REACTORS
330
3A4
102
}
330
382
100
AcDbEntity
  8
LAYER_1
 62
     7
100
AcDbBlockReference
  2
AI9-BLK14
 10
159.5625257703993
 20
200.5118781195744
 30
0.0
  0
INSERT
  5
385
330
382
100
AcDbEntity
  8
LAYER_1
 62
     7
100
AcDbBlockReference
  2
AI9-BLK13
 10
27.69615614149305
 20
179.2145562065971
 30
0.0
 42
0.9200000000000001
  0
INSERT
  5
386
102
{ACAD_REACTORS
330
391
102
}
330
382
100
AcDbEntity
  8
LAYER_1
 62
     7
100
AcDbBlockReference
  2
AI9-BLK11
 10
44.76591525607638
 20
179.2145562065971
 30
0.0
 42
0.9200000000000001
  0
INSERT
  5
387
102
{ACAD_REACTORS
330
39F
102
}
330
382
100
AcDbEntity
  8
LAYER_1
 62
     7
100
AcDbBlockReference
  2
AI9-BLK10
 10
54.04665798611111
 20
179.2145562065971
 30
0.0
 42
0.9200000000000001
  0
INSERT
  5
388
102
{ACAD_REACTORS
330
39E
102
}
330
382
100
AcDbEntity
  8
LAYER_1
 62
     7
100
AcDbBlockReference
  2
AI9-BLK9
 10
62.79013807508679
 20
179.2145562065971
 30
0.0
 42
0.9
  0
INSERT
  5
389
330
382
100
AcDbEntity
  8
LAYER_1
 62
     7
100
AcDbBlockReference
  2
AI9-BLK8
 10
71.03046196831595
 20
179.2145562065971
 30
0.0
 42
0.9200000000000001
  0
INSERT
  5
38A
330
382
100
AcDbEntity
  8
LAYER_1
 62
     7
100
AcDbBlockReference
  2
AI9-BLK7
 10
76.93793945312498
 20
179.2145562065971
 30
0.0
 42
0.9200000000000001
  0
INSERT
  5
38B
102
{ACAD_REACTORS
330
392
102
}
330
382
100
AcDbEntity
  8
LAYER_1
 62
     7
100
AcDbBlockReference
  2
AI9-BLK6
 10
82.55602891710069
 20
179.2145562065971
 30
0.0
 42
0.9
  0
INSERT
  5
38C
102
{ACAD_REACTORS
330
3A0
102
}
330
382
100
AcDbEntity
  8
LAYER_1
 62
     7
100
AcDbBlockReference
  2
AI9-BLK5
 10
94.32430284288193
 20
179.2145562065971
 30
0.0
 42
0.9200000000000001
  0
INSERT
  5
38D
102
{ACAD_REACTORS
330
3A1
102
}
330
382
100
AcDbEntity
  8
LAYER_1
 62
     7
100
AcDbBlockReference
  2
AI9-BLK4
 10
103.2081705729166
 20
179.2145562065971
 30
0.0
 42
0.9200000000000001
  0
INSERT
  5
38E
330
382
100
AcDbEntity
  8
LAYER_1
 62
     7
100
AcDbBlockReference
  2
AI9-BLK3
 10
108.850978597005
 20
179.2145562065971
 30
0.0
 42
0.9200000000000001
  0
INSERT
  5
38F
330
382
100
AcDbEntity
  8
LAYER_1
 62
     7
100
AcDbBlockReference
  2
AI9-BLK2
 10
114.2045708550346
 20
179.2145562065971
 30
0.0
 42
0.9200000000000001
  0
INSERT
  5
390
330
382
100
AcDbEntity
  8
LAYER_1
 62
     7
100
AcDbBlockReference
  2
AI9-BLK1
 10
122.4125108506944
 20
179.2145562065971
 30
0.0
 42
0.9200000000000001
  0
HATCH
  5
391
330
382
100
AcDbEntity
  8
0
  6
Continuous
100
AcDbHatch
 10
0.0
 20
0.0
 30
0.0
210
0.0
220
0.0
230
1.0
  2
SOLID
 70
     1
 71
     1
 91
        2
 92
       16
 93
        1
 72
     4
 94
        3
 73
     0
 74
     0
 95
       26
 96
       22
 40
0.0
 40
0.0
 40
0.0
 40
0.0
 40
1.0
 40
1.0
 40
1.0
 40
2.0
 40
2.0
 40
2.0
 40
3.0
 40
3.0
 40
3.0
 40
4.0
 40
4.0
 40
4.0
 40
5.0
 40
5.0
 40
5.0
 40
6.0
 40
6.0
 40
6.0
 40
7.0
 40
7.0
 40
7.0
 40
7.0
 10
42.12008192274304
 20
180.046229817708
 10
42.12008192274304
 20
180.046229817708
 10
42.12008192274304
 20
186.7401881510414
 10
42.12008192274304
 20
186.7401881510414
 10
42.12008192274304
 20
186.7401881510414
 10
45.23100314670138
 20
186.7401881510414
 10
45.23100314670138
 20
186.7401881510414
 10
45.66853027343749
 20
186.7401881510414
 10
46.01579589843749
 20
186.6064357638887
 10
46.27280002170138
 20
186.3401987847217
 10
46.76751573350694
 20
185.8330807291664
 10
47.01487358940972
 20
184.8822343749995
 10
47.01487358940972
 20
183.4863919270832
 10
47.01487358940972
 20
182.188169704861
 10
46.83848470052082
 20
181.2905707465276
 10
46.48639594184028
 20
180.7929611545137
 10
46.13430718315971
 20
180.2947176649304
 10
45.65888400607638
 20
180.046229817708
 10
45.06012641059028
 20
180.046229817708
 10
45.06012641059028
 20
180.046229817708
 10
42.12008192274304
 20
180.046229817708
 10
42.12008192274304
 20
180.046229817708
 97
        1
330
386
 92
        1
 93
        1
 72
     4
 94
        3
 73
     0
 74
     0
 95
       68
 96
       64
 40
0.0
 40
0.0
 40
0.0
 40
0.0
 40
1.0
 40
1.0
 40
1.0
 40
2.0
 40
2.0
 40
2.0
 40
3.0
 40
3.0
 40
3.0
 40
4.0
 40
4.0
 40
4.0
 40
5.0
 40
5.0
 40
5.0
 40
6.0
 40
6.0
 40
6.0
 40
7.0
 40
7.0
 40
7.0
 40
8.0
 40
8.0
 40
8.0
 40
9.0
 40
9.0
 40
9.0
 40
10.0
 40
10.0
 40
10.0
 40
11.0
 40
11.0
 40
11.0
 40
12.0
 40
12.0
 40
12.0
 40
13.0
 40
13.0
 40
13.0
 40
14.0
 40
14.0
 40
14.0
 40
15.0
 40
15.0
 40
15.0
 40
16.0
 40
16.0
 40
16.0
 40
17.0
 40
17.0
 40
17.0
 40
18.0
 40
18.0
 40
18.0
 40
19.0
 40
19.0
 40
19.0
 40
20.0
 40
20.0
 40
20.0
 40
21.0
 40
21.0
 40
21.0
 40
21.0
 10
40.79716525607638
 20
169.3358964843748
 10
40.79716525607638
 20
169.3358964843748
 10
42.12008192274304
 20
169.3358964843748
 10
42.12008192274304
 20
169.3358964843748
 10
42.12008192274304
 20
169.3358964843748
 10
42.12008192274304
 20
177.8149103732637
 10
42.12008192274304
 20
177.8149103732637
 10
42.12008192274304
 20
177.8149103732637
 10
45.00500488281249
 20
177.8149103732637
 10
45.00500488281249
 20
177.8149103732637
 10
45.52590332031249
 20
177.8149103732637
 10
45.90968695746528
 20
177.6938359374998
 10
46.15635579427083
 20
177.4516870659718
 10
46.58216959635415
 20
177.0117621527776
 10
46.80954589843749
 20
176.1458580729164
 10
46.83848470052082
 20
174.8539748263887
 10
46.83848470052082
 20
174.8539748263887
 10
46.92667914496527
 20
171.5564396701385
 10
46.92667914496527
 20
171.5564396701385
 10
46.94597167968749
 20
170.7843524305554
 10
46.96870930989581
 20
170.2639225260415
 10
46.99351399739582
 20
169.9951499565971
 10
47.01831868489581
 20
169.725743489583
 10
47.0548366970486
 20
169.5057810329859
 10
47.10444607204859
 20
169.3358964843748
 10
47.10444607204859
 20
169.3358964843748
 10
48.73466525607638
 20
169.3358964843748
 10
48.73466525607638
 20
169.3358964843748
 10
48.73466525607638
 20
169.3358964843748
 10
48.73466525607638
 20
169.7821603732634
 10
48.73466525607638
 20
169.7821603732634
 10
48.53278266059028
 20
169.9609194878471
 10
48.39153374565971
 20
170.3628105468748
 10
48.31160753038194
 20
170.9878335503471
 10
48.26062011718749
 20
171.3542263454858
 10
48.22548014322915
 20
171.9120562065971
 10
48.20549858940971
 20
172.6625909288193
 10
48.20549858940971
 20
172.6625909288193
 10
48.16140136718749
 20
175.3205234374999
 10
48.16140136718749
 20
175.3205234374999
 10
48.14141981336803
 20
176.4716814236109
 10
48.03462185329859
 20
177.3033550347219
 10
47.84169650607638
 20
177.814276475694
 10
47.64808213975693
 20
178.3251979166665
 10
47.35800509982638
 20
178.7372313368054
 10
46.97077636718749
 20
179.0516445312498
 10
47.4021023220486
 20
179.5086846788193
 10
47.73765462239582
 20
180.1134229600693
 10
47.97743326822915
 20
180.866493272569
 10
48.21721191406249
 20
181.6189296874999
 10
48.33779025607638
 20
182.5868912760412
 10
48.33779025607638
 20
183.7697441406248
 10
48.33779025607638
 20
186.0371957465273
 10
47.89061686197913
 20
187.5921464843749
 10
46.99695909288194
 20
188.4345963541665
 10
46.52567003038194
 20
188.8732534722221
 10
45.92966851128472
 20
189.0932159288193
 10
45.20895453559027
 20
189.0932159288193
 10
45.20895453559027
 20
189.0932159288193
 10
40.79716525607638
 20
189.0932159288193
 10
40.79716525607638
 20
189.0932159288193
 10
40.79716525607638
 20
189.0932159288193
 10
40.79716525607638
 20
169.3358964843748
 10
40.79716525607638
 20
169.3358964843748
 97
        0
 75
     0
 76
     1
 98
        0
  0
HATCH
  5
392
330
382
100
AcDbEntity
  8
0
  6
Continuous
100
AcDbHatch
 10
0.0
 20
0.0
 30
0.0
210
0.0
220
0.0
230
1.0
  2
SOLID
 70
     1
 71
     1
 91
        1
 92
        1
 93
        1
 72
     4
 94
        3
 73
     0
 74
     0
 95
       59
 96
       55
 40
0.0
 40
0.0
 40
0.0
 40
0.0
 40
1.0
 40
1.0
 40
1.0
 40
2.0
 40
2.0
 40
2.0
 40
3.0
 40
3.0
 40
3.0
 40
4.0
 40
4.0
 40
4.0
 40
5.0
 40
5.0
 40
5.0
 40
6.0
 40
6.0
 40
6.0
 40
7.0
 40
7.0
 40
7.0
 40
8.0
 40
8.0
 40
8.0
 40
9.0
 40
9.0
 40
9.0
 40
10.0
 40
10.0
 40
10.0
 40
11.0
 40
11.0
 40
11.0
 40
12.0
 40
12.0
 40
12.0
 40
13.0
 40
13.0
 40
13.0
 40
14.0
 40
14.0
 40
14.0
 40
15.0
 40
15.0
 40
15.0
 40
16.0
 40
16.0
 40
16.0
 40
17.0
 40
17.0
 40
17.0
 40
18.0
 40
18.0
 40
18.0
 40
18.0
 10
85.61871880425345
 20
187.4658355034721
 10
86.29120144314232
 20
186.1797124565971
 10
86.66671685112847
 20
184.7193364800346
 10
86.7452650282118
 20
183.0840874565969
 10
86.7452650282118
 20
183.0840874565969
 10
85.42234836154511
 20
183.0840874565969
 10
85.42234836154511
 20
183.0840874565969
 10
85.27696533203123
 20
184.3156401909719
 10
84.99171142578125
 20
185.2917046440971
 10
84.56589762369791
 20
186.0122808159719
 10
84.14008382161458
 20
186.7322368706594
 10
83.53994818793401
 20
187.0925249565969
 10
82.76617974175342
 20
187.0925249565969
 10
81.81740044487847
 20
187.0925249565969
 10
81.05258924696178
 20
186.4240386284721
 10
80.47243516710068
 20
185.0883062065971
 10
79.89159206814234
 20
183.7525737847219
 10
79.6015150282118
 20
181.7049468315971
 10
79.6015150282118
 20
178.9454253472221
 10
79.6015150282118
 20
176.6844780815969
 10
79.86265326605901
 20
174.8514116753471
 10
80.38561876085069
 20
173.4456060112846
 10
80.90789523654512
 20
172.0391802300344
 10
81.69199896918403
 20
171.3365874565971
 10
82.73724093967013
 20
171.3365874565971
 10
83.69497748480901
 20
171.3365874565971
 10
84.42120361328125
 20
172.0794878472221
 10
84.91523030598958
 20
173.5665288628469
 10
85.18601481119791
 20
174.3491167534719
 10
85.38445231119791
 20
175.3785112847221
 10
85.51054280598959
 20
176.6547124565971
 10
85.51054280598959
 20
176.6547124565971
 10
86.83345947265625
 20
176.6547124565971
 10
86.83345947265625
 20
176.6547124565971
 10
86.72597249348957
 20
174.6157671440971
 10
86.35114610460069
 20
172.9061040581596
 10
85.70760226779514
 20
171.526343315972
 10
84.93727891710069
 20
169.8650493706596
 10
83.90375027126735
 20
169.0347124565971
 10
82.60701633029514
 20
169.0347124565971
 10
81.48598225911458
 20
169.0347124565971
 10
80.54547119140625
 20
169.7143608940971
 10
79.78479410807292
 20
171.0742778862845
 10
78.78020426432292
 20
172.8726177300344
 10
78.27859836154512
 20
175.6495024956596
 10
78.27859836154512
 20
179.4049321831594
 10
78.27859836154512
 20
182.2562310112846
 10
78.65342475043402
 20
184.5946929253469
 10
79.40445556640622
 20
186.4196978081596
 10
80.22301025390625
 20
188.4028325737846
 10
81.34955647786458
 20
189.3943999565971
 10
82.78271620008679
 20
189.3943999565971
 10
84.00090196397568
 20
189.3943999565971
 10
84.94623616536458
 20
188.7513384331594
 10
85.61871880425345
 20
187.4658355034721
 97
        1
330
38B
 75
     0
 76
     1
 98
        1
 10
0.0
 20
0.0
  0
LINE
  5
393
102
{ACAD_REACTORS
330
3A2
102
}
330
382
100
AcDbEntity
  8
LAYER_1
 62
     7
100
AcDbLine
 10
34.65766059027778
 20
177.4497853732638
 30
0.0
 11
36.19830729166666
 21
186.1658769531249
 31
0.0
  0
LINE
  5
394
102
{ACAD_REACTORS
330
3A2
102
}
330
382
100
AcDbEntity
  8
LAYER_1
 62
     7
100
AcDbLine
 10
36.19830729166666
 20
186.1658769531249
 30
0.0
 11
37.67556423611111
 21
177.4497853732638
 31
0.0
  0
LINE
  5
395
102
{ACAD_REACTORS
330
3A2
102
}
330
382
100
AcDbEntity
  8
LAYER_1
 62
     7
100
AcDbLine
 10
37.67556423611111
 20
177.4497853732638
 30
0.0
 11
34.65766059027778
 21
177.4497853732638
 31
0.0
  0
LINE
  5
396
102
{ACAD_REACTORS
330
3A2
102
}
330
382
100
AcDbEntity
  8
LAYER_1
 62
     7
100
AcDbLine
 10
31.83957248263888
 20
169.3358964843748
 30
0.0
 11
33.22450086805555
 21
169.3358964843748
 31
0.0
  0
LINE
  5
397
102
{ACAD_REACTORS
330
3A2
102
}
330
382
100
AcDbEntity
  8
LAYER_1
 62
     7
100
AcDbLine
 10
33.22450086805555
 20
169.3358964843748
 30
0.0
 11
34.27043185763887
 21
175.2590353732638
 31
0.0
  0
LINE
  5
398
102
{ACAD_REACTORS
330
3A2
102
}
330
382
100
AcDbEntity
  8
LAYER_1
 62
     7
100
AcDbLine
 10
34.27043185763887
 20
175.2590353732638
 30
0.0
 11
38.04694552951389
 21
175.2590353732638
 31
0.0
  0
LINE
  5
399
102
{ACAD_REACTORS
330
3A2
102
}
330
382
100
AcDbEntity
  8
LAYER_1
 62
     7
100
AcDbLine
 10
38.04694552951389
 20
175.2590353732638
 30
0.0
 11
39.05015733506942
 21
169.3358964843748
 31
0.0
  0
LINE
  5
39A
102
{ACAD_REACTORS
330
3A2
102
}
330
382
100
AcDbEntity
  8
LAYER_1
 62
     7
100
AcDbLine
 10
39.05015733506942
 20
169.3358964843748
 30
0.0
 11
40.43508572048611
 21
169.3358964843748
 31
0.0
  0
LINE
  5
39B
102
{ACAD_REACTORS
330
3A2
102
}
330
382
100
AcDbEntity
  8
LAYER_1
 62
     7
100
AcDbLine
 10
40.43508572048611
 20
169.3358964843748
 30
0.0
 11
36.952783203125
 21
189.0932159288193
 31
0.0
  0
LINE
  5
39C
102
{ACAD_REACTORS
330
3A2
102
}
330
382
100
AcDbEntity
  8
LAYER_1
 62
     7
100
AcDbLine
 10
36.952783203125
 20
189.0932159288193
 30
0.0
 11
35.47828233506943
 21
189.0932159288193
 31
0.0
  0
LINE
  5
39D
102
{ACAD_REACTORS
330
3A2
102
}
330
382
100
AcDbEntity
  8
LAYER_1
 62
     7
100
AcDbLine
 10
35.47828233506943
 20
189.0932159288193
 30
0.0
 11
31.83957248263888
 21
169.3358964843748
 31
0.0
  0
HATCH
  5
39E
330
382
100
AcDbEntity
  8
0
  6
Continuous
100
AcDbHatch
 10
0.0
 20
0.0
 30
0.0
210
0.0
220
0.0
230
1.0
  2
SOLID
 70
     1
 71
     1
 91
        2
 92
       16
 93
        1
 72
     4
 94
        3
 73
     0
 74
     0
 95
       29
 96
       25
 40
0.0
 40
0.0
 40
0.0
 40
0.0
 40
1.0
 40
1.0
 40
1.0
 40
2.0
 40
2.0
 40
2.0
 40
3.0
 40
3.0
 40
3.0
 40
4.0
 40
4.0
 40
4.0
 40
5.0
 40
5.0
 40
5.0
 40
6.0
 40
6.0
 40
6.0
 40
7.0
 40
7.0
 40
7.0
 40
8.0
 40
8.0
 40
8.0
 40
8.0
 10
62.85697292751734
 20
171.3365874565971
 10
61.88338894314235
 20
171.3365874565971
 10
61.18058946397566
 20
172.0714263237844
 10
60.74857449001735
 20
173.5411040581594
 10
60.31587049696178
 20
175.0107817925344
 10
60.10020751953123
 20
176.8165630425342
 10
60.10020751953123
 20
178.9578276909721
 10
60.10020751953123
 20
181.6342534722221
 10
60.35101047092013
 20
183.6589360894094
 10
60.85261637369789
 20
185.0324956597219
 10
61.35422227647566
 20
186.4054351128471
 10
62.00741238064235
 20
187.0925249565969
 10
62.81218668619789
 20
187.0925249565969
 10
63.6369425455729
 20
187.0925249565969
 10
64.28806559244789
 20
186.3992339409721
 10
64.76486680772568
 20
185.0126519097221
 10
65.24166802300347
 20
183.6260698784719
 10
65.48006863064235
 20
181.7961040581594
 10
65.48006863064235
 20
179.5239946831596
 10
65.48006863064235
 20
177.3734282769096
 10
65.27336290147568
 20
175.4715288628468
 10
64.86132948133678
 20
173.8176763237846
 10
64.4492960611979
 20
172.1632036675344
 10
63.78094753689235
 20
171.3365874565971
 10
62.85697292751734
 20
171.3365874565971
 97
        1
330
388
 92
        1
 93
        1
 72
     4
 94
        3
 73
     0
 74
     0
 95
       29
 96
       25
 40
0.0
 40
0.0
 40
0.0
 40
0.0
 40
1.0
 40
1.0
 40
1.0
 40
2.0
 40
2.0
 40
2.0
 40
3.0
 40
3.0
 40
3.0
 40
4.0
 40
4.0
 40
4.0
 40
5.0
 40
5.0
 40
5.0
 40
6.0
 40
6.0
 40
6.0
 40
7.0
 40
7.0
 40
7.0
 40
8.0
 40
8.0
 40
8.0
 40
8.0
 10
62.76119927300346
 20
189.4340874565971
 10
61.47273356119789
 20
189.4340874565971
 10
60.50121663411457
 20
188.2397417534719
 10
59.84733751085068
 20
185.8516704644094
 10
59.3395304361979
 20
183.9900786675344
 10
59.08597140842012
 20
181.7514556206596
 10
59.08597140842012
 20
179.1351812065971
 10
59.08597140842012
 20
176.2379937065971
 10
59.3836276584201
 20
173.8412407769094
 10
59.9789401584201
 20
171.9449224175346
 10
60.6424655490451
 20
169.9779106987846
 10
61.5602389865451
 20
168.9950249565971
 10
62.7315714518229
 20
168.9950249565971
 10
63.9904093424479
 20
168.9950249565971
 10
64.95641411675345
 20
170.1186773003469
 10
65.63027479383679
 20
172.3659819878471
 10
66.20629475911457
 20
174.2796636284719
 10
66.49430474175345
 20
176.6813774956592
 10
66.49430474175345
 20
179.5698833550344
 10
66.49430474175345
 20
182.2388677300342
 10
66.24005669487845
 20
184.4291216362844
 10
65.73293863932289
 20
186.1412651909719
 10
65.08870578342011
 20
188.3364800347219
 10
64.09789632161457
 20
189.4340874565971
 10
62.76119927300346
 20
189.4340874565971
 97
        0
 75
     0
 76
     1
 98
        0
  0
HATCH
  5
39F
330
382
100
AcDbEntity
  8
0
  6
Continuous
100
AcDbHatch
 10
0.0
 20
0.0
 30
0.0
210
0.0
220
0.0
230
1.0
  2
SOLID
 70
     1
 71
     1
 91
        1
 92
        1
 93
        1
 72
     4
 94
        3
 73
     0
 74
     0
 95
       59
 96
       55
 40
0.0
 40
0.0
 40
0.0
 40
0.0
 40
1.0
 40
1.0
 40
1.0
 40
2.0
 40
2.0
 40
2.0
 40
3.0
 40
3.0
 40
3.0
 40
4.0
 40
4.0
 40
4.0
 40
5.0
 40
5.0
 40
5.0
 40
6.0
 40
6.0
 40
6.0
 40
7.0
 40
7.0
 40
7.0
 40
8.0
 40
8.0
 40
8.0
 40
9.0
 40
9.0
 40
9.0
 40
10.0
 40
10.0
 40
10.0
 40
11.0
 40
11.0
 40
11.0
 40
12.0
 40
12.0
 40
12.0
 40
13.0
 40
13.0
 40
13.0
 40
14.0
 40
14.0
 40
14.0
 40
15.0
 40
15.0
 40
15.0
 40
16.0
 40
16.0
 40
16.0
 40
17.0
 40
17.0
 40
17.0
 40
18.0
 40
18.0
 40
18.0
 40
18.0
 10
49.39440104166666
 20
189.0932159288193
 10
49.39440104166666
 20
189.0932159288193
 10
51.24786241319444
 20
189.0932159288193
 10
51.24786241319444
 20
189.0932159288193
 10
51.24786241319444
 20
189.0932159288193
 10
54.04665798611111
 20
172.3887471788193
 10
54.04665798611111
 20
172.3887471788193
 10
54.04665798611111
 20
172.3887471788193
 10
56.83994140624999
 20
189.0932159288193
 10
56.83994140624999
 20
189.0932159288193
 10
56.83994140624999
 20
189.0932159288193
 10
58.69891493055553
 20
189.0932159288193
 10
58.69891493055553
 20
189.0932159288193
 10
58.69891493055553
 20
189.0932159288193
 10
58.69891493055553
 20
169.3358964843748
 10
58.69891493055553
 20
169.3358964843748
 10
58.69891493055553
 20
169.3358964843748
 10
57.46419270833333
 20
169.3358964843748
 10
57.46419270833333
 20
169.3358964843748
 10
57.46419270833333
 20
169.3358964843748
 10
57.46419270833333
 20
180.9964422743054
 10
57.46419270833333
 20
180.9964422743054
 10
57.46419270833333
 20
181.3996011284721
 10
57.47108289930555
 20
182.0677291666664
 10
57.48624131944444
 20
183.0001924913193
 10
57.50071072048609
 20
183.9326558159721
 10
57.50828993055553
 20
184.932312282986
 10
57.50828993055553
 20
185.9997957899304
 10
57.50828993055553
 20
185.9997957899304
 10
54.700537109375
 20
169.3358964843748
 10
54.700537109375
 20
169.3358964843748
 10
54.700537109375
 20
169.3358964843748
 10
53.38382161458333
 20
169.3358964843748
 10
53.38382161458333
 20
169.3358964843748
 10
53.38382161458333
 20
169.3358964843748
 10
50.58502604166665
 20
185.9997957899304
 10
50.58502604166665
 20
185.9997957899304
 10
50.58502604166665
 20
185.9997957899304
 10
50.58502604166665
 20
185.3944236111109
 10
50.58502604166665
 20
185.3944236111109
 10
50.58502604166665
 20
184.9101258680554
 10
50.59191623263888
 20
184.1729029947915
 10
50.60707465277777
 20
183.1821210937498
 10
50.62154405381942
 20
182.1913391927082
 10
50.62912326388889
 20
181.4629908854165
 10
50.62912326388889
 20
180.9964422743054
 10
50.62912326388889
 20
180.9964422743054
 10
50.62912326388889
 20
169.3358964843748
 10
50.62912326388889
 20
169.3358964843748
 10
50.62912326388889
 20
169.3358964843748
 10
49.39440104166666
 20
169.3358964843748
 10
49.39440104166666
 20
169.3358964843748
 10
49.39440104166666
 20
169.3358964843748
 10
49.39440104166666
 20
189.0932159288193
 10
49.39440104166666
 20
189.0932159288193
 97
        1
330
387
 75
     0
 76
     1
 98
        1
 10
0.0
 20
0.0
  0
HATCH
  5
3A0
330
382
100
AcDbEntity
  8
0
  6
Continuous
100
AcDbHatch
 10
0.0
 20
0.0
 30
0.0
210
0.0
220
0.0
230
1.0
  2
SOLID
 70
     1
 71
     1
 91
        2
 92
       16
 93
        1
 72
     4
 94
        3
 73
     0
 74
     0
 95
       32
 96
       28
 40
0.0
 40
0.0
 40
0.0
 40
0.0
 40
1.0
 40
1.0
 40
1.0
 40
2.0
 40
2.0
 40
2.0
 40
3.0
 40
3.0
 40
3.0
 40
4.0
 40
4.0
 40
4.0
 40
5.0
 40
5.0
 40
5.0
 40
6.0
 40
6.0
 40
6.0
 40
7.0
 40
7.0
 40
7.0
 40
8.0
 40
8.0
 40
8.0
 40
9.0
 40
9.0
 40
9.0
 40
9.0
 10
91.70051812065969
 20
171.6077853732634
 10
91.70051812065969
 20
171.6077853732634
 10
91.70051812065969
 20
186.7401881510414
 10
91.70051812065969
 20
186.7401881510414
 10
91.70051812065969
 20
186.7401881510414
 10
93.98668348524305
 20
186.7401881510414
 10
93.98668348524305
 20
186.7401881510414
 10
95.02159016927082
 20
186.7401881510414
 10
95.77331000434028
 20
186.0644533420137
 10
96.24322102864582
 20
184.7142515190969
 10
96.71313205295138
 20
183.3640496961804
 10
96.94808756510417
 20
181.4680620659721
 10
96.94808756510417
 20
179.0262886284719
 10
96.94808756510417
 20
178.3911232638887
 10
96.91432562934028
 20
177.7027105034721
 10
96.84749077690971
 20
176.9604164496524
 10
96.7324245876736
 20
175.7167094184024
 10
96.55052354600693
 20
174.6974021267359
 10
96.30109863281248
 20
173.901860677083
 10
95.98414984809028
 20
172.9091770833332
 10
95.57693956163193
 20
172.2378795572914
 10
95.07877875434026
 20
171.8892358940971
 10
94.79076877170138
 20
171.7016022135415
 10
94.43178982204859
 20
171.6077853732634
 10
94.00115288628471
 20
171.6077853732634
 10
94.00115288628471
 20
171.6077853732634
 10
91.70051812065969
 20
171.6077853732634
 10
91.70051812065969
 20
171.6077853732634
 97
        1
330
38C
 92
        1
 93
        1
 72
     4
 94
        3
 73
     0
 74
     0
 95
       26
 96
       22
 40
0.0
 40
0.0
 40
0.0
 40
0.0
 40
1.0
 40
1.0
 40
1.0
 40
2.0
 40
2.0
 40
2.0
 40
3.0
 40
3.0
 40
3.0
 40
4.0
 40
4.0
 40
4.0
 40
5.0
 40
5.0
 40
5.0
 40
6.0
 40
6.0
 40
6.0
 40
7.0
 40
7.0
 40
7.0
 40
7.0
 10
90.37760145399305
 20
169.3358964843748
 10
90.37760145399305
 20
169.3358964843748
 10
94.22990722656248
 20
169.3358964843748
 10
94.22990722656248
 20
169.3358964843748
 10
95.87115071614581
 20
169.3358964843748
 10
97.03008083767359
 20
170.8331625434026
 10
97.70600857204859
 20
173.8283285590274
 10
98.08221299913194
 20
175.5227367621523
 10
98.27100423177082
 20
177.4187243923609
 10
98.27100423177082
 20
179.5169253472221
 10
98.27100423177082
 20
182.233810329861
 10
97.94716525607638
 20
184.4619602864582
 10
97.30086534288195
 20
186.2013752170135
 10
96.57601725260416
 20
188.129057725694
 10
95.5576470269097
 20
189.0932159288193
 10
94.24437662760416
 20
189.0932159288193
 10
94.24437662760416
 20
189.0932159288193
 10
90.37760145399305
 20
189.0932159288193
 10
90.37760145399305
 20
189.0932159288193
 10
90.37760145399305
 20
189.0932159288193
 10
90.37760145399305
 20
169.3358964843748
 10
90.37760145399305
 20
169.3358964843748
 97
        0
 75
     0
 76
     1
 98
        0
  0
HATCH
  5
3A1
330
382
100
AcDbEntity
  8
0
  6
Continuous
100
AcDbHatch
 10
0.0
 20
0.0
 30
0.0
210
0.0
220
0.0
230
1.0
  2
SOLID
 70
     1
 71
     1
 91
        2
 92
       16
 93
        1
 72
     4
 94
        3
 73
     0
 74
     0
 95
       26
 96
       22
 40
0.0
 40
0.0
 40
0.0
 40
0.0
 40
1.0
 40
1.0
 40
1.0
 40
2.0
 40
2.0
 40
2.0
 40
3.0
 40
3.0
 40
3.0
 40
4.0
 40
4.0
 40
4.0
 40
5.0
 40
5.0
 40
5.0
 40
6.0
 40
6.0
 40
6.0
 40
7.0
 40
7.0
 40
7.0
 40
7.0
 10
100.5623372395832
 20
180.046229817708
 10
100.5623372395832
 20
180.046229817708
 10
100.5623372395832
 20
186.7401881510414
 10
100.5623372395832
 20
186.7401881510414
 10
100.5623372395832
 20
186.7401881510414
 10
103.6732584635416
 20
186.7401881510414
 10
103.6732584635416
 20
186.7401881510414
 10
104.1107855902777
 20
186.7401881510414
 10
104.4580512152777
 20
186.6064357638887
 10
104.7150553385415
 20
186.3401987847217
 10
105.2097710503471
 20
185.8330807291664
 10
105.4571289062496
 20
184.8822343749995
 10
105.4571289062496
 20
183.4863919270832
 10
105.4571289062496
 20
182.188169704861
 10
105.280740017361
 20
181.2905707465276
 10
104.9286512586804
 20
180.7929611545137
 10
104.5765624999999
 20
180.2947176649304
 10
104.1011393229166
 20
180.046229817708
 10
103.5023817274304
 20
180.046229817708
 10
103.5023817274304
 20
180.046229817708
 10
100.5623372395832
 20
180.046229817708
 10
100.5623372395832
 20
180.046229817708
 97
        1
330
38D
 92
        1
 93
        1
 72
     4
 94
        3
 73
     0
 74
     0
 95
       68
 96
       64
 40
0.0
 40
0.0
 40
0.0
 40
0.0
 40
1.0
 40
1.0
 40
1.0
 40
2.0
 40
2.0
 40
2.0
 40
3.0
 40
3.0
 40
3.0
 40
4.0
 40
4.0
 40
4.0
 40
5.0
 40
5.0
 40
5.0
 40
6.0
 40
6.0
 40
6.0
 40
7.0
 40
7.0
 40
7.0
 40
8.0
 40
8.0
 40
8.0
 40
9.0
 40
9.0
 40
9.0
 40
10.0
 40
10.0
 40
10.0
 40
11.0
 40
11.0
 40
11.0
 40
12.0
 40
12.0
 40
12.0
 40
13.0
 40
13.0
 40
13.0
 40
14.0
 40
14.0
 40
14.0
 40
15.0
 40
15.0
 40
15.0
 40
16.0
 40
16.0
 40
16.0
 40
17.0
 40
17.0
 40
17.0
 40
18.0
 40
18.0
 40
18.0
 40
19.0
 40
19.0
 40
19.0
 40
20.0
 40
20.0
 40
20.0
 40
21.0
 40
21.0
 40
21.0
 40
21.0
 10
99.23942057291661
 20
169.3358964843748
 10
99.23942057291661
 20
169.3358964843748
 10
100.5623372395832
 20
169.3358964843748
 10
100.5623372395832
 20
169.3358964843748
 10
100.5623372395832
 20
169.3358964843748
 10
100.5623372395832
 20
177.8149103732637
 10
100.5623372395832
 20
177.8149103732637
 10
100.5623372395832
 20
177.8149103732637
 10
103.4472601996527
 20
177.8149103732637
 10
103.4472601996527
 20
177.8149103732637
 10
103.9681586371527
 20
177.8149103732637
 10
104.3519422743053
 20
177.6938359374998
 10
104.5986111111109
 20
177.4516870659718
 10
105.0244249131943
 20
177.0117621527776
 10
105.2518012152777
 20
176.1458580729164
 10
105.280740017361
 20
174.8539748263887
 10
105.280740017361
 20
174.8539748263887
 10
105.3689344618053
 20
171.5564396701385
 10
105.3689344618053
 20
171.5564396701385
 10
105.3882269965277
 20
170.7843524305554
 10
105.4109646267359
 20
170.2639225260415
 10
105.4357693142359
 20
169.9951499565971
 10
105.4605740017358
 20
169.725743489583
 10
105.4970920138888
 20
169.5057810329859
 10
105.5467013888887
 20
169.3358964843748
 10
105.5467013888887
 20
169.3358964843748
 10
107.1769205729166
 20
169.3358964843748
 10
107.1769205729166
 20
169.3358964843748
 10
107.1769205729166
 20
169.3358964843748
 10
107.1769205729166
 20
169.7821603732634
 10
107.1769205729166
 20
169.7821603732634
 10
106.9750379774303
 20
169.9609194878471
 10
106.8337890624996
 20
170.3628105468748
 10
106.7538628472221
 20
170.9878335503471
 10
106.7028754340274
 20
171.3542263454858
 10
106.6677354600692
 20
171.9120562065971
 10
106.6477539062496
 20
172.6625909288193
 10
106.6477539062496
 20
172.6625909288193
 10
106.6036566840277
 20
175.3205234374999
 10
106.6036566840277
 20
175.3205234374999
 10
106.5836751302082
 20
176.4716814236109
 10
106.4768771701387
 20
177.3033550347219
 10
106.2839518229166
 20
177.814276475694
 10
106.0903374565971
 20
178.3251979166665
 10
105.8002604166666
 20
178.7372313368054
 10
105.4130316840276
 20
179.0516445312498
 10
105.8443576388885
 20
179.5086846788193
 10
106.179909939236
 20
180.1134229600693
 10
106.4196885850692
 20
180.866493272569
 10
106.6594672309027
 20
181.6189296874999
 10
106.7800455729166
 20
182.5868912760412
 10
106.7800455729166
 20
183.7697441406248
 10
106.7800455729166
 20
186.0371957465273
 10
106.3328721788193
 20
187.5921464843749
 10
105.4392144097221
 20
188.4345963541665
 10
104.9679253472221
 20
188.8732534722221
 10
104.3719238281249
 20
189.0932159288193
 10
103.6512098524303
 20
189.0932159288193
 10
103.6512098524303
 20
189.0932159288193
 10
99.23942057291661
 20
189.0932159288193
 10
99.23942057291661
 20
189.0932159288193
 10
99.23942057291661
 20
189.0932159288193
 10
99.23942057291661
 20
169.3358964843748
 10
99.23942057291661
 20
169.3358964843748
 97
        0
 75
     0
 76
     1
 98
        0
  0
HATCH
  5
3A2
330
382
100
AcDbEntity
  8
0
  6
Continuous
100
AcDbHatch
 10
0.0
 20
0.0
 30
0.0
210
0.0
220
0.0
230
1.0
  2
SOLID
 70
     1
 71
     1
 91
        2
 92
        1
 93
        8
 72
     1
 10
35.47828233506943
 20
189.0932159288193
 11
31.83957248263888
 21
169.3358964843748
 72
     1
 10
31.83957248263888
 20
169.3358964843748
 11
33.22450086805555
 21
169.3358964843748
 72
     1
 10
33.22450086805555
 20
169.3358964843748
 11
34.27043185763887
 21
175.2590353732638
 72
     1
 10
34.27043185763887
 20
175.2590353732638
 11
38.04694552951389
 21
175.2590353732638
 72
     1
 10
38.04694552951389
 20
175.2590353732638
 11
39.05015733506942
 21
169.3358964843748
 72
     1
 10
39.05015733506942
 20
169.3358964843748
 11
40.43508572048611
 21
169.3358964843748
 72
     1
 10
40.43508572048611
 20
169.3358964843748
 11
36.952783203125
 21
189.0932159288193
 72
     1
 10
36.952783203125
 20
189.0932159288193
 11
35.47828233506943
 21
189.0932159288193
 97
        8
330
39D
330
396
330
397
330
398
330
399
330
39A
330
39B
330
39C
 92
       16
 93
        3
 72
     1
 10
37.67556423611111
 20
177.4497853732638
 11
34.65766059027778
 21
177.4497853732638
 72
     1
 10
34.65766059027778
 20
177.4497853732638
 11
36.19830729166666
 21
186.1658769531249
 72
     1
 10
36.19830729166666
 20
186.1658769531249
 11
37.67556423611111
 21
177.4497853732638
 97
        3
330
395
330
393
330
394
 75
     0
 76
     1
 98
        1
 10
0.0
 20
0.0
  0
HATCH
  5
3A3
330
382
100
AcDbEntity
  8
0
  6
Continuous
100
AcDbHatch
 10
0.0
 20
0.0
 30
0.0
210
0.0
220
0.0
230
1.0
  2
SOLID
 70
     1
 71
     1
 91
        1
 92
        1
 93
        1
 72
     4
 94
        3
 73
     0
 74
     0
 95
      113
 96
      109
 40
0.0
 40
0.0
 40
0.0
 40
0.0
 40
1.0
 40
1.0
 40
1.0
 40
2.0
 40
2.0
 40
2.0
 40
3.0
 40
3.0
 40
3.0
 40
4.0
 40
4.0
 40
4.0
 40
5.0
 40
5.0
 40
5.0
 40
6.0
 40
6.0
 40
6.0
 40
7.0
 40
7.0
 40
7.0
 40
8.0
 40
8.0
 40
8.0
 40
9.0
 40
9.0
 40
9.0
 40
10.0
 40
10.0
 40
10.0
 40
11.0
 40
11.0
 40
11.0
 40
12.0
 40
12.0
 40
12.0
 40
13.0
 40
13.0
 40
13.0
 40
14.0
 40
14.0
 40
14.0
 40
15.0
 40
15.0
 40
15.0
 40
16.0
 40
16.0
 40
16.0
 40
17.0
 40
17.0
 40
17.0
 40
18.0
 40
18.0
 40
18.0
 40
19.0
 40
19.0
 40
19.0
 40
20.0
 40
20.0
 40
20.0
 40
21.0
 40
21.0
 40
21.0
 40
22.0
 40
22.0
 40
22.0
 40
23.0
 40
23.0
 40
23.0
 40
24.0
 40
24.0
 40
24.0
 40
25.0
 40
25.0
 40
25.0
 40
26.0
 40
26.0
 40
26.0
 40
27.0
 40
27.0
 40
27.0
 40
28.0
 40
28.0
 40
28.0
 40
29.0
 40
29.0
 40
29.0
 40
30.0
 40
30.0
 40
30.0
 40
31.0
 40
31.0
 40
31.0
 40
32.0
 40
32.0
 40
32.0
 40
33.0
 40
33.0
 40
33.0
 40
34.0
 40
34.0
 40
34.0
 40
35.0
 40
35.0
 40
35.0
 40
36.0
 40
36.0
 40
36.0
 40
36.0
 10
193.3039632161458
 20
186.1548733181423
 10
193.3039632161458
 20
186.1860514322916
 10
193.3039632161458
 20
219.6932223849826
 10
193.3039632161458
 20
219.6932223849826
 10
193.3039632161458
 20
219.6932223849826
 10
193.2974175347219
 20
219.7488606770833
 10
193.2974175347219
 20
219.7488606770833
 10
191.5293945312499
 20
235.455740017361
 10
175.1458984374999
 20
235.2467949761284
 10
174.9808783637151
 20
235.2428331163193
 10
174.9808783637151
 20
235.2428331163193
 10
125.8827555338541
 20
235.2430053710937
 10
125.8827555338541
 20
235.2430053710937
 10
125.8827555338541
 20
235.2430053710937
 10
125.8827555338541
 20
255.5278998480901
 10
125.8827555338541
 20
255.5278998480901
 10
125.8827555338541
 20
255.5278998480901
 10
84.5626247829861
 20
255.5278998480901
 10
84.5626247829861
 20
255.5278998480901
 10
84.5626247829861
 20
255.5278998480901
 10
84.55711263020829
 20
233.7919311523436
 10
84.55711263020829
 20
233.7919311523436
 10
84.55711263020829
 20
233.7919311523436
 10
64.42052951388888
 20
233.7919311523436
 10
64.42052951388888
 20
233.7919311523436
 10
64.42052951388888
 20
233.7919311523436
 10
64.41501736111111
 20
255.5278998480901
 10
64.41501736111111
 20
255.5278998480901
 10
64.41501736111111
 20
255.5278998480901
 10
23.91757541232637
 20
255.5278998480901
 10
23.91757541232637
 20
255.5278998480901
 10
23.91757541232637
 20
255.5278998480901
 10
23.91757541232637
 20
233.2393378363715
 10
23.91757541232637
 20
233.2393378363715
 10
23.91757541232637
 20
233.2393378363715
 10
43.65624999999999
 20
233.2393378363715
 10
43.65624999999999
 20
233.2393378363715
 10
43.65624999999999
 20
233.2393378363715
 10
43.65624999999999
 20
211.5188720703125
 10
43.65624999999999
 20
211.5188720703125
 10
43.65624999999999
 20
211.5188720703125
 10
23.91757541232637
 20
211.5188720703125
 10
23.91757541232637
 20
211.5188720703125
 10
23.91757541232637
 20
211.5188720703125
 10
23.91757541232637
 20
189.2303100585936
 10
23.91757541232637
 20
189.2303100585936
 10
23.91757541232637
 20
189.2303100585936
 10
64.41501736111111
 20
189.2303100585936
 10
64.41501736111111
 20
189.2303100585936
 10
64.41501736111111
 20
189.2303100585936
 10
64.42052951388888
 20
211.069976128472
 10
64.42052951388888
 20
211.069976128472
 10
64.42052951388888
 20
211.069976128472
 10
84.55711263020829
 20
211.069976128472
 10
84.55711263020829
 20
211.069976128472
 10
84.55711263020829
 20
211.069976128472
 10
84.5626247829861
 20
189.2303100585936
 10
84.5626247829861
 20
189.2303100585936
 10
84.5626247829861
 20
189.2303100585936
 10
125.8827555338541
 20
189.2303100585936
 10
125.8827555338541
 20
189.2303100585936
 10
125.8827555338541
 20
189.2303100585936
 10
125.8827555338541
 20
211.5188720703125
 10
125.8827555338541
 20
211.5188720703125
 10
125.8827555338541
 20
211.5188720703125
 10
105.3213921440971
 20
211.5188720703125
 10
105.3213921440971
 20
211.5188720703125
 10
105.3213921440971
 20
211.5188720703125
 10
105.3213921440971
 20
233.2393378363715
 10
105.3213921440971
 20
233.2393378363715
 10
105.3213921440971
 20
233.2393378363715
 10
175.0046495225693
 20
233.243127441406
 10
175.0046495225693
 20
233.243127441406
 10
175.6268337673611
 20
233.2560465494791
 10
189.7165852864583
 20
233.3962619357638
 10
191.3037407769094
 20
219.5690266927083
 10
191.3037407769094
 20
219.4332899305555
 10
191.3037407769094
 20
186.1142211914062
 10
191.3037407769094
 20
186.1142211914062
 10
191.3037407769094
 20
186.1142211914062
 10
191.3051188151039
 20
186.0880384657115
 10
191.3051188151039
 20
186.0880384657115
 10
191.3054633246526
 20
186.0787367078991
 10
191.3109754774304
 20
185.9566080729166
 10
191.3109754774304
 20
185.7399115668401
 10
191.3109754774304
 20
184.2090833875865
 10
191.0488037109374
 20
177.9643310546874
 10
186.9866916232638
 20
173.5652886284722
 10
184.2540418836804
 20
170.6064683702255
 10
180.3224989149304
 20
169.0308539496526
 10
175.300927734375
 20
168.8825425889756
 10
175.300927734375
 20
168.8825425889756
 10
107.0094889322916
 20
168.8828870985243
 10
107.0094889322916
 20
168.8828870985243
 10
107.0094889322916
 20
168.8828870985243
 10
107.0094889322916
 20
166.8830091688368
 10
107.0094889322916
 20
166.8830091688368
 10
107.0094889322916
 20
166.8830091688368
 10
175.3305555555555
 20
166.8830091688368
 10
175.3305555555555
 20
166.8830091688368
 10
180.9467502170138
 20
167.0485460069444
 10
185.3571614583333
 20
168.8448187934026
 10
188.4687717013888
 20
172.2223904079861
 10
192.9649658203124
 20
177.1034016927083
 10
193.3136094835069
 20
183.7202243381076
 10
193.3136094835069
 20
185.6520616319443
 10
193.3136094835069
 20
185.9247409396701
 10
193.3070638020833
 20
186.0868326822916
 10
193.3039632161458
 20
186.1548733181423
 97
        1
330
383
 75
     0
 76
     1
 98
        1
 10
0.0
 20
0.0
  0
HATCH
  5
3A4
330
382
100
AcDbEntity
  8
0
  6
Continuous
100
AcDbHatch
 10
0.0
 20
0.0
 30
0.0
210
0.0
220
0.0
230
1.0
  2
SOLID
 70
     1
 71
     1
 91
        2
 92
        1
 93
        1
 72
     4
 94
        3
 73
     0
 74
     0
 95
       23
 96
       19
 40
0.0
 40
0.0
 40
0.0
 40
0.0
 40
1.0
 40
1.0
 40
1.0
 40
2.0
 40
2.0
 40
2.0
 40
3.0
 40
3.0
 40
3.0
 40
4.0
 40
4.0
 40
4.0
 40
5.0
 40
5.0
 40
5.0
 40
6.0
 40
6.0
 40
6.0
 40
6.0
 10
148.6593153211804
 20
211.3929538302948
 10
148.6593153211804
 20
211.3929538302948
 10
148.6593153211804
 20
189.6308024088539
 10
148.6593153211804
 20
189.6308024088539
 10
148.6593153211804
 20
189.6308024088539
 10
161.3152180989583
 20
189.6308024088539
 10
161.3152180989583
 20
189.6308024088539
 10
162.8431179470483
 20
189.6308024088539
 10
170.4657362196178
 20
190.1880466037321
 10
170.4657362196178
 20
201.1911648220483
 10
170.4657362196178
 20
211.1288872612844
 10
162.3356553819444
 20
211.3914035373261
 10
162.2536621093749
 20
211.3927815755205
 10
162.2536621093749
 20
211.3927815755205
 10
149.6594265407986
 20
211.3929538302948
 10
149.6594265407986
 20
211.3929538302948
 10
149.6594265407986
 20
211.3929538302948
 10
148.6593153211804
 20
211.3929538302948
 10
148.6593153211804
 20
211.3929538302948
 97
        1
330
384
 92
       16
 93
        1
 72
     4
 94
        3
 73
     0
 74
     0
 95
       20
 96
       16
 40
0.0
 40
0.0
 40
0.0
 40
0.0
 40
1.0
 40
1.0
 40
1.0
 40
2.0
 40
2.0
 40
2.0
 40
3.0
 40
3.0
 40
3.0
 40
4.0
 40
4.0
 40
4.0
 40
5.0
 40
5.0
 40
5.0
 40
5.0
 10
162.2354031032983
 20
209.3930759006072
 10
162.467947048611
 20
209.3861857096351
 10
168.4655137803819
 20
209.1283203124997
 10
168.4655137803819
 20
201.1911648220483
 10
168.4655137803819
 20
192.3202162000865
 10
162.9926350911458
 20
191.6306803385413
 10
161.3152180989583
 20
191.6306803385413
 10
161.3152180989583
 20
191.6306803385413
 10
152.3310980902776
 20
191.6306803385413
 10
150.6595377604166
 20
191.6306803385413
 10
150.6595377604166
 20
193.3373806423608
 10
150.6595377604166
 20
207.6863755967879
 10
150.6595377604166
 20
209.3930759006072
 10
152.3538357204859
 20
209.3930759006072
 10
162.2354031032983
 20
209.3930759006072
 10
162.2354031032983
 20
209.3930759006072
 97
        0
 75
     0
 76
     1
 98
        0
  0
ENDBLK
  5
3A6
330
382
100
AcDbEntity
  8
0
100
AcDbBlockEnd
  0
BLOCK
  5
3A9
330
3A7
100
AcDbEntity
  8
0
100
AcDbBlockBegin
  2
HD logo-new
 70
     0
 10
0.0
 20
0.0
 30
0.0
  3
HD logo-new
  1

  0
INSERT
  5
3A8
330
3A7
100
AcDbEntity
  8
0
 62
     3
100
AcDbBlockReference
  2
HD_LLC_logo_OT5
 10
-27.1607188578505
 20
-68.37367811463031
 30
0.0
 41
0.2999999999999971
 42
0.3000000000000007
 43
0.3
  0
ENDBLK
  5
3AA
330
3A7
100
AcDbEntity
  8
0
100
AcDbBlockEnd
  0
BLOCK
  5
3AD
330
3AB
100
AcDbEntity
  8
0
100
AcDbBlockBegin
  2
HD Logo
 70
     0
 10
0.0
 20
0.0
 30
0.0
  3
HD Logo
  1

  0
INSERT
  5
3AC
330
3AB
100
AcDbEntity
  8
0
100
AcDbBlockReference
  2
HD logo-new
 10
0.9700256734946606
 20
7.273795608420527
 30
0.0
  0
ENDBLK
  5
3AE
330
3AB
100
AcDbEntity
  8
0
100
AcDbBlockEnd
  0
BLOCK
  5
3B8
330
3B6
100
AcDbEntity
  8
0
100
AcDbBlockBegin
  2
HD LLC
 70
     0
 10
0.0
 20
0.0
 30
0.0
  3
HD LLC
  1

  0
MTEXT
  5
3B7
330
3B6
100
AcDbEntity
  8
0
100
AcDbMText
 10
-2.314970886968865
 20
1.247205085865914
 30
0.0
 40
5.675387507387601
 41
236.1828726592229
 71
     5
 72
     5
  1
Harmonic Drive LLC\P800-921-3332\Pwww.harmonicdrive.net
 73
     1
 44
1.0
  0
ENDBLK
  5
3B9
330
3B6
100
AcDbEntity
  8
0
100
AcDbBlockEnd
  0
BLOCK
  5
3CC
330
3C9
100
AcDbEntity
  8
0
100
AcDbBlockBegin
  2
NTC
 70
     0
 10
0.0
 20
0.0
 30
0.0
  3
NTC
  1

  0
LWPOLYLINE
  5
3CA
330
3C9
100
AcDbEntity
  8
0
100
AcDbPolyline
 90
        8
 70
     1
 43
0.0
 10
4.581008201925953
 20
-10.78862239032818
 10
319.3921777697513
 20
-10.78862239032818
 42
-0.4142135623730951
 10
324.9046777697513
 20
-16.30112239032816
 10
324.9046777697513
 20
-117.4075202476924
 42
-0.4142135623730951
 10
319.3921777697513
 20
-122.9200202476925
 10
4.581008201925839
 20
-122.9200202476925
 42
-0.4142135623730951
 10
-0.9314917980741483
 20
-117.4075202476924
 10
-0.9314917980740915
 20
-16.30112239032816
 42
-0.4142135623730951
  0
MTEXT
  5
3CB
330
3C9
100
AcDbEntity
  8
0
  6
Continuous
370
    30
100
AcDbMText
 10
21.65307678143926
 20
-17.4535155144544
 30
0.0
 40
8.75
 41
294.5432999999998
 71
     1
 72
     5
  3
{\fTxt|b1|i0|c0|p2;Notice:\P\Ftxt.shx;\H0.5714x;All specifications and dimensions shown in the drawing are subject to change without notice. This drawing is the property of Harmonic Drive LLC.   This data is believed to be accurate, however, Harmonic
  1
 Drive LLC assumes no liability for any errors or omissions in the specifications, models, or drawings.\P\PHarmonic Drive LLC\PTel: 800-921-3332\Pwww.harmonicdrive.net}
 73
     1
 44
1.0
  0
ENDBLK
  5
3CD
330
3C9
100
AcDbEntity
  8
0
100
AcDbBlockEnd
  0
ENDSEC
  0
SECTION
  2
ENTITIES
  0
LINE
  5
34
330
1E
100
AcDbEntity
  8
0
 62
     7
100
AcDbLine
 10
70.40000000003404
 20
-24.0
 30
0.0
 11
70.40000000003404
 21
24.0
 31
0.0
  0
LINE
  5
35
330
1E
100
AcDbEntity
  8
1
 62
     7
100
AcDbLine
 10
4.000000000000028
 20
71.0
 30
0.0
 11
4.000000000000028
 21
-71.0
 31
0.0
  0
LINE
  5
36
330
1E
100
AcDbEntity
  8
1
 62
     7
100
AcDbLine
 10
113.5000000000029
 20
-79.65600088503504
 30
0.0
 11
113.5
 21
-81.43499877684906
 31
0.0
  0
LINE
  5
37
330
1E
100
AcDbEntity
  8
1
 62
     7
100
AcDbLine
 10
41.99999994742372
 20
-79.65600088503504
 30
0.0
 11
113.5000000000029
 21
-79.65600088503504
 31
0.0
  0
LINE
  5
38
330
1E
100
AcDbEntity
  8
1
 62
     7
100
AcDbLine
 10
113.5000000000053
 20
79.65599911496507
 30
0.0
 11
113.5000000000187
 21
31.42930965502898
 31
0.0
  0
LINE
  5
39
330
1E
100
AcDbEntity
  8
1
 62
     7
100
AcDbLine
 10
113.5000000000053
 20
79.75599880205834
 30
0.0
 11
113.5000000000041
 21
79.75599880215975
 31
0.0
  0
LINE
  5
3A
330
1E
100
AcDbEntity
  8
1
 62
     7
100
AcDbLine
 10
41.99999994742621
 20
79.65599911496507
 30
0.0
 11
113.5000000000053
 21
79.65599911496507
 31
0.0
  0
LINE
  5
3B
330
1E
100
AcDbEntity
  8
1
 62
     7
100
AcDbLine
 10
113.5000000000041
 20
79.75599880215975
 30
0.0
 11
113.5000000000053
 21
79.75599880205834
 31
0.0
  0
LINE
  5
3C
330
1E
100
AcDbEntity
  8
1
 62
     7
100
AcDbLine
 10
113.5000000000027
 20
79.75599880215975
 30
0.0
 11
113.5000000000027
 21
79.75599880215975
 31
0.0
  0
LINE
  5
3D
330
1E
100
AcDbEntity
  8
2
  6
CENTER
 62
     3
100
AcDbLine
 10
124.4353520118579
 20
0.0
 30
0.0
 11
-7.5
 21
0.0
 31
0.0
  0
LINE
  5
3E
330
1E
100
AcDbEntity
  8
1
 62
     7
100
AcDbLine
 10
50.50000000016556
 20
-28.0
 30
0.0
 11
50.50000000007233
 21
-30.75
 31
0.0
  0
LINE
  5
3F
330
1E
100
AcDbEntity
  8
1
 62
     7
100
AcDbLine
 10
72.60000061426442
 20
-24.0
 30
0.0
 11
72.60000061426442
 21
-52.25
 31
0.0
  0
LINE
  5
40
330
1E
100
AcDbEntity
  8
1
 62
     7
100
AcDbLine
 10
70.40000000003404
 20
-24.0
 30
0.0
 11
72.60000061426442
 21
-24.0
 31
0.0
  0
LINE
  5
41
330
1E
100
AcDbEntity
  8
1
 62
     7
100
AcDbLine
 10
72.60000061426442
 20
24.0
 30
0.0
 11
72.60000061426442
 21
52.25
 31
0.0
  0
LINE
  5
42
330
1E
100
AcDbEntity
  8
1
 62
     7
100
AcDbLine
 10
70.40000000003404
 20
24.0
 30
0.0
 11
72.60000061426442
 21
24.0
 31
0.0
  0
LINE
  5
43
330
1E
100
AcDbEntity
  8
1
  6
CENTER
 62
     3
100
AcDbLine
 10
-191.995360618146
 20
43.42233802803047
 30
0.0
 11
-197.1764800430261
 21
30.91400924421021
 31
0.0
  0
LINE
  5
44
330
1E
100
AcDbEntity
  8
1
  6
CENTER
 62
     3
100
AcDbLine
 10
-166.5591439112746
 20
17.98612132115907
 30
0.0
 11
-179.0674726950949
 21
12.8050018962791
 31
0.0
  0
LINE
  5
45
330
1E
100
AcDbEntity
  8
1
  6
CENTER
 62
     3
100
AcDbLine
 10
-166.5591439112746
 20
-17.98612132115932
 30
0.0
 11
-179.0674726950949
 21
-12.80500189627924
 31
0.0
  0
LINE
  5
46
330
1E
100
AcDbEntity
  8
1
  6
CENTER
 62
     3
100
AcDbLine
 10
-191.995360618146
 20
-43.42233802803035
 30
0.0
 11
-197.1764800430261
 21
-30.91400924421021
 31
0.0
  0
LINE
  5
47
330
1E
100
AcDbEntity
  8
1
  6
CENTER
 62
     3
100
AcDbLine
 10
-227.9676032604644
 20
-43.42233802803035
 30
0.0
 11
-222.7864838355843
 21
-30.91400924421021
 31
0.0
  0
LINE
  5
48
330
1E
100
AcDbEntity
  8
1
  6
CENTER
 62
     3
100
AcDbLine
 10
-253.4038199673357
 20
-17.9861213211592
 30
0.0
 11
-240.8954911835154
 21
-12.80500189627924
 31
0.0
  0
LINE
  5
49
330
1E
100
AcDbEntity
  8
1
  6
CENTER
 62
     3
100
AcDbLine
 10
-253.4038199673357
 20
17.9861213211592
 30
0.0
 11
-240.8954911835154
 21
12.8050018962791
 31
0.0
  0
LINE
  5
4A
330
1E
100
AcDbEntity
  8
1
  6
CENTER
 62
     3
100
AcDbLine
 10
-227.9676032604644
 20
43.42233802803047
 30
0.0
 11
-222.7864838355843
 21
30.91400924421021
 31
0.0
  0
LINE
  5
4B
330
1E
100
AcDbEntity
  8
1
 62
     7
100
AcDbLine
 10
4.000000000000028
 20
-46.49999999999989
 30
0.0
 11
5.500000000165443
 21
-46.5
 31
0.0
  0
LINE
  5
4C
330
1E
100
AcDbEntity
  8
1
 62
     3
100
AcDbLine
 10
4.000000000000028
 20
-47.99999999999989
 30
0.0
 11
7.00000000016544
 21
-48.0
 31
0.0
  0
LINE
  5
4D
330
1E
100
AcDbEntity
  8
1
 62
     3
100
AcDbLine
 10
7.00000000016544
 20
-32.0
 30
0.0
 11
4.000000000000028
 21
-31.99999999999989
 31
0.0
  0
LINE
  5
4E
330
1E
100
AcDbEntity
  8
1
 62
     7
100
AcDbLine
 10
5.500000000165443
 20
-33.5
 30
0.0
 11
4.000000000000028
 21
-33.49999999999989
 31
0.0
  0
LINE
  5
4F
330
1E
100
AcDbEntity
  8
1
  6
CENTER
 62
     3
100
AcDbLine
 10
68.02986093645242
 20
-40.0
 30
0.0
 11
-7.698076211288308
 21
-40.0
 31
0.0
  0
LINE
  5
50
330
1E
100
AcDbEntity
  8
1
 62
     7
100
AcDbLine
 10
84.50000000002727
 20
-113.2000000000001
 30
0.0
 11
108.5000000000156
 21
-113.2000000000001
 31
0.0
  0
LINE
  5
51
330
1E
100
AcDbEntity
  8
1
 62
     7
100
AcDbLine
 10
84.50000000002727
 20
-122.7999999999999
 30
0.0
 11
108.5000000000156
 21
-122.7999999999999
 31
0.0
  0
LINE
  5
52
330
1E
100
AcDbEntity
  8
1
  6
CENTER
 62
     3
100
AcDbLine
 10
79.70000000002952
 20
-118.0
 30
0.0
 11
113.3000000000133
 21
-118.0
 31
0.0
  0
LINE
  5
53
330
1E
100
AcDbEntity
  8
1
 62
     3
100
AcDbLine
 10
84.50000000002727
 20
-112.0
 30
0.0
 11
108.5000000000156
 21
-112.0
 31
0.0
  0
LINE
  5
54
330
1E
100
AcDbEntity
  8
1
 62
     3
100
AcDbLine
 10
84.50000000002727
 20
-124.0
 30
0.0
 11
108.5000000000156
 21
-124.0
 31
0.0
  0
LINE
  5
55
330
1E
100
AcDbEntity
  8
1
 62
     7
100
AcDbLine
 10
84.49999999999475
 20
125.0
 30
0.0
 11
108.4999999999882
 21
125.0
 31
0.0
  0
LINE
  5
56
330
1E
100
AcDbEntity
  8
1
 62
     7
100
AcDbLine
 10
84.49999999999475
 20
111.0
 30
0.0
 11
108.4999999999882
 21
111.0
 31
0.0
  0
LINE
  5
57
330
1E
100
AcDbEntity
  8
1
  6
CENTER
 62
     3
100
AcDbLine
 10
82.09999999999544
 20
118.0
 30
0.0
 11
110.8999999999876
 21
118.0
 31
0.0
  0
LINE
  5
58
330
1E
100
AcDbEntity
  8
1
 62
     7
100
AcDbLine
 10
104.000000109562
 20
58.92799911496489
 30
0.0
 11
85.90000038141566
 21
58.92799911496489
 31
0.0
  0
LINE
  5
59
330
1E
100
AcDbEntity
  8
1
 62
     7
100
AcDbLine
 10
85.90000038141566
 20
-58.92799911473606
 30
0.0
 11
104.000000109562
 21
-58.92799911473606
 31
0.0
  0
LINE
  5
5A
330
1E
100
AcDbEntity
  8
1
  6
CENTER
 62
     3
100
AcDbLine
 10
461.0327006259565
 20
48.60079591036629
 30
0.0
 11
444.4028690407533
 21
41.71249412779467
 31
0.0
  0
LINE
  5
5B
330
1E
100
AcDbEntity
  8
1
  6
CENTER
 62
     3
100
AcDbLine
 10
461.0327006259563
 20
-48.6007959103664
 30
0.0
 11
444.4028690407531
 21
-41.7124941277948
 31
0.0
  0
LINE
  5
5C
330
1E
100
AcDbEntity
  8
1
  6
CENTER
 62
     3
100
AcDbLine
 10
392.3007959073892
 20
-117.3327006289335
 30
0.0
 11
385.4124941248176
 21
-100.7028690437304
 31
0.0
  0
LINE
  5
5D
330
1E
100
AcDbEntity
  8
1
  6
CENTER
 62
     3
100
AcDbLine
 10
392.3007959073892
 20
117.3327006289335
 30
0.0
 11
385.4124941248176
 21
100.7028690437303
 31
0.0
  0
LINE
  5
5E
330
1E
100
AcDbEntity
  8
1
  6
CENTER
 62
     3
100
AcDbLine
 10
434.5632213794943
 20
90.86322138247135
 30
0.0
 11
419.7139789745769
 21
76.01397897755385
 31
0.0
  0
LINE
  5
5F
330
1E
100
AcDbEntity
  8
1
  6
CENTER
 62
     3
100
AcDbLine
 10
434.5632213794941
 20
-90.86322138247135
 30
0.0
 11
419.7139789745767
 21
-76.01397897755385
 31
0.0
  0
LINE
  5
60
330
1E
100
AcDbEntity
  8
1
 62
     3
100
AcDbLine
 10
32.70000000000001
 20
-102.0
 30
0.0
 11
39.00000000000002
 21
-102.0
 31
0.0
  0
LINE
  5
61
330
1E
100
AcDbEntity
  8
1
 62
     3
100
AcDbLine
 10
32.70000000000001
 20
-96.0
 30
0.0
 11
39.00000000000002
 21
-96.0
 31
0.0
  0
LINE
  5
62
330
1E
100
AcDbEntity
  8
1
 62
     7
100
AcDbLine
 10
33.50000000000012
 20
-101.2000000000001
 30
0.0
 11
39.00000000000002
 21
-101.2000000000001
 31
0.0
  0
LINE
  5
63
330
1E
100
AcDbEntity
  8
1
 62
     7
100
AcDbLine
 10
33.50000000000012
 20
-96.79999999999997
 30
0.0
 11
39.00000000000002
 21
-96.79999999999997
 31
0.0
  0
LINE
  5
64
330
1E
100
AcDbEntity
  8
1
 62
     7
100
AcDbLine
 10
112.9999999999879
 20
-88.49999999999999
 30
0.0
 11
113.5000000000022
 21
-88.0
 31
0.0
  0
LINE
  5
65
330
1E
100
AcDbEntity
  8
1
 62
     7
100
AcDbLine
 10
108.5000000000022
 20
-88.49999999999999
 30
0.0
 11
112.9999999999879
 21
-88.49999999999999
 31
0.0
  0
LINE
  5
66
330
1E
100
AcDbEntity
  8
1
 62
     7
100
AcDbLine
 10
113.0000000000052
 20
88.49999999999999
 30
0.0
 11
113.5000000000004
 21
88.0
 31
0.0
  0
LINE
  5
67
330
1E
100
AcDbEntity
  8
1
 62
     7
100
AcDbLine
 10
108.499999999968
 20
88.49999999999999
 30
0.0
 11
113.0000000000052
 21
88.49999999999999
 31
0.0
  0
LINE
  5
68
330
1E
100
AcDbEntity
  8
1
 62
     7
100
AcDbLine
 10
113.5000000000004
 20
88.0
 30
0.0
 11
113.5
 21
83.63099876077148
 31
0.0
  0
LINE
  5
69
330
1E
100
AcDbEntity
  8
1
 62
     7
100
AcDbLine
 10
108.5000000000078
 20
-88.49999999999999
 30
0.0
 11
108.5000000000187
 21
-129.5000000000245
 31
0.0
  0
LINE
  5
6A
330
1E
100
AcDbEntity
  8
1
 62
     7
100
AcDbLine
 10
108.499999999968
 20
88.49999999999999
 30
0.0
 11
108.4999999999958
 21
129.500000000032
 31
0.0
  0
LINE
  5
6B
330
1E
100
AcDbEntity
  8
1
  6
CENTER
 62
     3
100
AcDbLine
 10
-258.3314701615669
 20
94.89219482606122
 30
0.0
 11
-251.5216126654735
 21
81.52709696323585
 31
0.0
  0
LINE
  5
6C
330
1E
100
AcDbEntity
  8
1
  6
CENTER
 62
     3
100
AcDbLine
 10
-161.6314937170434
 20
-94.89219482606122
 30
0.0
 11
-168.4413512131365
 21
-81.52709696323574
 31
0.0
  0
LINE
  5
6D
330
1E
100
AcDbEntity
  8
1
  6
CENTER
 62
     3
100
AcDbLine
 10
-304.8736767653664
 20
-48.3499882222618
 30
0.0
 11
-291.5085789025408
 21
-41.5401307261684
 31
0.0
  0
LINE
  5
6E
330
1E
100
AcDbEntity
  8
1
  6
CENTER
 62
     3
100
AcDbLine
 10
-162.6053275998064
 20
-47.3761543394986
 30
0.0
 11
-179.5758903482834
 21
-30.40559159102155
 31
0.0
  0
LINE
  5
6F
330
1E
100
AcDbEntity
  8
1
  6
CENTER
 62
     3
100
AcDbLine
 10
-257.3576362788039
 20
-47.3761543394986
 30
0.0
 11
-240.3870735303268
 21
-30.40559159102155
 31
0.0
  0
LINE
  5
70
330
1E
100
AcDbEntity
  8
1
  6
CENTER
 62
     3
100
AcDbLine
 10
-257.3576362788039
 20
47.37615433949884
 30
0.0
 11
-240.3870735303269
 21
30.40559159102155
 31
0.0
  0
LINE
  5
71
330
1E
100
AcDbEntity
  8
1
 62
     7
100
AcDbLine
 10
0.5
 20
71.0
 30
0.0
 11
0.0
 21
71.5
 31
0.0
  0
LINE
  5
72
330
1E
100
AcDbEntity
  8
1
 62
     7
100
AcDbLine
 10
0.0
 20
-71.4999999999999
 30
0.0
 11
0.5
 21
-70.9999999999999
 31
0.0
  0
LINE
  5
73
330
1E
100
AcDbEntity
  8
1
 62
     7
100
AcDbLine
 10
4.000000000000028
 20
-71.0
 30
0.0
 11
0.5
 21
-70.9999999999999
 31
0.0
  0
LINE
  5
74
330
1E
100
AcDbEntity
  8
1
 62
     7
100
AcDbLine
 10
0.5
 20
71.0
 30
0.0
 11
4.000000000000028
 21
71.0
 31
0.0
  0
LINE
  5
75
330
1E
100
AcDbEntity
  8
1
 62
     7
100
AcDbLine
 10
108.500000000011
 20
-101.2999999999999
 30
0.0
 11
107.0000000000035
 21
-101.2999999999999
 31
0.0
  0
LINE
  5
76
330
1E
100
AcDbEntity
  8
1
 62
     7
100
AcDbLine
 10
108.5000000000237
 20
-104.0
 30
0.0
 11
107.0000000000035
 21
-104.0
 31
0.0
  0
LINE
  5
77
330
1E
100
AcDbEntity
  8
1
 62
     7
100
AcDbLine
 10
107.0000000000035
 20
-101.2999999999999
 30
0.0
 11
107.0000000000035
 21
-104.0
 31
0.0
  0
LINE
  5
78
330
1E
100
AcDbEntity
  8
1
 62
     7
100
AcDbLine
 10
106.999999999992
 20
101.2999999999999
 30
0.0
 11
108.4999999999882
 21
101.2999999999999
 31
0.0
  0
LINE
  5
79
330
1E
100
AcDbEntity
  8
1
 62
     7
100
AcDbLine
 10
106.999999999992
 20
104.0
 30
0.0
 11
106.999999999992
 21
101.2999999999999
 31
0.0
  0
LINE
  5
7A
330
1E
100
AcDbEntity
  8
1
 62
     7
100
AcDbLine
 10
106.999999999992
 20
104.0
 30
0.0
 11
108.5000000000007
 21
104.0
 31
0.0
  0
LINE
  5
7B
330
1E
100
AcDbEntity
  8
1
 62
     7
100
AcDbLine
 10
84.50000000002727
 20
-105.9999999999964
 30
0.0
 11
84.50000000002727
 21
-129.4999999999415
 31
0.0
  0
LINE
  5
7C
330
1E
100
AcDbEntity
  8
1
 62
     7
100
AcDbLine
 10
85.00000000007853
 20
-129.9999999999976
 30
0.0
 11
84.50000000002727
 21
-129.4999999999415
 31
0.0
  0
LINE
  5
7D
330
1E
100
AcDbEntity
  8
1
 62
     7
100
AcDbLine
 10
108.5000000000187
 20
-129.5000000000245
 30
0.0
 11
108.0000000000119
 21
-130.0000000000274
 31
0.0
  0
LINE
  5
7E
330
1E
100
AcDbEntity
  8
1
 62
     7
100
AcDbLine
 10
84.50000000000544
 20
129.4999999999417
 30
0.0
 11
85.00000000000545
 21
129.9999999999468
 31
0.0
  0
LINE
  5
7F
330
1E
100
AcDbEntity
  8
1
 62
     7
100
AcDbLine
 10
107.9999999999962
 20
130.0000000000274
 30
0.0
 11
108.4999999999958
 21
129.500000000032
 31
0.0
  0
LINE
  5
80
330
1E
100
AcDbEntity
  8
0
 62
     7
100
AcDbLine
 10
107.9999999999962
 20
130.0000000000274
 30
0.0
 11
85.00000000000545
 21
129.9999999999468
 31
0.0
  0
LINE
  5
81
330
1E
100
AcDbEntity
  8
1
 62
     7
100
AcDbLine
 10
84.50000000000544
 20
129.4999999999417
 30
0.0
 11
84.49999999998366
 21
105.9999999999964
 31
0.0
  0
LINE
  5
82
330
1E
100
AcDbEntity
  8
0
 62
     7
100
AcDbLine
 10
84.49999999998366
 20
105.9999999999964
 30
0.0
 11
78.50000000000544
 21
105.9999999999367
 31
0.0
  0
LINE
  5
83
330
1E
100
AcDbEntity
  8
1
 62
     7
100
AcDbLine
 10
38.50000000000003
 20
105.0
 30
0.0
 11
39.00000000000002
 21
104.4999999999999
 31
0.0
  0
LINE
  5
84
330
1E
100
AcDbEntity
  8
1
 62
     7
100
AcDbLine
 10
39.00000000000002
 20
104.4999999999999
 30
0.0
 11
39.50000000000002
 21
105.0
 31
0.0
  0
LINE
  5
85
330
1E
100
AcDbEntity
  8
0
 62
     7
100
AcDbLine
 10
78.50000000000544
 20
-105.9999999999925
 30
0.0
 11
84.50000000000544
 21
-106.0000000000522
 31
0.0
  0
LINE
  5
86
330
1E
100
AcDbEntity
  8
1
  6
CENTER
 62
     3
100
AcDbLine
 10
58.87017059221714
 20
99.0
 30
0.0
 11
-1.299999999999912
 21
99.0
 31
0.0
  0
LINE
  5
87
330
1E
100
AcDbEntity
  8
1
 62
     3
100
AcDbLine
 10
51.00000000000026
 20
102.0
 30
0.0
 11
47.70000000000012
 21
102.0
 31
0.0
  0
LINE
  5
88
330
1E
100
AcDbEntity
  8
1
 62
     3
100
AcDbLine
 10
47.70000000000012
 20
96.0
 30
0.0
 11
51.00000000000026
 21
96.0
 31
0.0
  0
LINE
  5
89
330
1E
100
AcDbEntity
  8
1
 62
     7
100
AcDbLine
 10
51.00000000000026
 20
96.0
 30
0.0
 11
51.00000000000026
 21
102.0
 31
0.0
  0
LINE
  5
8A
330
1E
100
AcDbEntity
  8
1
 62
     7
100
AcDbLine
 10
57.07017059221735
 20
99.0
 30
0.0
 11
55.80000000000005
 21
101.2000000000002
 31
0.0
  0
LINE
  5
8B
330
1E
100
AcDbEntity
  8
1
 62
     7
100
AcDbLine
 10
55.80000000000005
 20
96.79999999999997
 30
0.0
 11
57.07017059221735
 21
99.0
 31
0.0
  0
LINE
  5
8C
330
1E
100
AcDbEntity
  8
1
 62
     7
100
AcDbLine
 10
55.80000000000005
 20
101.2000000000002
 30
0.0
 11
48.50000000000026
 21
101.2000000000002
 31
0.0
  0
LINE
  5
8D
330
1E
100
AcDbEntity
  8
1
 62
     7
100
AcDbLine
 10
55.80000000000005
 20
96.79999999999997
 30
0.0
 11
55.80000000000005
 21
101.2000000000002
 31
0.0
  0
LINE
  5
8E
330
1E
100
AcDbEntity
  8
1
 62
     7
100
AcDbLine
 10
48.50000000000026
 20
96.79999999999997
 30
0.0
 11
55.80000000000005
 21
96.79999999999997
 31
0.0
  0
LINE
  5
8F
330
1E
100
AcDbEntity
  8
1
 62
     7
100
AcDbLine
 10
77.50000000000544
 20
105.0
 30
0.0
 11
39.50000000000002
 21
105.0
 31
0.0
  0
LINE
  5
90
330
1E
100
AcDbEntity
  8
1
 62
     7
100
AcDbLine
 10
22.50000000000003
 20
104.4999999999999
 30
0.0
 11
23.00000000000003
 21
105.0
 31
0.0
  0
LINE
  5
91
330
1E
100
AcDbEntity
  8
1
 62
     7
100
AcDbLine
 10
22.00000000000003
 20
105.0
 30
0.0
 11
22.50000000000003
 21
104.4999999999999
 31
0.0
  0
LINE
  5
92
330
1E
100
AcDbEntity
  8
1
 62
     7
100
AcDbLine
 10
9.000000000000024
 20
105.0
 30
0.0
 11
8.500000000000026
 21
104.4999999999999
 31
0.0
  0
LINE
  5
93
330
1E
100
AcDbEntity
  8
1
 62
     7
100
AcDbLine
 10
38.50000000000003
 20
-105.0
 30
0.0
 11
39.00000000000002
 21
-104.4999999999999
 31
0.0
  0
LINE
  5
94
330
1E
100
AcDbEntity
  8
1
 62
     7
100
AcDbLine
 10
22.50000000000003
 20
-104.4999999999999
 30
0.0
 11
23.00000000000003
 21
-105.0
 31
0.0
  0
LINE
  5
95
330
1E
100
AcDbEntity
  8
1
 62
     7
100
AcDbLine
 10
22.50000000000003
 20
-104.4999999999999
 30
0.0
 11
22.00000000000003
 21
-105.0
 31
0.0
  0
LINE
  5
96
330
1E
100
AcDbEntity
  8
1
 62
     7
100
AcDbLine
 10
9.000000000000024
 20
-105.0
 30
0.0
 11
8.500000000000026
 21
-104.4999999999999
 31
0.0
  0
LINE
  5
97
330
1E
100
AcDbEntity
  8
1
 62
     7
100
AcDbLine
 10
9.000000000000024
 20
-105.0
 30
0.0
 11
22.00000000000003
 21
-105.0
 31
0.0
  0
LINE
  5
98
330
1E
100
AcDbEntity
  8
1
 62
     7
100
AcDbLine
 10
28.00000000000003
 20
-22.0
 30
0.0
 11
50.50000000007233
 21
-22.0
 31
0.0
  0
LINE
  5
99
330
1E
100
AcDbEntity
  8
1
 62
     7
100
AcDbLine
 10
28.00000000000003
 20
-24.9999996093901
 30
0.0
 11
28.00000000000003
 21
24.99999960938998
 31
0.0
  0
LINE
  5
9A
330
1E
100
AcDbEntity
  8
1
 62
     7
100
AcDbLine
 10
28.00000000000003
 20
22.00000000000011
 30
0.0
 11
50.50000000007233
 21
22.00000000000011
 31
0.0
  0
LINE
  5
9B
330
1E
100
AcDbEntity
  8
1
 62
     7
100
AcDbLine
 10
38.50000000008961
 20
25.99999960938998
 30
0.0
 11
27.00000000000003
 21
25.99999960938998
 31
0.0
  0
LINE
  5
9C
330
1E
100
AcDbEntity
  8
1
 62
     7
100
AcDbLine
 10
35.00000000000003
 20
-70.5
 30
0.0
 11
32.00000000000003
 21
-67.5
 31
0.0
  0
LINE
  5
9D
330
1E
100
AcDbEntity
  8
1
 62
     7
100
AcDbLine
 10
32.00000000000003
 20
-67.5
 30
0.0
 11
32.00000000000003
 21
-46.5
 31
0.0
  0
LINE
  5
9E
330
1E
100
AcDbEntity
  8
1
 62
     7
100
AcDbLine
 10
35.00000000000003
 20
-70.5
 30
0.0
 11
35.00000000000003
 21
-79.25
 31
0.0
  0
LINE
  5
9F
330
1E
100
AcDbEntity
  8
1
 62
     7
100
AcDbLine
 10
5.500000000000028
 20
-66.29999999999984
 30
0.0
 11
5.500000000000028
 21
-69.0
 31
0.0
  0
LINE
  5
A0
330
1E
100
AcDbEntity
  8
1
 62
     7
100
AcDbLine
 10
4.000000000000028
 20
-66.29999999999984
 30
0.0
 11
5.500000000000028
 21
-66.29999999999984
 31
0.0
  0
LINE
  5
A1
330
1E
100
AcDbEntity
  8
1
 62
     7
100
AcDbLine
 10
0.0
 20
-76.5
 30
0.0
 11
0.0
 21
76.5
 31
0.0
  0
LINE
  5
A2
330
1E
100
AcDbEntity
  8
1
 62
     7
100
AcDbLine
 10
4.000000000000028
 20
-69.0
 30
0.0
 11
5.500000000000028
 21
-69.0
 31
0.0
  0
LINE
  5
A3
330
1E
100
AcDbEntity
  8
1
 62
     7
100
AcDbLine
 10
1.0
 20
-77.5
 30
0.0
 11
0.0
 21
-76.5
 31
0.0
  0
LINE
  5
A4
330
1E
100
AcDbEntity
  8
1
 62
     7
100
AcDbLine
 10
10.00000000000003
 20
-77.5
 30
0.0
 11
1.0
 21
-77.5
 31
0.0
  0
LINE
  5
A5
330
1E
100
AcDbEntity
  8
1
 62
     7
100
AcDbLine
 10
22.50000000000003
 20
-72.92893218813434
 30
0.0
 11
15.42893218813455
 21
-80.0
 31
0.0
  0
LINE
  5
A6
330
1E
100
AcDbEntity
  8
1
 62
     7
100
AcDbLine
 10
10.00000000000003
 20
-77.5
 30
0.0
 11
10.00000000000003
 21
-90.0
 31
0.0
  0
LINE
  5
A7
330
1E
100
AcDbEntity
  8
1
 62
     7
100
AcDbLine
 10
16.17893218813454
 20
-79.25
 30
0.0
 11
10.00000000000003
 21
-79.25
 31
0.0
  0
LINE
  5
A8
330
1E
100
AcDbEntity
  8
1
 62
     7
100
AcDbLine
 10
16.17893218813454
 20
-80.75000000000001
 30
0.0
 11
10.00000000000003
 21
-80.75000000000001
 31
0.0
  0
LINE
  5
A9
330
1E
100
AcDbEntity
  8
1
 62
     7
100
AcDbLine
 10
3.000000000000028
 20
-93.0
 30
0.0
 11
2.0
 21
-92.0
 31
0.0
  0
LINE
  5
AA
330
1E
100
AcDbEntity
  8
1
 62
     7
100
AcDbLine
 10
2.0
 20
-77.5
 30
0.0
 11
2.0
 21
-92.0
 31
0.0
  0
LINE
  5
AB
330
1E
100
AcDbEntity
  8
1
 62
     7
100
AcDbLine
 10
2.0
 20
-90.0
 30
0.0
 11
10.00000000000003
 21
-90.0
 31
0.0
  0
LINE
  5
AC
330
1E
100
AcDbEntity
  8
1
 62
     7
100
AcDbLine
 10
3.000000000000028
 20
-93.0
 30
0.0
 11
8.500000000000026
 21
-93.0
 31
0.0
  0
LINE
  5
AD
330
1E
100
AcDbEntity
  8
1
 62
     7
100
AcDbLine
 10
23.00000000000003
 20
-88.0
 30
0.0
 11
22.00000000000003
 21
-88.0
 31
0.0
  0
LINE
  5
AE
330
1E
100
AcDbEntity
  8
1
 62
     7
100
AcDbLine
 10
22.50000000000003
 20
-88.0
 30
0.0
 11
22.50000000000003
 21
-96.0
 31
0.0
  0
LINE
  5
AF
330
1E
100
AcDbEntity
  8
1
 62
     7
100
AcDbLine
 10
28.82106781186555
 20
-79.25
 30
0.0
 11
35.00000000000003
 21
-79.25
 31
0.0
  0
LINE
  5
B0
330
1E
100
AcDbEntity
  8
1
 62
     7
100
AcDbLine
 10
23.00000000000003
 20
-72.0
 30
0.0
 11
23.00000000000003
 21
-73.42893218813434
 31
0.0
  0
LINE
  5
B1
330
1E
100
AcDbEntity
  8
1
 62
     7
100
AcDbLine
 10
22.00000000000003
 20
-72.0
 30
0.0
 11
22.00000000000003
 21
-73.42893218813434
 31
0.0
  0
LINE
  5
B2
330
1E
100
AcDbEntity
  8
1
 62
     7
100
AcDbLine
 10
22.00000000000003
 20
-72.0
 30
0.0
 11
23.00000000000003
 21
-72.0
 31
0.0
  0
LINE
  5
B3
330
1E
100
AcDbEntity
  8
1
 62
     7
100
AcDbLine
 10
23.00000000000003
 20
-86.57106781186529
 30
0.0
 11
23.00000000000003
 21
-88.0
 31
0.0
  0
LINE
  5
B4
330
1E
100
AcDbEntity
  8
1
 62
     7
100
AcDbLine
 10
15.42893218813455
 20
-80.0
 30
0.0
 11
22.50000000000003
 21
-87.0710678118653
 31
0.0
  0
LINE
  5
B5
330
1E
100
AcDbEntity
  8
1
 62
     7
100
AcDbLine
 10
22.00000000000003
 20
-86.57106781186529
 30
0.0
 11
22.00000000000003
 21
-88.0
 31
0.0
  0
LINE
  5
B6
330
1E
100
AcDbEntity
  8
1
 62
     7
100
AcDbLine
 10
22.50000000000003
 20
-90.5
 30
0.0
 11
24.00000000000003
 21
-90.5
 31
0.0
  0
LINE
  5
B7
330
1E
100
AcDbEntity
  8
1
 62
     7
100
AcDbLine
 10
22.50000000000003
 20
-93.0
 30
0.0
 11
24.00000000000003
 21
-93.0
 31
0.0
  0
LINE
  5
B8
330
1E
100
AcDbEntity
  8
1
 62
     7
100
AcDbLine
 10
24.00000000000003
 20
-90.5
 30
0.0
 11
24.00000000000003
 21
-93.0
 31
0.0
  0
LINE
  5
B9
330
1E
100
AcDbEntity
  8
1
 62
     7
100
AcDbLine
 10
38.50000000000003
 20
-105.0
 30
0.0
 11
23.00000000000003
 21
-105.0
 31
0.0
  0
LINE
  5
BA
330
1E
100
AcDbEntity
  8
1
 62
     7
100
AcDbLine
 10
22.50000000000003
 20
-102.0
 30
0.0
 11
22.50000000000003
 21
-104.4999999999999
 31
0.0
  0
LINE
  5
BB
330
1E
100
AcDbEntity
  8
1
 62
     7
100
AcDbLine
 10
8.500000000000026
 20
-102.2999999999999
 30
0.0
 11
22.50000000000003
 21
-102.2999999999999
 31
0.0
  0
LINE
  5
BC
330
1E
100
AcDbEntity
  8
1
 62
     7
100
AcDbLine
 10
8.500000000000026
 20
-95.70000000000003
 30
0.0
 11
22.50000000000003
 21
-95.70000000000003
 31
0.0
  0
LINE
  5
BD
330
1E
100
AcDbEntity
  8
1
 62
     7
100
AcDbLine
 10
29.57106781186555
 20
-80.0
 30
0.0
 11
22.50000000000003
 21
-87.0710678118653
 31
0.0
  0
LINE
  5
BE
330
1E
100
AcDbEntity
  8
1
 62
     7
100
AcDbLine
 10
22.50000000000003
 20
-72.92893218813434
 30
0.0
 11
29.57106781186555
 21
-80.0
 31
0.0
  0
LINE
  5
BF
330
1E
100
AcDbEntity
  8
1
 62
     7
100
AcDbLine
 10
32.00000000000003
 20
62.5
 30
0.0
 11
35.00000000000003
 21
65.5
 31
0.0
  0
LINE
  5
C0
330
1E
100
AcDbEntity
  8
1
 62
     7
100
AcDbLine
 10
35.00000000000003
 20
79.25
 30
0.0
 11
35.00000000000003
 21
65.5
 31
0.0
  0
LINE
  5
C1
330
1E
100
AcDbEntity
  8
1
 62
     7
100
AcDbLine
 10
5.500000000000028
 20
69.0
 30
0.0
 11
5.500000000000028
 21
66.29999999999995
 31
0.0
  0
LINE
  5
C2
330
1E
100
AcDbEntity
  8
1
 62
     7
100
AcDbLine
 10
5.500000000000028
 20
66.29999999999995
 30
0.0
 11
4.000000000000028
 21
66.29999999999995
 31
0.0
  0
LINE
  5
C3
330
1E
100
AcDbEntity
  8
1
 62
     7
100
AcDbLine
 10
5.500000000000028
 20
69.0
 30
0.0
 11
4.000000000000028
 21
69.0
 31
0.0
  0
LINE
  5
C4
330
1E
100
AcDbEntity
  8
1
 62
     7
100
AcDbLine
 10
0.0
 20
76.5
 30
0.0
 11
1.0
 21
77.5
 31
0.0
  0
LINE
  5
C5
330
1E
100
AcDbEntity
  8
1
  6
CENTER
 62
     3
100
AcDbLine
 10
1.600000000000193
 20
55.0
 30
0.0
 11
34.49504172281363
 21
55.0
 31
0.0
  0
LINE
  5
C6
330
1E
100
AcDbEntity
  8
1
 62
     7
100
AcDbLine
 10
32.00000000000003
 20
48.60000000000002
 30
0.0
 11
4.000000000000028
 21
48.60000000000002
 31
0.0
  0
LINE
  5
C7
330
1E
100
AcDbEntity
  8
1
 62
     7
100
AcDbLine
 10
28.00000000000014
 20
63.0
 30
0.0
 11
28.00000000000014
 21
47.0
 31
0.0
  0
LINE
  5
C8
330
1E
100
AcDbEntity
  8
1
 62
     7
100
AcDbLine
 10
4.000000000000028
 20
61.40000000000011
 30
0.0
 11
32.00000000000003
 21
61.40000000000011
 31
0.0
  0
LINE
  5
C9
330
1E
100
AcDbEntity
  8
1
 62
     3
100
AcDbLine
 10
28.00000000000014
 20
47.0
 30
0.0
 11
4.000000000000028
 21
47.0
 31
0.0
  0
LINE
  5
CA
330
1E
100
AcDbEntity
  8
1
 62
     3
100
AcDbLine
 10
30.77128129211033
 20
48.60000000000002
 30
0.0
 11
28.00000000000014
 21
47.0
 31
0.0
  0
LINE
  5
CB
330
1E
100
AcDbEntity
  8
1
 62
     3
100
AcDbLine
 10
28.00000000000014
 20
63.0
 30
0.0
 11
30.77128129211033
 21
61.40000000000011
 31
0.0
  0
LINE
  5
CC
330
1E
100
AcDbEntity
  8
1
 62
     3
100
AcDbLine
 10
4.000000000000028
 20
63.0
 30
0.0
 11
28.00000000000014
 21
63.0
 31
0.0
  0
LINE
  5
CD
330
1E
100
AcDbEntity
  8
1
  6
CENTER
 62
     3
100
AcDbLine
 10
-177.0711720383733
 20
101.2875189854339
 30
0.0
 11
-181.7064269539976
 21
87.02167124100641
 31
0.0
  0
LINE
  5
CE
330
1E
100
AcDbEntity
  8
1
  6
CENTER
 62
     3
100
AcDbLine
 10
-147.3823525701566
 20
86.16030990093168
 30
0.0
 11
-156.1991313545439
 21
74.02505498530775
 31
0.0
  0
LINE
  5
CF
330
1E
100
AcDbEntity
  8
1
  6
CENTER
 62
     3
100
AcDbLine
 10
-147.3823525701566
 20
-86.16030990093191
 30
0.0
 11
-156.1991313545439
 21
-74.02505498530775
 31
0.0
  0
LINE
  5
D0
330
1E
100
AcDbEntity
  8
1
  6
CENTER
 62
     3
100
AcDbLine
 10
-177.0711720383734
 20
-101.2875189854339
 30
0.0
 11
-181.7064269539976
 21
-87.02167124100641
 31
0.0
  0
LINE
  5
D1
330
1E
100
AcDbEntity
  8
1
  6
CENTER
 62
     3
100
AcDbLine
 10
-242.8917918402372
 20
-101.2875189854339
 30
0.0
 11
-238.2565369246129
 21
-87.02167124100641
 31
0.0
  0
LINE
  5
D2
330
1E
100
AcDbEntity
  8
1
  6
CENTER
 62
     3
100
AcDbLine
 10
-272.5806113084536
 20
-86.16030990093191
 30
0.0
 11
-263.7638325240664
 21
-74.02505498530775
 31
0.0
  0
LINE
  5
D3
330
1E
100
AcDbEntity
  8
1
  6
CENTER
 62
     3
100
AcDbLine
 10
-296.1417918402373
 20
-62.5991293691485
 30
0.0
 11
-284.0065369246128
 21
-53.78235058476128
 31
0.0
  0
LINE
  5
D4
330
1E
100
AcDbEntity
  8
1
  6
CENTER
 62
     3
100
AcDbLine
 10
-311.2690009247391
 20
-32.91030990093191
 30
0.0
 11
-297.0031531803117
 21
-28.27505498530775
 31
0.0
  0
LINE
  5
D5
330
1E
100
AcDbEntity
  8
1
  6
CENTER
 62
     3
100
AcDbLine
 10
-311.2690009247391
 20
32.91030990093178
 30
0.0
 11
-297.0031531803117
 21
28.27505498530775
 31
0.0
  0
LINE
  5
D6
330
1E
100
AcDbEntity
  8
1
  6
CENTER
 62
     3
100
AcDbLine
 10
-296.1417918402373
 20
62.59912936914838
 30
0.0
 11
-284.0065369246128
 21
53.78235058476139
 31
0.0
  0
LINE
  5
D7
330
1E
100
AcDbEntity
  8
1
  6
CENTER
 62
     3
100
AcDbLine
 10
-272.5806113084536
 20
86.16030990093179
 30
0.0
 11
-263.7638325240664
 21
74.02505498530775
 31
0.0
  0
LINE
  5
D8
330
1E
100
AcDbEntity
  8
1
  6
CENTER
 62
     3
100
AcDbLine
 10
-242.8917918402372
 20
101.2875189854339
 30
0.0
 11
-238.2565369246129
 21
87.02167124100641
 31
0.0
  0
LINE
  5
D9
330
1E
100
AcDbEntity
  8
1
 62
     7
100
AcDbLine
 10
10.00000000000003
 20
77.5
 30
0.0
 11
1.0
 21
77.5
 31
0.0
  0
LINE
  5
DA
330
1E
100
AcDbEntity
  8
1
 62
     7
100
AcDbLine
 10
22.50000000000003
 20
72.92893218813458
 30
0.0
 11
15.42893218813455
 21
80.0
 31
0.0
  0
LINE
  5
DB
330
1E
100
AcDbEntity
  8
1
 62
     7
100
AcDbLine
 10
10.00000000000003
 20
79.25
 30
0.0
 11
16.17893218813454
 21
79.25
 31
0.0
  0
LINE
  5
DC
330
1E
100
AcDbEntity
  8
1
 62
     7
100
AcDbLine
 10
10.00000000000003
 20
80.75000000000001
 30
0.0
 11
16.17893218813454
 21
80.75000000000001
 31
0.0
  0
LINE
  5
DD
330
1E
100
AcDbEntity
  8
1
 62
     7
100
AcDbLine
 10
2.0
 20
92.0
 30
0.0
 11
3.000000000000028
 21
93.0
 31
0.0
  0
LINE
  5
DE
330
1E
100
AcDbEntity
  8
1
 62
     7
100
AcDbLine
 10
10.00000000000003
 20
90.0
 30
0.0
 11
2.0
 21
90.0
 31
0.0
  0
LINE
  5
DF
330
1E
100
AcDbEntity
  8
1
 62
     7
100
AcDbLine
 10
10.00000000000003
 20
90.0
 30
0.0
 11
10.00000000000003
 21
77.5
 31
0.0
  0
LINE
  5
E0
330
1E
100
AcDbEntity
  8
1
 62
     7
100
AcDbLine
 10
2.0
 20
92.0
 30
0.0
 11
2.0
 21
77.5
 31
0.0
  0
LINE
  5
E1
330
1E
100
AcDbEntity
  8
1
 62
     7
100
AcDbLine
 10
8.500000000000026
 20
93.0
 30
0.0
 11
3.000000000000028
 21
93.0
 31
0.0
  0
LINE
  5
E2
330
1E
100
AcDbEntity
  8
1
 62
     7
100
AcDbLine
 10
22.00000000000003
 20
88.0
 30
0.0
 11
23.00000000000003
 21
88.0
 31
0.0
  0
LINE
  5
E3
330
1E
100
AcDbEntity
  8
1
 62
     7
100
AcDbLine
 10
22.50000000000003
 20
96.0
 30
0.0
 11
22.50000000000003
 21
88.0
 31
0.0
  0
LINE
  5
E4
330
1E
100
AcDbEntity
  8
1
 62
     7
100
AcDbLine
 10
39.00000000000002
 20
96.79999999999997
 30
0.0
 11
39.00000000000002
 21
88.0
 31
0.0
  0
LINE
  5
E5
330
1E
100
AcDbEntity
  8
1
 62
     7
100
AcDbLine
 10
35.00000000000003
 20
79.25
 30
0.0
 11
28.82106781186555
 21
79.25
 31
0.0
  0
LINE
  5
E6
330
1E
100
AcDbEntity
  8
1
 62
     7
100
AcDbLine
 10
22.50000000000003
 20
87.07106781186565
 30
0.0
 11
29.57106781186555
 21
80.0
 31
0.0
  0
LINE
  5
E7
330
1E
100
AcDbEntity
  8
1
 62
     7
100
AcDbLine
 10
23.00000000000003
 20
73.42893218813458
 30
0.0
 11
23.00000000000003
 21
72.0
 31
0.0
  0
LINE
  5
E8
330
1E
100
AcDbEntity
  8
1
 62
     7
100
AcDbLine
 10
22.00000000000003
 20
73.42893218813458
 30
0.0
 11
22.00000000000003
 21
72.0
 31
0.0
  0
LINE
  5
E9
330
1E
100
AcDbEntity
  8
1
 62
     7
100
AcDbLine
 10
23.00000000000003
 20
72.0
 30
0.0
 11
22.00000000000003
 21
72.0
 31
0.0
  0
LINE
  5
EA
330
1E
100
AcDbEntity
  8
1
 62
     7
100
AcDbLine
 10
23.00000000000003
 20
88.0
 30
0.0
 11
23.00000000000003
 21
86.57106781186566
 31
0.0
  0
LINE
  5
EB
330
1E
100
AcDbEntity
  8
1
 62
     7
100
AcDbLine
 10
15.42893218813455
 20
80.0
 30
0.0
 11
22.50000000000003
 21
87.07106781186565
 31
0.0
  0
LINE
  5
EC
330
1E
100
AcDbEntity
  8
1
 62
     7
100
AcDbLine
 10
22.00000000000003
 20
88.0
 30
0.0
 11
22.00000000000003
 21
86.57106781186566
 31
0.0
  0
LINE
  5
ED
330
1E
100
AcDbEntity
  8
1
 62
     7
100
AcDbLine
 10
24.00000000000003
 20
90.5
 30
0.0
 11
22.50000000000003
 21
90.5
 31
0.0
  0
LINE
  5
EE
330
1E
100
AcDbEntity
  8
1
 62
     7
100
AcDbLine
 10
24.00000000000003
 20
93.0
 30
0.0
 11
22.50000000000003
 21
93.0
 31
0.0
  0
LINE
  5
EF
330
1E
100
AcDbEntity
  8
1
 62
     7
100
AcDbLine
 10
24.00000000000003
 20
93.0
 30
0.0
 11
24.00000000000003
 21
90.5
 31
0.0
  0
LINE
  5
F0
330
1E
100
AcDbEntity
  8
1
 62
     7
100
AcDbLine
 10
23.00000000000003
 20
105.0
 30
0.0
 11
38.50000000000003
 21
105.0
 31
0.0
  0
LINE
  5
F1
330
1E
100
AcDbEntity
  8
1
 62
     7
100
AcDbLine
 10
22.50000000000003
 20
104.4999999999999
 30
0.0
 11
22.50000000000003
 21
102.0
 31
0.0
  0
LINE
  5
F2
330
1E
100
AcDbEntity
  8
1
 62
     7
100
AcDbLine
 10
39.00000000000002
 20
104.4999999999999
 30
0.0
 11
39.00000000000002
 21
101.2000000000002
 31
0.0
  0
LINE
  5
F3
330
1E
100
AcDbEntity
  8
1
 62
     7
100
AcDbLine
 10
39.00000000000002
 20
102.2999999999999
 30
0.0
 11
8.500000000000026
 21
102.2999999999999
 31
0.0
  0
LINE
  5
F4
330
1E
100
AcDbEntity
  8
1
 62
     7
100
AcDbLine
 10
39.00000000000002
 20
95.70000000000016
 30
0.0
 11
8.500000000000026
 21
95.70000000000016
 31
0.0
  0
LINE
  5
F5
330
1E
100
AcDbEntity
  8
1
 62
     7
100
AcDbLine
 10
9.000000000000024
 20
105.0
 30
0.0
 11
22.00000000000003
 21
105.0
 31
0.0
  0
LINE
  5
F6
330
1E
100
AcDbEntity
  8
1
 62
     7
100
AcDbLine
 10
22.50000000000003
 20
72.92893218813458
 30
0.0
 11
29.57106781186555
 21
80.0
 31
0.0
  0
LINE
  5
F7
330
1E
100
AcDbEntity
  8
1
 62
     7
100
AcDbLine
 10
112.3689999999992
 20
82.4999987607714
 30
0.0
 11
113.5
 21
83.63099876077148
 31
0.0
  0
LINE
  5
F8
330
1E
100
AcDbEntity
  8
1
 62
     7
100
AcDbLine
 10
80.63137083303862
 20
82.4999987607714
 30
0.0
 11
112.3689999999992
 21
82.4999987607714
 31
0.0
  0
LINE
  5
F9
330
1E
100
AcDbEntity
  8
1
 62
     7
100
AcDbLine
 10
113.5000000000015
 20
-83.63099876077138
 30
0.0
 11
112.3690000000009
 21
-82.4999987607714
 31
0.0
  0
LINE
  5
FA
330
1E
100
AcDbEntity
  8
1
 62
     7
100
AcDbLine
 10
113.5000000000015
 20
-83.63099876077138
 30
0.0
 11
113.5000000000022
 21
-88.0
 31
0.0
  0
LINE
  5
FB
330
1E
100
AcDbEntity
  8
1
 62
     7
100
AcDbLine
 10
80.63137083303862
 20
-82.4999987607714
 30
0.0
 11
112.3690000000009
 21
-82.4999987607714
 31
0.0
  0
LINE
  5
FC
330
1E
100
AcDbEntity
  8
1
 62
     7
100
AcDbLine
 10
110.5350000446437
 20
-84.39999873237036
 30
0.0
 11
113.5
 21
-81.43499877684906
 31
0.0
  0
LINE
  5
FD
330
1E
100
AcDbEntity
  8
1
 62
     7
100
AcDbLine
 10
86.39737560547123
 20
-84.39999873237036
 30
0.0
 11
110.5350000446437
 21
-84.39999873237036
 31
0.0
  0
LINE
  5
FE
330
1E
100
AcDbEntity
  8
1
 62
     7
100
AcDbLine
 10
41.69600024434485
 20
-80.79400088503495
 30
0.0
 11
75.10000000000005
 21
-80.79400088503495
 31
0.0
  0
LINE
  5
FF
330
1E
100
AcDbEntity
  8
1
 62
     7
100
AcDbLine
 10
113.5000000000187
 20
-31.42930965502898
 30
0.0
 11
113.5000000000029
 21
-79.65600088503504
 31
0.0
  0
LINE
  5
100
330
1E
100
AcDbEntity
  8
1
 62
     7
100
AcDbLine
 10
110.5350000446437
 20
-84.39999873220541
 30
0.0
 11
110.5350000446437
 21
-84.39999873237036
 31
0.0
  0
LINE
  5
101
330
1E
100
AcDbEntity
  8
0
 62
     7
100
AcDbLine
 10
80.63137083303862
 20
-82.4999987607714
 30
0.0
 11
79.50000000000001
 21
-83.63136959421614
 31
0.0
  0
LINE
  5
102
330
1E
100
AcDbEntity
  8
0
 62
     7
100
AcDbLine
 10
32.00000000000003
 20
51.99999922651966
 30
0.0
 11
36.23000024434495
 21
51.99999922651966
 31
0.0
  0
LINE
  5
103
330
1E
100
AcDbEntity
  8
0
 62
     7
100
AcDbLine
 10
38.50000000009131
 20
26.49999960195476
 30
0.0
 11
38.50000000008961
 21
25.99999960938998
 31
0.0
  0
LINE
  5
104
330
1E
100
AcDbEntity
  8
0
 62
     7
100
AcDbLine
 10
38.50000000000003
 20
-76.15600093761111
 30
0.0
 11
38.50000000000003
 21
-46.5
 31
0.0
  0
LINE
  5
105
330
1E
100
AcDbEntity
  8
1
 62
     7
100
AcDbLine
 10
37.23000024434496
 20
-76.32800088503529
 30
0.0
 11
37.23000024434496
 21
-52.99999922651966
 31
0.0
  0
LINE
  5
106
330
1E
100
AcDbEntity
  8
1
 62
     7
100
AcDbLine
 10
75.10000000000005
 20
80.79399911496489
 30
0.0
 11
41.69600024434485
 21
80.79399911496489
 31
0.0
  0
LINE
  5
107
330
1E
100
AcDbEntity
  8
0
 62
     7
100
AcDbLine
 10
86.39737809574032
 20
84.39999873237104
 30
0.0
 11
110.5350000446437
 21
84.39999873220529
 31
0.0
  0
LINE
  5
108
330
1E
100
AcDbEntity
  8
1
 62
     7
100
AcDbLine
 10
113.5
 20
81.43499877684906
 30
0.0
 11
113.5000000000053
 21
79.65599911496507
 31
0.0
  0
LINE
  5
109
330
1E
100
AcDbEntity
  8
1
 62
     7
100
AcDbLine
 10
113.5
 20
81.43499877684906
 30
0.0
 11
110.5350000446437
 21
84.39999873220529
 31
0.0
  0
LINE
  5
10A
330
1E
100
AcDbEntity
  8
0
 62
     7
100
AcDbLine
 10
79.50000000000001
 20
83.63136959421614
 30
0.0
 11
79.50000000000001
 21
89.0
 31
0.0
  0
LINE
  5
10B
330
1E
100
AcDbEntity
  8
0
 62
     7
100
AcDbLine
 10
79.50000000000001
 20
83.63136959421614
 30
0.0
 11
80.63137083303862
 21
82.4999987607714
 31
0.0
  0
LINE
  5
10C
330
1E
100
AcDbEntity
  8
1
 62
     7
100
AcDbLine
 10
38.50000000008961
 20
-25.9999996093901
 30
0.0
 11
27.00000000000003
 21
-25.9999996093901
 31
0.0
  0
LINE
  5
10D
330
1E
100
AcDbEntity
  8
0
 62
     7
100
AcDbLine
 10
36.23000024434495
 20
-51.99999922651966
 30
0.0
 11
32.00000000000003
 21
-51.99999922651966
 31
0.0
  0
LINE
  5
10E
330
1E
100
AcDbEntity
  8
0
 62
     7
100
AcDbLine
 10
38.50000000000003
 20
76.15599916754115
 30
0.0
 11
38.50000000000003
 21
26.49999960195476
 31
0.0
  0
LINE
  5
10F
330
1E
100
AcDbEntity
  8
1
 62
     7
100
AcDbLine
 10
37.23000024434496
 20
52.99999922651966
 30
0.0
 11
37.23000024434496
 21
76.32799911496498
 31
0.0
  0
LINE
  5
110
330
1E
100
AcDbEntity
  8
0
 62
     7
100
AcDbLine
 10
79.90000047155056
 20
-52.25
 30
0.0
 11
79.90000047155056
 21
-26.49999960190404
 31
0.0
  0
LINE
  5
111
330
1E
100
AcDbEntity
  8
1
 62
     7
100
AcDbLine
 10
72.60000061426442
 20
-52.25
 30
0.0
 11
79.90000047155056
 21
-52.25
 31
0.0
  0
LINE
  5
112
330
1E
100
AcDbEntity
  8
0
 62
     7
100
AcDbLine
 10
72.60000061426442
 20
-25.24999962073264
 30
0.0
 11
79.90000047155056
 21
-25.24999962073264
 31
0.0
  0
LINE
  5
113
330
1E
100
AcDbEntity
  8
0
 62
     7
100
AcDbLine
 10
79.90000047155056
 20
52.25
 30
0.0
 11
79.90000047155056
 21
26.49999960195476
 31
0.0
  0
LINE
  5
114
330
1E
100
AcDbEntity
  8
1
 62
     7
100
AcDbLine
 10
72.60000061426442
 20
52.25
 30
0.0
 11
79.90000047155056
 21
52.25
 31
0.0
  0
LINE
  5
115
330
1E
100
AcDbEntity
  8
0
 62
     7
100
AcDbLine
 10
82.40000043399446
 20
23.99999963950336
 30
0.0
 11
106.1000000779107
 21
23.99999963954928
 31
0.0
  0
LINE
  5
116
330
1E
100
AcDbEntity
  8
0
 62
     7
100
AcDbLine
 10
106.1000000779107
 20
29.99999954947759
 30
0.0
 11
106.1000000779107
 21
22.74999965831205
 31
0.0
  0
LINE
  5
117
330
1E
100
AcDbEntity
  8
0
 62
     7
100
AcDbLine
 10
106.1000000779107
 20
22.74999965831205
 30
0.0
 11
108.0000000493425
 21
22.74999965831205
 31
0.0
  0
LINE
  5
118
330
1E
100
AcDbEntity
  8
0
 62
     7
100
AcDbLine
 10
108.0000000493425
 20
22.74999965831205
 30
0.0
 11
108.0000000493425
 21
27.49999958690694
 31
0.0
  0
LINE
  5
119
330
1E
100
AcDbEntity
  8
0
 62
     7
100
AcDbLine
 10
108.0000000493425
 20
23.99999963954928
 30
0.0
 11
114.5000000075448
 21
23.99999963954928
 31
0.0
  0
LINE
  5
11A
330
1E
100
AcDbEntity
  8
0
 62
     7
100
AcDbLine
 10
114.5000000075448
 20
23.99999963954928
 30
0.0
 11
115.0000000000334
 21
23.49999964702737
 31
0.0
  0
LINE
  5
11B
330
1E
100
AcDbEntity
  8
0
 62
     7
100
AcDbLine
 10
82.40000043399446
 20
-23.99999963948574
 30
0.0
 11
106.1000000779107
 21
-23.99999963953644
 31
0.0
  0
LINE
  5
11C
330
1E
100
AcDbEntity
  8
0
 62
     7
100
AcDbLine
 10
106.1000000779107
 20
-29.99999954932525
 30
0.0
 11
106.1000000779107
 21
-22.74999965828885
 31
0.0
  0
LINE
  5
11D
330
1E
100
AcDbEntity
  8
0
 62
     7
100
AcDbLine
 10
106.1000000779107
 20
-22.74999965828885
 30
0.0
 11
108.0000000493425
 21
-22.74999965828885
 31
0.0
  0
LINE
  5
11E
330
1E
100
AcDbEntity
  8
0
 62
     7
100
AcDbLine
 10
108.0000000493425
 20
-22.74999965828885
 30
0.0
 11
108.0000000493425
 21
-27.49999958688125
 31
0.0
  0
LINE
  5
11F
330
1E
100
AcDbEntity
  8
0
 62
     7
100
AcDbLine
 10
108.0000000493425
 20
-23.99999963953644
 30
0.0
 11
114.5000000075448
 21
-23.99999963953644
 31
0.0
  0
LINE
  5
120
330
1E
100
AcDbEntity
  8
0
 62
     7
100
AcDbLine
 10
114.5000000075448
 20
-23.99999963953644
 30
0.0
 11
115.0000000000334
 21
-23.49999964702214
 31
0.0
  0
LINE
  5
121
330
1E
100
AcDbEntity
  8
0
 62
     7
100
AcDbLine
 10
115.0000000000334
 20
-23.49999964702214
 30
0.0
 11
115.0000000000334
 21
23.49999964702737
 31
0.0
  0
LINE
  5
122
330
1E
100
AcDbEntity
  8
0
 62
     7
100
AcDbLine
 10
104.000000109562
 20
58.92799911496489
 30
0.0
 11
104.000000109562
 21
24.24999963578864
 31
0.0
  0
LINE
  5
123
330
1E
100
AcDbEntity
  8
0
 62
     7
100
AcDbLine
 10
104.000000109562
 20
24.24999963578864
 30
0.0
 11
85.90000038141566
 21
24.24999963578864
 31
0.0
  0
LINE
  5
124
330
1E
100
AcDbEntity
  8
0
 62
     7
100
AcDbLine
 10
85.90000038141566
 20
24.24999963578864
 30
0.0
 11
85.90000038141566
 21
58.92799911496489
 31
0.0
  0
LINE
  5
125
330
1E
100
AcDbEntity
  8
0
 62
     7
100
AcDbLine
 10
93.10000027327903
 20
58.92799911496489
 30
0.0
 11
93.10000027327903
 21
24.24999963578864
 31
0.0
  0
LINE
  5
126
330
1E
100
AcDbEntity
  8
0
 62
     7
100
AcDbLine
 10
93.10000027327903
 20
32.2499995156262
 30
0.0
 11
85.90000038141566
 21
32.2499995156262
 31
0.0
  0
LINE
  5
127
330
1E
100
AcDbEntity
  8
0
 62
     7
100
AcDbLine
 10
85.90000038141566
 20
-24.24999963572975
 30
0.0
 11
104.000000109562
 21
-24.24999963572975
 31
0.0
  0
LINE
  5
128
330
1E
100
AcDbEntity
  8
0
 62
     7
100
AcDbLine
 10
104.000000109562
 20
-24.24999963572975
 30
0.0
 11
104.000000109562
 21
-58.92799911473606
 31
0.0
  0
LINE
  5
129
330
1E
100
AcDbEntity
  8
0
 62
     7
100
AcDbLine
 10
85.90000038141566
 20
-58.92799911473606
 30
0.0
 11
85.90000038141566
 21
-24.24999963572975
 31
0.0
  0
LINE
  5
12A
330
1E
100
AcDbEntity
  8
0
 62
     7
100
AcDbLine
 10
85.90000038141566
 20
-32.24999951539746
 30
0.0
 11
93.10000027327903
 21
-32.24999951539746
 31
0.0
  0
LINE
  5
12B
330
1E
100
AcDbEntity
  8
0
 62
     7
100
AcDbLine
 10
93.10000027327903
 20
-32.24999951539746
 30
0.0
 11
93.10000027327903
 21
-24.24999963572975
 31
0.0
  0
LINE
  5
12C
330
1E
100
AcDbEntity
  8
0
 62
     7
100
AcDbLine
 10
80.90000045653161
 20
68.9999989637273
 30
0.0
 11
83.40000041898722
 21
68.9999989637273
 31
0.0
  0
LINE
  5
12D
330
1E
100
AcDbEntity
  8
0
 62
     7
100
AcDbLine
 10
83.40000041898722
 20
68.9999989637273
 30
0.0
 11
83.40000041898722
 21
51.99999921898279
 31
0.0
  0
LINE
  5
12E
330
1E
100
AcDbEntity
  8
0
 62
     7
100
AcDbLine
 10
92.900000276347
 20
51.99999921898279
 30
0.0
 11
92.900000276347
 21
32.49999951187078
 31
0.0
  0
LINE
  5
12F
330
1E
100
AcDbEntity
  8
0
 62
     7
100
AcDbLine
 10
83.40000041898722
 20
51.99999921898279
 30
0.0
 11
92.900000276347
 21
51.99999921898279
 31
0.0
  0
LINE
  5
130
330
1E
100
AcDbEntity
  8
0
 62
     7
100
AcDbLine
 10
92.900000276347
 20
32.49999951187078
 30
0.0
 11
85.40000038896002
 21
32.49999951187078
 31
0.0
  0
LINE
  5
131
330
1E
100
AcDbEntity
  8
0
 62
     7
100
AcDbLine
 10
85.90000038144863
 20
51.99999921898279
 30
0.0
 11
85.90000038144863
 21
24.24999963578864
 31
0.0
  0
LINE
  5
132
330
1E
100
AcDbEntity
  8
0
 62
     7
100
AcDbLine
 10
80.90000045653161
 20
68.9999989637273
 30
0.0
 11
80.90000045653161
 21
51.99999921898279
 31
0.0
  0
LINE
  5
133
330
1E
100
AcDbEntity
  8
0
 62
     7
100
AcDbLine
 10
80.90000045653161
 20
51.99999921898279
 30
0.0
 11
79.90000047155056
 21
51.99999921898279
 31
0.0
  0
LINE
  5
134
330
1E
100
AcDbEntity
  8
0
 62
     7
100
AcDbLine
 10
79.90000047155056
 20
29.99999954947759
 30
0.0
 11
80.40000046404125
 21
29.99999954947759
 31
0.0
  0
LINE
  5
135
330
1E
100
AcDbEntity
  8
0
 62
     7
100
AcDbLine
 10
80.40000046404125
 20
29.99999954947759
 30
0.0
 11
80.40000046404125
 21
25.24999962078618
 31
0.0
  0
LINE
  5
136
330
1E
100
AcDbEntity
  8
0
 62
     7
100
AcDbLine
 10
80.40000046404125
 20
26.749999598199
 30
0.0
 11
82.9000004264296
 21
24.24999963578864
 31
0.0
  0
LINE
  5
137
330
1E
100
AcDbEntity
  8
0
 62
     7
100
AcDbLine
 10
82.9000004264296
 20
24.24999963578864
 30
0.0
 11
85.40000038896002
 21
24.24999963578864
 31
0.0
  0
LINE
  5
138
330
1E
100
AcDbEntity
  8
0
 62
     7
100
AcDbLine
 10
85.40000038896002
 20
24.24999963578864
 30
0.0
 11
85.40000038896002
 21
32.49999951187078
 31
0.0
  0
LINE
  5
139
330
1E
100
AcDbEntity
  8
0
 62
     7
100
AcDbLine
 10
85.90000038144863
 20
32.49999951187078
 30
0.0
 11
85.90000038144863
 21
24.24999963578864
 31
0.0
  0
LINE
  5
13A
330
1E
100
AcDbEntity
  8
0
 62
     7
100
AcDbLine
 10
80.90000045653161
 20
-68.99999896344809
 30
0.0
 11
83.40000041898722
 21
-68.99999896344809
 31
0.0
  0
LINE
  5
13B
330
1E
100
AcDbEntity
  8
0
 62
     7
100
AcDbLine
 10
83.40000041898722
 20
-68.99999896344809
 30
0.0
 11
83.40000041898722
 21
-51.99999921857635
 31
0.0
  0
LINE
  5
13C
330
1E
100
AcDbEntity
  8
0
 62
     7
100
AcDbLine
 10
83.40000041898722
 20
-51.99999921857635
 30
0.0
 11
85.90000038144863
 21
-51.99999921857635
 31
0.0
  0
LINE
  5
13D
330
1E
100
AcDbEntity
  8
0
 62
     7
100
AcDbLine
 10
85.90000038144863
 20
-51.99999921857635
 30
0.0
 11
85.90000038144863
 21
-24.24999963572975
 31
0.0
  0
LINE
  5
13E
330
1E
100
AcDbEntity
  8
0
 62
     7
100
AcDbLine
 10
85.90000038144863
 20
-32.49999951176892
 30
0.0
 11
85.40000038896002
 21
-32.49999951176892
 31
0.0
  0
LINE
  5
13F
330
1E
100
AcDbEntity
  8
0
 62
     7
100
AcDbLine
 10
85.40000038896002
 20
-32.49999951176892
 30
0.0
 11
85.40000038896002
 21
-24.24999963572975
 31
0.0
  0
LINE
  5
140
330
1E
100
AcDbEntity
  8
0
 62
     7
100
AcDbLine
 10
85.90000038144863
 20
-24.24999963572975
 30
0.0
 11
82.90000042648065
 21
-24.24999963578046
 31
0.0
  0
LINE
  5
141
330
1E
100
AcDbEntity
  8
0
 62
     7
100
AcDbLine
 10
82.90000042648065
 20
-24.24999963578046
 30
0.0
 11
80.40000046404125
 21
-26.7499995980213
 31
0.0
  0
LINE
  5
142
330
1E
100
AcDbEntity
  8
0
 62
     7
100
AcDbLine
 10
80.40000046404125
 20
-25.24999962073264
 30
0.0
 11
80.40000046404125
 21
-29.99999954907105
 31
0.0
  0
LINE
  5
143
330
1E
100
AcDbEntity
  8
0
 62
     7
100
AcDbLine
 10
80.40000046404125
 20
-29.99999954907105
 30
0.0
 11
72.90000057668246
 21
-29.99999954907105
 31
0.0
  0
LINE
  5
144
330
1E
100
AcDbEntity
  8
0
 62
     7
100
AcDbLine
 10
72.90000057668246
 20
-29.99999954907105
 30
0.0
 11
72.90000057668246
 21
-51.99999921857635
 31
0.0
  0
LINE
  5
145
330
1E
100
AcDbEntity
  8
0
 62
     7
100
AcDbLine
 10
72.90000057668246
 20
-51.99999921857635
 30
0.0
 11
80.90000045653161
 21
-51.99999921857635
 31
0.0
  0
LINE
  5
146
330
1E
100
AcDbEntity
  8
0
 62
     7
100
AcDbLine
 10
80.90000045653161
 20
-51.99999921857635
 30
0.0
 11
80.90000045653161
 21
-68.99999896344809
 31
0.0
  0
LINE
  5
147
330
1E
100
AcDbEntity
  8
0
 62
     7
100
AcDbLine
 10
79.90000047155056
 20
-29.99999954907105
 30
0.0
 11
79.90000047155056
 21
-51.99999921857635
 31
0.0
  0
LINE
  5
148
330
1E
100
AcDbEntity
  8
0
 62
     7
100
AcDbLine
 10
70.40000000003404
 20
15.29999977027796
 30
0.0
 11
115.0000000000334
 21
15.29999977027796
 31
0.0
  0
LINE
  5
149
330
1E
100
AcDbEntity
  8
0
 62
     7
100
AcDbLine
 10
70.40000000003404
 20
11.99999981977326
 30
0.0
 11
115.0000000000334
 21
11.99999981977326
 31
0.0
  0
LINE
  5
14A
330
1E
100
AcDbEntity
  8
0
 62
     7
100
AcDbLine
 10
70.40000000003404
 20
-11.99999981972985
 30
0.0
 11
115.0000000000334
 21
-11.99999981972985
 31
0.0
  0
LINE
  5
14B
330
1E
100
AcDbEntity
  8
0
 62
     7
100
AcDbLine
 10
104.0000001094067
 20
29.99999954947759
 30
0.0
 11
106.1000000779107
 21
29.99999954947759
 31
0.0
  0
LINE
  5
14C
330
1E
100
AcDbEntity
  8
0
 62
     7
100
AcDbLine
 10
106.1000000779107
 20
24.99999962454706
 30
0.0
 11
104.0000001094067
 21
24.99999962454706
 31
0.0
  0
LINE
  5
14D
330
1E
100
AcDbEntity
  8
0
 62
     7
100
AcDbLine
 10
106.1000000779107
 20
27.49999958690694
 30
0.0
 11
108.0000000493425
 21
27.49999958690694
 31
0.0
  0
LINE
  5
14E
330
1E
100
AcDbEntity
  8
0
 62
     7
100
AcDbLine
 10
104.0000001094067
 20
-29.99999954932525
 30
0.0
 11
106.1000000779107
 21
-29.99999954932525
 31
0.0
  0
LINE
  5
14F
330
1E
100
AcDbEntity
  8
0
 62
     7
100
AcDbLine
 10
106.1000000779107
 20
-24.99999962448851
 30
0.0
 11
104.0000001094067
 21
-24.99999962448851
 31
0.0
  0
LINE
  5
150
330
1E
100
AcDbEntity
  8
0
 62
     7
100
AcDbLine
 10
106.1000000779107
 20
-27.49999958688125
 30
0.0
 11
108.0000000493425
 21
-27.49999958688125
 31
0.0
  0
LINE
  5
151
330
1E
100
AcDbEntity
  8
1
 62
     7
100
AcDbLine
 10
50.50000000016556
 20
-54.0
 30
0.0
 11
41.50000000000002
 21
-54.0
 31
0.0
  0
LINE
  5
152
330
1E
100
AcDbEntity
  8
1
 62
     7
100
AcDbLine
 10
50.50000000023484
 20
-49.25
 30
0.0
 11
38.50000000000003
 21
-49.25
 31
0.0
  0
LINE
  5
153
330
1E
100
AcDbEntity
  8
1
 62
     7
100
AcDbLine
 10
50.50000000016556
 20
-49.25
 30
0.0
 11
50.50000000016556
 21
-54.0
 31
0.0
  0
LINE
  5
154
330
1E
100
AcDbEntity
  8
1
 62
     7
100
AcDbLine
 10
41.50000000000002
 20
54.0
 30
0.0
 11
50.50000000010342
 21
54.0
 31
0.0
  0
LINE
  5
155
330
1E
100
AcDbEntity
  8
1
  6
CENTER
 62
     3
100
AcDbLine
 10
-162.6053275998064
 20
47.37615433949884
 30
0.0
 11
-179.5758903482835
 21
30.40559159102178
 31
0.0
  0
LINE
  5
156
330
1E
100
AcDbEntity
  8
1
 62
     7
100
AcDbLine
 10
32.00000000000003
 20
-31.25
 30
0.0
 11
38.50000000000003
 21
-31.25
 31
0.0
  0
LINE
  5
157
330
1E
100
AcDbEntity
  8
1
 62
     7
100
AcDbLine
 10
32.00000000000003
 20
-48.75
 30
0.0
 11
38.50000000000003
 21
-48.75
 31
0.0
  0
LINE
  5
158
330
1E
100
AcDbEntity
  8
1
 62
     7
100
AcDbLine
 10
32.00000000000003
 20
-25.9999996093901
 30
0.0
 11
32.00000000000003
 21
-33.5
 31
0.0
  0
LINE
  5
159
330
1E
100
AcDbEntity
  8
1
 62
     7
100
AcDbLine
 10
38.50000000000003
 20
-30.75
 30
0.0
 11
50.50000000023484
 21
-30.75
 31
0.0
  0
LINE
  5
15A
330
1E
100
AcDbEntity
  8
1
 62
     7
100
AcDbLine
 10
38.50000000000003
 20
-33.5000000000001
 30
0.0
 11
38.50000000008961
 21
-25.9999996093901
 31
0.0
  0
LINE
  5
15B
330
1E
100
AcDbEntity
  8
1
 62
     7
100
AcDbLine
 10
12.00000000000001
 20
-22.0
 30
0.0
 11
25.00000000000003
 21
-22.0
 31
0.0
  0
LINE
  5
15C
330
1E
100
AcDbEntity
  8
1
 62
     7
100
AcDbLine
 10
25.00000000000003
 20
22.0
 30
0.0
 11
12.00000000000001
 21
22.0
 31
0.0
  0
LINE
  5
15D
330
1E
100
AcDbEntity
  8
1
 62
     7
100
AcDbLine
 10
10.00000000000003
 20
25.99999960938998
 30
0.0
 11
4.000000000000028
 21
25.99999960938998
 31
0.0
  0
LINE
  5
15E
330
1E
100
AcDbEntity
  8
1
 62
     7
100
AcDbLine
 10
10.00000000000003
 20
-25.9999996093901
 30
0.0
 11
4.000000000000028
 21
-25.9999996093901
 31
0.0
  0
LINE
  5
15F
330
1E
100
AcDbEntity
  8
1
 62
     7
100
AcDbLine
 10
10.00000000000003
 20
24.0
 30
0.0
 11
12.00000000000001
 21
22.0
 31
0.0
  0
LINE
  5
160
330
1E
100
AcDbEntity
  8
1
 62
     7
100
AcDbLine
 10
27.00000000000003
 20
24.0
 30
0.0
 11
25.00000000000003
 21
22.0
 31
0.0
  0
LINE
  5
161
330
1E
100
AcDbEntity
  8
1
 62
     7
100
AcDbLine
 10
10.00000000000003
 20
-25.9999996093901
 30
0.0
 11
10.00000000000003
 21
25.99999960938998
 31
0.0
  0
LINE
  5
162
330
1E
100
AcDbEntity
  8
1
 62
     7
100
AcDbLine
 10
27.00000000000003
 20
-25.9999996093901
 30
0.0
 11
27.00000000000003
 21
25.99999960938998
 31
0.0
  0
LINE
  5
163
330
1E
100
AcDbEntity
  8
1
 62
     7
100
AcDbLine
 10
12.00000000000001
 20
-22.0
 30
0.0
 11
10.00000000000003
 21
-24.0
 31
0.0
  0
LINE
  5
164
330
1E
100
AcDbEntity
  8
1
 62
     7
100
AcDbLine
 10
25.00000000000003
 20
-22.0
 30
0.0
 11
27.00000000000003
 21
-24.0
 31
0.0
  0
LINE
  5
165
330
1E
100
AcDbEntity
  8
1
 62
     7
100
AcDbLine
 10
12.00000000000001
 20
22.0
 30
0.0
 11
12.00000000000001
 21
-22.0
 31
0.0
  0
LINE
  5
166
330
1E
100
AcDbEntity
  8
1
 62
     7
100
AcDbLine
 10
25.00000000000003
 20
22.0
 30
0.0
 11
25.00000000000003
 21
-22.0
 31
0.0
  0
LINE
  5
167
330
1E
100
AcDbEntity
  8
1
 62
     7
100
AcDbLine
 10
28.00000000000003
 20
-24.9999996093901
 30
0.0
 11
29.00000000000003
 21
-25.9999996093901
 31
0.0
  0
LINE
  5
168
330
1E
100
AcDbEntity
  8
1
 62
     7
100
AcDbLine
 10
29.00000000000003
 20
25.99999960938998
 30
0.0
 11
28.00000000000003
 21
24.99999960938998
 31
0.0
  0
LINE
  5
169
330
1E
100
AcDbEntity
  8
0
 62
     7
100
AcDbLine
 10
108.0000000000119
 20
-130.0000000000274
 30
0.0
 11
85.00000000007853
 21
-129.9999999999976
 31
0.0
  0
LINE
  5
16A
330
1E
100
AcDbEntity
  8
1
 62
     7
100
AcDbLine
 10
35.00000000000003
 20
88.0
 30
0.0
 11
35.00000000000003
 21
80.75000000000001
 31
0.0
  0
LINE
  5
16B
330
1E
100
AcDbEntity
  8
1
 62
     7
100
AcDbLine
 10
28.82106781186555
 20
80.75000000000001
 30
0.0
 11
35.00000000000003
 21
80.75000000000001
 31
0.0
  0
LINE
  5
16C
330
1E
100
AcDbEntity
  8
1
 62
     7
100
AcDbLine
 10
36.00000000000003
 20
88.0
 30
0.0
 11
36.00000000000003
 21
84.0
 31
0.0
  0
LINE
  5
16D
330
1E
100
AcDbEntity
  8
1
 62
     7
100
AcDbLine
 10
35.00000000000003
 20
88.0
 30
0.0
 11
39.00000000000002
 21
88.0
 31
0.0
  0
LINE
  5
16E
330
1E
100
AcDbEntity
  8
1
 62
     7
100
AcDbLine
 10
36.00000000000003
 20
84.0
 30
0.0
 11
41.00000000025382
 21
84.0
 31
0.0
  0
LINE
  5
16F
330
1E
100
AcDbEntity
  8
1
 62
     7
100
AcDbLine
 10
40.50000000000002
 20
91.30000000000022
 30
0.0
 11
39.00000000000002
 21
91.30000000000022
 31
0.0
  0
LINE
  5
170
330
1E
100
AcDbEntity
  8
1
 62
     7
100
AcDbLine
 10
40.50000000000002
 20
94.0
 30
0.0
 11
40.50000000000002
 21
91.30000000000022
 31
0.0
  0
LINE
  5
171
330
1E
100
AcDbEntity
  8
1
 62
     7
100
AcDbLine
 10
40.50000000000002
 20
94.0
 30
0.0
 11
39.00000000000002
 21
94.0
 31
0.0
  0
LINE
  5
172
330
1E
100
AcDbEntity
  8
1
 62
     7
100
AcDbLine
 10
39.00000000000002
 20
-104.4999999999999
 30
0.0
 11
38.50000000000003
 21
-105.0
 31
0.0
  0
LINE
  5
173
330
1E
100
AcDbEntity
  8
1
 62
     7
100
AcDbLine
 10
39.50000000000002
 20
-105.0
 30
0.0
 11
39.00000000000002
 21
-104.4999999999999
 31
0.0
  0
LINE
  5
174
330
1E
100
AcDbEntity
  8
1
  6
CENTER
 62
     3
100
AcDbLine
 10
-1.299999999999912
 20
-99.0
 30
0.0
 11
42.5297748230022
 21
-99.0000000000432
 31
0.0
  0
LINE
  5
175
330
1E
100
AcDbEntity
  8
1
 62
     7
100
AcDbLine
 10
39.50000000000002
 20
-105.0
 30
0.0
 11
77.50000000000544
 21
-105.0
 31
0.0
  0
LINE
  5
176
330
1E
100
AcDbEntity
  8
1
 62
     7
100
AcDbLine
 10
35.00000000000003
 20
-80.75000000000001
 30
0.0
 11
35.00000000000003
 21
-88.0
 31
0.0
  0
LINE
  5
177
330
1E
100
AcDbEntity
  8
1
 62
     7
100
AcDbLine
 10
35.00000000000003
 20
-80.75000000000001
 30
0.0
 11
28.82106781186555
 21
-80.75000000000001
 31
0.0
  0
LINE
  5
178
330
1E
100
AcDbEntity
  8
1
 62
     7
100
AcDbLine
 10
36.00000000000003
 20
-84.0
 30
0.0
 11
36.00000000000003
 21
-88.0
 31
0.0
  0
LINE
  5
179
330
1E
100
AcDbEntity
  8
1
 62
     7
100
AcDbLine
 10
39.00000000000002
 20
-88.0
 30
0.0
 11
35.00000000000003
 21
-88.0
 31
0.0
  0
LINE
  5
17A
330
1E
100
AcDbEntity
  8
1
 62
     7
100
AcDbLine
 10
41.00000000025382
 20
-84.0
 30
0.0
 11
36.00000000000003
 21
-84.0
 31
0.0
  0
LINE
  5
17B
330
1E
100
AcDbEntity
  8
1
 62
     7
100
AcDbLine
 10
39.00000000000002
 20
-91.30000000000007
 30
0.0
 11
40.50000000000002
 21
-91.30000000000007
 31
0.0
  0
LINE
  5
17C
330
1E
100
AcDbEntity
  8
1
 62
     7
100
AcDbLine
 10
40.50000000000002
 20
-91.30000000000007
 30
0.0
 11
40.50000000000002
 21
-94.0
 31
0.0
  0
LINE
  5
17D
330
1E
100
AcDbEntity
  8
1
 62
     7
100
AcDbLine
 10
39.00000000000002
 20
-94.0
 30
0.0
 11
40.50000000000002
 21
-94.0
 31
0.0
  0
LINE
  5
17E
330
1E
100
AcDbEntity
  8
1
 62
     7
100
AcDbLine
 10
339.6999999970228
 20
15.29999977027796
 30
0.0
 11
339.6999999970228
 21
11.31370830777939
 31
0.0
  0
LINE
  5
17F
330
1E
100
AcDbEntity
  8
1
 62
     7
100
AcDbLine
 10
339.6999999970228
 20
15.29999977027796
 30
0.0
 11
347.6999999970228
 21
15.29999977027796
 31
0.0
  0
LINE
  5
180
330
1E
100
AcDbEntity
  8
1
 62
     7
100
AcDbLine
 10
347.6999999970228
 20
15.29999981972981
 30
0.0
 11
347.6999999970228
 21
11.31370830777939
 31
0.0
  0
LINE
  5
181
330
1E
100
AcDbEntity
  8
0
 62
     7
100
AcDbLine
 10
32.00000000000003
 20
62.5
 30
0.0
 11
32.00000000000003
 21
25.99999960938998
 31
0.0
  0
LINE
  5
182
330
1E
100
AcDbEntity
  8
1
  6
CENTER
 62
     3
100
AcDbLine
 10
-322.4814819393051
 20
0.0
 30
0.0
 11
-94.62755149785911
 21
0.0
 31
0.0
  0
LINE
  5
183
330
1E
100
AcDbEntity
  8
1
  6
CENTER
 62
     3
100
AcDbLine
 10
-209.981481939305
 20
112.5
 30
0.0
 11
-209.981481939305
 21
-112.5
 31
0.0
  0
LINE
  5
184
330
1E
100
AcDbEntity
  8
1
  6
CENTER
 62
     3
100
AcDbLine
 10
479.6999999970402
 20
0.0
 30
0.0
 11
203.081332537905
 21
0.0
 31
0.0
  0
LINE
  5
185
330
1E
100
AcDbEntity
  8
1
  6
CENTER
 62
     3
100
AcDbLine
 10
343.6999999970228
 20
-136.000000000017
 30
0.0
 11
343.6999999970228
 21
142.8129329567422
 31
0.0
  0
LINE
  5
186
330
1E
100
AcDbEntity
  8
0
 62
     7
100
AcDbLine
 10
78.50000000000544
 20
105.9999999999367
 30
0.0
 11
77.50000000000544
 21
105.0
 31
0.0
  0
LINE
  5
187
330
1E
100
AcDbEntity
  8
1
 62
     7
100
AcDbLine
 10
77.50000000000544
 20
-105.0
 30
0.0
 11
78.50000000000544
 21
-105.9999999999925
 31
0.0
  0
LINE
  5
188
330
1E
100
AcDbEntity
  8
1
 62
     7
100
AcDbLine
 10
41.00000000025382
 20
84.0
 30
0.0
 11
50.99999999999741
 21
94.0
 31
0.0
  0
LINE
  5
189
330
1E
100
AcDbEntity
  8
1
 62
     7
100
AcDbLine
 10
74.50000000025394
 20
94.0
 30
0.0
 11
50.99999999999741
 21
94.0
 31
0.0
  0
LINE
  5
18A
330
1E
100
AcDbEntity
  8
1
 62
     7
100
AcDbLine
 10
41.00000000025382
 20
-84.0
 30
0.0
 11
50.99999999999741
 21
-94.0
 31
0.0
  0
LINE
  5
18B
330
1E
100
AcDbEntity
  8
1
 62
     7
100
AcDbLine
 10
50.99999999999741
 20
-94.0
 30
0.0
 11
74.50000000000001
 21
-94.0
 31
0.0
  0
LINE
  5
18C
330
1E
100
AcDbEntity
  8
1
 62
     7
100
AcDbLine
 10
79.50000000000001
 20
-83.63136959421614
 30
0.0
 11
79.50000000000001
 21
-89.0
 31
0.0
  0
LINE
  5
18D
330
1E
100
AcDbEntity
  8
1
 62
     7
100
AcDbLine
 10
2.00000000000459
 20
90.0
 30
0.0
 11
6.034385846384139
 21
83.69627211503223
 31
0.0
  0
LINE
  5
18E
330
1E
100
AcDbEntity
  8
1
 62
     7
100
AcDbLine
 10
6.837025025887527
 20
84.20996118991444
 30
0.0
 11
5.231746666880525
 21
83.18258304015001
 31
0.0
  0
LINE
  5
18F
330
1E
100
AcDbEntity
  8
1
 62
     7
100
AcDbLine
 10
5.231746666880525
 20
83.18258304015001
 30
0.0
 11
10.00000000000463
 21
77.5
 31
0.0
  0
LINE
  5
190
330
1E
100
AcDbEntity
  8
1
 62
     7
100
AcDbLine
 10
10.00000000000463
 20
77.5
 30
0.0
 11
6.837025025887527
 21
84.20996118991444
 31
0.0
  0
LINE
  5
191
330
1E
100
AcDbEntity
  8
1
 62
     7
100
AcDbLine
 10
6.034385846384139
 20
-83.69627211503223
 30
0.0
 11
2.00000000000459
 21
-90.0
 31
0.0
  0
LINE
  5
192
330
1E
100
AcDbEntity
  8
1
 62
     7
100
AcDbLine
 10
5.231746666880525
 20
-83.18258304015001
 30
0.0
 11
6.837025025887527
 21
-84.20996118991444
 31
0.0
  0
LINE
  5
193
330
1E
100
AcDbEntity
  8
1
 62
     7
100
AcDbLine
 10
10.00000000000463
 20
-77.5
 30
0.0
 11
5.231746666880525
 21
-83.18258304015001
 31
0.0
  0
LINE
  5
194
330
1E
100
AcDbEntity
  8
1
 62
     7
100
AcDbLine
 10
6.837025025887527
 20
-84.20996118991444
 30
0.0
 11
10.00000000000463
 21
-77.5
 31
0.0
  0
LINE
  5
195
330
1E
100
AcDbEntity
  8
1
  6
CENTER
 62
     3
100
AcDbLine
 10
-108.6939629538713
 20
32.91030990093168
 30
0.0
 11
-122.9598106982986
 21
28.27505498530752
 31
0.0
  0
LINE
  5
196
330
1E
100
AcDbEntity
  8
1
  6
CENTER
 62
     3
100
AcDbLine
 10
-123.8211720383732
 20
62.59912936914827
 30
0.0
 11
-135.9564269539974
 21
53.78235058476115
 31
0.0
  0
LINE
  5
197
330
1E
100
AcDbEntity
  8
1
  6
CENTER
 62
     3
100
AcDbLine
 10
-115.0892871132439
 20
48.34998822226168
 30
0.0
 11
-128.4543849760694
 21
41.54013072616851
 31
0.0
  0
LINE
  5
198
330
1E
100
AcDbEntity
  8
1
  6
CENTER
 62
     3
100
AcDbLine
 10
-123.8211720383732
 20
-62.5991293691485
 30
0.0
 11
-135.9564269539974
 21
-53.78235058476139
 31
0.0
  0
LINE
  5
199
330
1E
100
AcDbEntity
  8
1
  6
CENTER
 62
     3
100
AcDbLine
 10
-108.6939629538713
 20
-32.91030990093213
 30
0.0
 11
-122.9598106982986
 21
-28.27505498530786
 31
0.0
  0
LINE
  5
19A
330
1E
100
AcDbEntity
  8
1
  6
CENTER
 62
     3
100
AcDbLine
 10
267.6860210194693
 20
-76.01397897755385
 30
0.0
 11
252.8367786145518
 21
-90.86322138247135
 31
0.0
  0
LINE
  5
19B
330
1E
100
AcDbEntity
  8
1
  6
CENTER
 62
     3
100
AcDbLine
 10
267.6860210194691
 20
76.01397897755385
 30
0.0
 11
252.8367786145515
 21
90.86322138247135
 31
0.0
  0
LINE
  5
19C
330
1E
100
AcDbEntity
  8
1
  6
CENTER
 62
     3
100
AcDbLine
 10
301.9875058692282
 20
100.7028690437303
 30
0.0
 11
295.0992040866566
 21
117.3327006289335
 31
0.0
  0
LINE
  5
19D
330
1E
100
AcDbEntity
  8
1
  6
CENTER
 62
     3
100
AcDbLine
 10
301.9875058692282
 20
-100.7028690437304
 30
0.0
 11
295.0992040866566
 21
-117.3327006289335
 31
0.0
  0
LINE
  5
19E
330
1E
100
AcDbEntity
  8
1
  6
CENTER
 62
     3
100
AcDbLine
 10
242.9971309532928
 20
-41.7124941277948
 30
0.0
 11
226.3672993680895
 21
-48.6007959103664
 31
0.0
  0
LINE
  5
19F
330
1E
100
AcDbEntity
  8
1
  6
CENTER
 62
     3
100
AcDbLine
 10
242.9971309532926
 20
41.71249412779467
 30
0.0
 11
226.3672993680895
 21
48.60079591036629
 31
0.0
  0
LINE
  5
1A0
330
1E
100
AcDbEntity
  8
1
 62
     7
100
AcDbLine
 10
-130.1905471782132
 20
-61.06167739698411
 30
0.0
 11
-127.5533685987787
 21
-59.88752984513859
 31
0.0
  0
LINE
  5
1A1
330
1E
100
AcDbEntity
  8
1
 62
     7
100
AcDbLine
 10
-127.5533685987787
 20
-59.88752984513859
 30
0.0
 11
-127.2516209167509
 21
-57.01659242510925
 31
0.0
  0
LINE
  5
1A2
330
1E
100
AcDbEntity
  8
1
 62
     7
100
AcDbLine
 10
-127.2516209167509
 20
-57.01659242510925
 30
0.0
 11
-129.5870518141576
 21
-55.31980255692554
 31
0.0
  0
LINE
  5
1A3
330
1E
100
AcDbEntity
  8
1
 62
     7
100
AcDbLine
 10
-129.5870518141576
 20
-55.31980255692554
 30
0.0
 11
-132.2242303935923
 21
-56.49395010877107
 31
0.0
  0
LINE
  5
1A4
330
1E
100
AcDbEntity
  8
1
 62
     7
100
AcDbLine
 10
-132.2242303935923
 20
-56.49395010877107
 30
0.0
 11
-132.52597807562
 21
-59.3648875288003
 31
0.0
  0
LINE
  5
1A5
330
1E
100
AcDbEntity
  8
1
 62
     7
100
AcDbLine
 10
-132.52597807562
 20
-59.3648875288003
 30
0.0
 11
-130.1905471782132
 21
-61.06167739698411
 31
0.0
  0
LINE
  5
1A6
330
1E
100
AcDbEntity
  8
1
 62
     7
100
AcDbLine
 10
-115.2266974727784
 20
-33.41635134607394
 30
0.0
 11
-113.0814231475973
 21
-31.48473766755251
 31
0.0
  0
LINE
  5
1A7
330
1E
100
AcDbEntity
  8
1
 62
     7
100
AcDbLine
 10
-113.0814231475973
 20
-31.48473766755251
 30
0.0
 11
-113.6816125009038
 21
-28.66106876459821
 31
0.0
  0
LINE
  5
1A8
330
1E
100
AcDbEntity
  8
1
 62
     7
100
AcDbLine
 10
-113.6816125009038
 20
-28.66106876459821
 30
0.0
 11
-116.4270761793914
 21
-27.76901354016559
 31
0.0
  0
LINE
  5
1A9
330
1E
100
AcDbEntity
  8
1
 62
     7
100
AcDbLine
 10
-116.4270761793914
 20
-27.76901354016559
 30
0.0
 11
-118.5723505045729
 21
-29.70062721868703
 31
0.0
  0
LINE
  5
1AA
330
1E
100
AcDbEntity
  8
1
 62
     7
100
AcDbLine
 10
-118.5723505045729
 20
-29.70062721868703
 30
0.0
 11
-117.9721611512662
 21
-32.52429612164132
 31
0.0
  0
LINE
  5
1AB
330
1E
100
AcDbEntity
  8
1
 62
     7
100
AcDbLine
 10
-117.9721611512662
 20
-32.52429612164132
 30
0.0
 11
-115.2266974727784
 21
-33.41635134607394
 31
0.0
  0
LINE
  5
1AC
330
1E
100
AcDbEntity
  8
1
 62
     7
100
AcDbLine
 10
-109.5381062663312
 20
-2.500000000000114
 30
0.0
 11
-108.094730593357
 21
-0.0000000000001137
 31
0.0
  0
LINE
  5
1AD
330
1E
100
AcDbEntity
  8
1
 62
     7
100
AcDbLine
 10
-108.094730593357
 20
-0.0000000000001137
 30
0.0
 11
-109.5381062663312
 21
2.499999999999884
 31
0.0
  0
LINE
  5
1AE
330
1E
100
AcDbEntity
  8
1
 62
     7
100
AcDbLine
 10
-109.5381062663312
 20
2.499999999999884
 30
0.0
 11
-112.4248576122794
 21
2.499999999999884
 31
0.0
  0
LINE
  5
1AF
330
1E
100
AcDbEntity
  8
1
 62
     7
100
AcDbLine
 10
-112.4248576122794
 20
2.499999999999884
 30
0.0
 11
-113.8682332852533
 21
-0.0000000000001137
 31
0.0
  0
LINE
  5
1B0
330
1E
100
AcDbEntity
  8
1
 62
     7
100
AcDbLine
 10
-113.8682332852533
 20
-0.0000000000001137
 30
0.0
 11
-112.4248576122794
 21
-2.500000000000114
 31
0.0
  0
LINE
  5
1B1
330
1E
100
AcDbEntity
  8
1
 62
     7
100
AcDbLine
 10
-112.4248576122794
 20
-2.500000000000114
 30
0.0
 11
-109.5381062663312
 21
-2.500000000000114
 31
0.0
  0
LINE
  5
1B2
330
1E
100
AcDbEntity
  8
1
 62
     7
100
AcDbLine
 10
-113.6816125009039
 20
28.66106876459821
 30
0.0
 11
-113.0814231475973
 21
31.48473766755251
 31
0.0
  0
LINE
  5
1B3
330
1E
100
AcDbEntity
  8
1
 62
     7
100
AcDbLine
 10
-113.0814231475973
 20
31.48473766755251
 30
0.0
 11
-115.2266974727784
 21
33.41635134607407
 31
0.0
  0
LINE
  5
1B4
330
1E
100
AcDbEntity
  8
1
 62
     7
100
AcDbLine
 10
-115.2266974727784
 20
33.41635134607407
 30
0.0
 11
-117.9721611512662
 21
32.52429612164121
 31
0.0
  0
LINE
  5
1B5
330
1E
100
AcDbEntity
  8
1
 62
     7
100
AcDbLine
 10
-117.9721611512662
 20
32.52429612164121
 30
0.0
 11
-118.5723505045729
 21
29.70062721868703
 31
0.0
  0
LINE
  5
1B6
330
1E
100
AcDbEntity
  8
1
 62
     7
100
AcDbLine
 10
-118.5723505045729
 20
29.70062721868703
 30
0.0
 11
-116.4270761793914
 21
27.76901354016559
 31
0.0
  0
LINE
  5
1B7
330
1E
100
AcDbEntity
  8
1
 62
     7
100
AcDbLine
 10
-116.4270761793914
 20
27.76901354016559
 30
0.0
 11
-113.6816125009039
 21
28.66106876459821
 31
0.0
  0
LINE
  5
1B8
330
1E
100
AcDbEntity
  8
1
 62
     7
100
AcDbLine
 10
-127.2516209167509
 20
57.01659242510936
 30
0.0
 11
-127.5533685987787
 21
59.88752984513849
 31
0.0
  0
LINE
  5
1B9
330
1E
100
AcDbEntity
  8
1
 62
     7
100
AcDbLine
 10
-127.5533685987787
 20
59.88752984513849
 30
0.0
 11
-130.1905471782132
 21
61.06167739698399
 31
0.0
  0
LINE
  5
1BA
330
1E
100
AcDbEntity
  8
1
 62
     7
100
AcDbLine
 10
-130.1905471782132
 20
61.06167739698399
 30
0.0
 11
-132.52597807562
 21
59.36488752880018
 31
0.0
  0
LINE
  5
1BB
330
1E
100
AcDbEntity
  8
1
 62
     7
100
AcDbLine
 10
-132.52597807562
 20
59.36488752880018
 30
0.0
 11
-132.2242303935923
 21
56.49395010877107
 31
0.0
  0
LINE
  5
1BC
330
1E
100
AcDbEntity
  8
1
 62
     7
100
AcDbLine
 10
-132.2242303935923
 20
56.49395010877107
 30
0.0
 11
-129.5870518141576
 21
55.31980255692554
 31
0.0
  0
LINE
  5
1BD
330
1E
100
AcDbEntity
  8
1
 62
     7
100
AcDbLine
 10
-129.5870518141576
 20
55.31980255692554
 30
0.0
 11
-127.2516209167509
 21
57.01659242510936
 31
0.0
  0
LINE
  5
1BE
330
1E
100
AcDbEntity
  8
1
 62
     7
100
AcDbLine
 10
-119.3508026538331
 20
43.37282200682967
 30
0.0
 11
-119.1997217617075
 21
46.25561716038589
 31
0.0
  0
LINE
  5
1BF
330
1E
100
AcDbEntity
  8
1
 62
     7
100
AcDbLine
 10
-119.1997217617075
 20
46.25561716038589
 30
0.0
 11
-121.6207551525311
 21
47.82785462777144
 31
0.0
  0
LINE
  5
1C0
330
1E
100
AcDbEntity
  8
1
 62
     7
100
AcDbLine
 10
-121.6207551525311
 20
47.82785462777144
 30
0.0
 11
-124.1928694354805
 21
46.51729694160063
 31
0.0
  0
LINE
  5
1C1
330
1E
100
AcDbEntity
  8
1
 62
     7
100
AcDbLine
 10
-124.1928694354805
 20
46.51729694160063
 30
0.0
 11
-124.3439503276059
 21
43.6345017880443
 31
0.0
  0
LINE
  5
1C2
330
1E
100
AcDbEntity
  8
1
 62
     7
100
AcDbLine
 10
-124.3439503276059
 20
43.6345017880443
 30
0.0
 11
-121.9229169367825
 21
42.06226432065886
 31
0.0
  0
LINE
  5
1C3
330
1E
100
AcDbEntity
  8
1
 62
     7
100
AcDbLine
 10
-121.9229169367825
 20
42.06226432065886
 30
0.0
 11
-119.3508026538331
 21
43.37282200682967
 31
0.0
  0
LINE
  5
1C4
330
1E
100
AcDbEntity
  8
1
 62
     3
100
AcDbLine
 10
46.50000000016556
 20
-46.5
 30
0.0
 11
5.500000000165443
 21
-46.5
 31
0.0
  0
LINE
  5
1C5
330
1E
100
AcDbEntity
  8
1
 62
     3
100
AcDbLine
 10
46.50000000016556
 20
-33.5
 30
0.0
 11
5.500000000165443
 21
-33.5
 31
0.0
  0
LINE
  5
1C6
330
1E
100
AcDbEntity
  8
1
 62
     3
100
AcDbLine
 10
46.50000000016556
 20
-46.5
 30
0.0
 11
49.09807621151874
 21
-48.0
 31
0.0
  0
LINE
  5
1C7
330
1E
100
AcDbEntity
  8
1
 62
     3
100
AcDbLine
 10
46.50000000016556
 20
-33.5
 30
0.0
 11
49.09807621151874
 21
-32.0
 31
0.0
  0
LINE
  5
1C8
330
1E
100
AcDbEntity
  8
1
 62
     7
100
AcDbLine
 10
50.50000000016556
 20
-52.0
 30
0.0
 11
65.50000000016556
 21
-52.0
 31
0.0
  0
LINE
  5
1C9
330
1E
100
AcDbEntity
  8
1
 62
     7
100
AcDbLine
 10
65.50000000016556
 20
-52.0
 30
0.0
 11
66.50000000016556
 21
-51.0
 31
0.0
  0
LINE
  5
1CA
330
1E
100
AcDbEntity
  8
1
 62
     7
100
AcDbLine
 10
66.50000000016556
 20
-51.0
 30
0.0
 11
66.50000000016556
 21
-29.0
 31
0.0
  0
LINE
  5
1CB
330
1E
100
AcDbEntity
  8
1
 62
     7
100
AcDbLine
 10
66.50000000016556
 20
-29.0
 30
0.0
 11
65.50000000016556
 21
-28.0
 31
0.0
  0
LINE
  5
1CC
330
1E
100
AcDbEntity
  8
1
 62
     7
100
AcDbLine
 10
65.50000000016556
 20
-28.0
 30
0.0
 11
50.50000000016556
 21
-28.0
 31
0.0
  0
LINE
  5
1CD
330
1E
100
AcDbEntity
  8
1
 62
     7
100
AcDbLine
 10
7.00000000016544
 20
-32.0
 30
0.0
 11
5.500000000165443
 21
-33.5
 31
0.0
  0
LINE
  5
1CE
330
1E
100
AcDbEntity
  8
1
 62
     7
100
AcDbLine
 10
5.500000000165443
 20
-33.5
 30
0.0
 11
5.500000000165443
 21
-46.5
 31
0.0
  0
LINE
  5
1CF
330
1E
100
AcDbEntity
  8
1
 62
     7
100
AcDbLine
 10
5.500000000165443
 20
-46.5
 30
0.0
 11
7.00000000016544
 21
-48.0
 31
0.0
  0
LINE
  5
1D0
330
1E
100
AcDbEntity
  8
1
 62
     7
100
AcDbLine
 10
46.50000000016556
 20
-48.0
 30
0.0
 11
46.50000000016556
 21
-32.0
 31
0.0
  0
LINE
  5
1D1
330
1E
100
AcDbEntity
  8
1
 62
     7
100
AcDbLine
 10
7.00000000016544
 20
-48.0
 30
0.0
 11
49.90000000016543
 21
-48.0
 31
0.0
  0
LINE
  5
1D2
330
1E
100
AcDbEntity
  8
1
 62
     7
100
AcDbLine
 10
49.90000000016543
 20
-32.0
 30
0.0
 11
7.00000000016544
 21
-32.0
 31
0.0
  0
LINE
  5
1D3
330
1E
100
AcDbEntity
  8
1
 62
     7
100
AcDbLine
 10
7.00000000016544
 20
-32.0
 30
0.0
 11
7.00000000016544
 21
-48.0
 31
0.0
  0
LINE
  5
1D4
330
1E
100
AcDbEntity
  8
1
 62
     7
100
AcDbLine
 10
65.50000000016556
 20
-52.0
 30
0.0
 11
65.50000000016556
 21
-28.0
 31
0.0
  0
LINE
  5
1D5
330
1E
100
AcDbEntity
  8
1
 62
     7
100
AcDbLine
 10
50.50000000016556
 20
-52.0
 30
0.0
 11
50.50000000010342
 21
54.0
 31
0.0
  0
LINE
  5
1D6
330
1E
100
AcDbEntity
  8
1
 62
     7
100
AcDbLine
 10
89.12000010956203
 20
58.92800000000001
 30
0.0
 11
103.000000109562
 21
58.92800000000001
 31
0.0
  0
LINE
  5
1D7
330
1E
100
AcDbEntity
  8
1
 62
     7
100
AcDbLine
 10
89.12000010956203
 20
63.11500000000012
 30
0.0
 11
93.80679926132392
 21
63.11500000000012
 31
0.0
  0
LINE
  5
1D8
330
1E
100
AcDbEntity
  8
1
 62
     7
100
AcDbLine
 10
88.12000010956202
 20
59.928
 30
0.0
 11
89.12000010956203
 21
58.92800000000001
 31
0.0
  0
LINE
  5
1D9
330
1E
100
AcDbEntity
  8
1
 62
     7
100
AcDbLine
 10
89.12000010956203
 20
63.11500000000012
 30
0.0
 11
88.12000010956202
 21
62.1150000000001
 31
0.0
  0
LINE
  5
1DA
330
1E
100
AcDbEntity
  8
1
 62
     7
100
AcDbLine
 10
88.12000010956202
 20
59.928
 30
0.0
 11
88.12000010956202
 21
62.1150000000001
 31
0.0
  0
LINE
  5
1DB
330
1E
100
AcDbEntity
  8
1
 62
     7
100
AcDbLine
 10
84.31250010956201
 20
63.80239621778549
 30
0.0
 11
84.31250010956201
 21
79.07864884577555
 31
0.0
  0
LINE
  5
1DC
330
1E
100
AcDbEntity
  8
1
 62
     7
100
AcDbLine
 10
107.8075001095619
 20
79.07864884577555
 30
0.0
 11
107.8075001095619
 21
63.80239621778549
 31
0.0
  0
LINE
  5
1DD
330
1E
100
AcDbEntity
  8
1
 62
     7
100
AcDbLine
 10
85.31250010956201
 20
79.65599911496507
 30
0.0
 11
106.8075001095619
 21
79.65599911496507
 31
0.0
  0
LINE
  5
1DE
330
1E
100
AcDbEntity
  8
1
 62
     7
100
AcDbLine
 10
104.000000109562
 20
62.1150000000001
 30
0.0
 11
104.000000109562
 21
59.928
 31
0.0
  0
LINE
  5
1DF
330
1E
100
AcDbEntity
  8
1
 62
     7
100
AcDbLine
 10
104.000000109562
 20
62.1150000000001
 30
0.0
 11
103.000000109562
 21
63.11500000000012
 31
0.0
  0
LINE
  5
1E0
330
1E
100
AcDbEntity
  8
1
 62
     7
100
AcDbLine
 10
103.000000109562
 20
58.92800000000001
 30
0.0
 11
104.000000109562
 21
59.928
 31
0.0
  0
LINE
  5
1E1
330
1E
100
AcDbEntity
  8
1
 62
     7
100
AcDbLine
 10
107.4075001095621
 20
75.71999911496494
 30
0.0
 11
107.8075001095619
 21
76.11999911496503
 31
0.0
  0
LINE
  5
1E2
330
1E
100
AcDbEntity
  8
1
 62
     7
100
AcDbLine
 10
106.8075001095619
 20
79.65599911496507
 30
0.0
 11
107.8075001095619
 21
79.07864884577555
 31
0.0
  0
LINE
  5
1E3
330
1E
100
AcDbEntity
  8
1
 62
     7
100
AcDbLine
 10
84.31250010956201
 20
79.07864884577555
 30
0.0
 11
85.31250010956201
 21
79.65599911496507
 31
0.0
  0
LINE
  5
1E4
330
1E
100
AcDbEntity
  8
1
 62
     7
100
AcDbLine
 10
84.31250010956201
 20
76.11999911496503
 30
0.0
 11
84.71250010956195
 21
75.71999911496494
 31
0.0
  0
LINE
  5
1E5
330
1E
100
AcDbEntity
  8
1
 62
     7
100
AcDbLine
 10
84.71250010956195
 20
75.71999911496494
 30
0.0
 11
94.12263067878885
 21
75.71999911496494
 31
0.0
  0
LINE
  5
1E6
330
1E
100
AcDbEntity
  8
1
 62
     7
100
AcDbLine
 10
97.99736954033505
 20
75.71999911496494
 30
0.0
 11
107.4075001095621
 21
75.71999911496494
 31
0.0
  0
LINE
  5
1E7
330
1E
100
AcDbEntity
  8
1
 62
     7
100
AcDbLine
 10
98.31320095779993
 20
63.11500000000012
 30
0.0
 11
103.000000109562
 21
63.11500000000012
 31
0.0
  0
LINE
  5
1E8
330
1E
100
AcDbEntity
  8
1
 62
     7
100
AcDbLine
 10
103.000000109562
 20
-63.11500177007257
 30
0.0
 11
98.31320095779993
 21
-63.11500177007257
 31
0.0
  0
LINE
  5
1E9
330
1E
100
AcDbEntity
  8
1
 62
     7
100
AcDbLine
 10
107.4075001095621
 20
-75.72000088503739
 30
0.0
 11
97.99736954033505
 21
-75.72000088503739
 31
0.0
  0
LINE
  5
1EA
330
1E
100
AcDbEntity
  8
1
 62
     7
100
AcDbLine
 10
94.12263067878885
 20
-75.72000088503739
 30
0.0
 11
84.71250010956195
 21
-75.72000088503739
 31
0.0
  0
LINE
  5
1EB
330
1E
100
AcDbEntity
  8
1
 62
     7
100
AcDbLine
 10
84.71250010956195
 20
-75.72000088503739
 30
0.0
 11
84.31250010956201
 21
-76.12000088503748
 31
0.0
  0
LINE
  5
1EC
330
1E
100
AcDbEntity
  8
1
 62
     7
100
AcDbLine
 10
85.31250010956201
 20
-79.65600088503754
 30
0.0
 11
84.31250010956201
 21
-79.07865061584802
 31
0.0
  0
LINE
  5
1ED
330
1E
100
AcDbEntity
  8
1
 62
     7
100
AcDbLine
 10
107.8075001095619
 20
-79.07865061584802
 30
0.0
 11
106.8075001095619
 21
-79.65600088503754
 31
0.0
  0
LINE
  5
1EE
330
1E
100
AcDbEntity
  8
1
 62
     7
100
AcDbLine
 10
107.8075001095619
 20
-76.12000088503748
 30
0.0
 11
107.4075001095621
 21
-75.72000088503739
 31
0.0
  0
LINE
  5
1EF
330
1E
100
AcDbEntity
  8
1
 62
     7
100
AcDbLine
 10
104.000000109562
 20
-59.92800177007246
 30
0.0
 11
103.000000109562
 21
-58.92800177007246
 31
0.0
  0
LINE
  5
1F0
330
1E
100
AcDbEntity
  8
1
 62
     7
100
AcDbLine
 10
103.000000109562
 20
-63.11500177007257
 30
0.0
 11
104.000000109562
 21
-62.11500177007257
 31
0.0
  0
LINE
  5
1F1
330
1E
100
AcDbEntity
  8
1
 62
     7
100
AcDbLine
 10
104.000000109562
 20
-59.92800177007246
 30
0.0
 11
104.000000109562
 21
-62.11500177007257
 31
0.0
  0
LINE
  5
1F2
330
1E
100
AcDbEntity
  8
1
 62
     7
100
AcDbLine
 10
106.8075001095619
 20
-79.65600088503754
 30
0.0
 11
85.31250010956201
 21
-79.65600088503754
 31
0.0
  0
LINE
  5
1F3
330
1E
100
AcDbEntity
  8
1
 62
     7
100
AcDbLine
 10
107.8075001095619
 20
-63.80239798785793
 30
0.0
 11
107.8075001095619
 21
-79.07865061584802
 31
0.0
  0
LINE
  5
1F4
330
1E
100
AcDbEntity
  8
1
 62
     7
100
AcDbLine
 10
84.31250010956201
 20
-79.07865061584802
 30
0.0
 11
84.31250010956201
 21
-63.80239798785793
 31
0.0
  0
LINE
  5
1F5
330
1E
100
AcDbEntity
  8
1
 62
     7
100
AcDbLine
 10
88.12000010956202
 20
-62.11500177007257
 30
0.0
 11
88.12000010956202
 21
-59.92800177007246
 31
0.0
  0
LINE
  5
1F6
330
1E
100
AcDbEntity
  8
1
 62
     7
100
AcDbLine
 10
88.12000010956202
 20
-62.11500177007257
 30
0.0
 11
89.12000010956203
 21
-63.11500177007257
 31
0.0
  0
LINE
  5
1F7
330
1E
100
AcDbEntity
  8
1
 62
     7
100
AcDbLine
 10
89.12000010956203
 20
-58.92800177007246
 30
0.0
 11
88.12000010956202
 21
-59.92800177007246
 31
0.0
  0
LINE
  5
1F8
330
1E
100
AcDbEntity
  8
1
 62
     7
100
AcDbLine
 10
93.80679926132392
 20
-63.11500177007257
 30
0.0
 11
89.12000010956203
 21
-63.11500177007257
 31
0.0
  0
LINE
  5
1F9
330
1E
100
AcDbEntity
  8
1
 62
     7
100
AcDbLine
 10
103.000000109562
 20
-58.92800177007246
 30
0.0
 11
89.12000010956203
 21
-58.92800177007246
 31
0.0
  0
LINE
  5
1FA
330
1E
100
AcDbEntity
  8
1
 62
     7
100
AcDbLine
 10
88.7162501095619
 20
74.11499999999991
 30
0.0
 11
90.67889769137057
 21
74.0636062643548
 31
0.0
  0
LINE
  5
1FB
330
1E
100
AcDbEntity
  8
1
 62
     7
100
AcDbLine
 10
85.83625010956192
 20
74.11499999999991
 30
0.0
 11
88.7162501095619
 21
74.11499999999991
 31
0.0
  0
LINE
  5
1FC
330
1E
100
AcDbEntity
  8
1
 62
     7
100
AcDbLine
 10
85.13625010956195
 20
73.41499999999995
 30
0.0
 11
85.13625010956195
 21
69.6788251781835
 31
0.0
  0
LINE
  5
1FD
330
1E
100
AcDbEntity
  8
1
 62
     7
100
AcDbLine
 10
84.58267387386623
 20
65.17030854038364
 30
0.0
 11
85.13625010956195
 21
69.6788251781835
 31
0.0
  0
LINE
  5
1FE
330
1E
100
AcDbEntity
  8
1
 62
     7
100
AcDbLine
 10
85.27745618001516
 20
64.38499999999999
 30
0.0
 11
88.7162501095619
 21
64.38499999999999
 31
0.0
  0
LINE
  5
1FF
330
1E
100
AcDbEntity
  8
1
 62
     7
100
AcDbLine
 10
90.91958115775852
 20
64.40422817875685
 30
0.0
 11
88.7162501095619
 21
64.38499999999999
 31
0.0
  0
LINE
  5
200
330
1E
100
AcDbEntity
  8
1
 62
     7
100
AcDbLine
 10
88.7162501095619
 20
64.38499999999999
 30
0.0
 11
88.7162501095619
 21
74.11499999999991
 31
0.0
  0
LINE
  5
201
330
1E
100
AcDbEntity
  8
1
 62
     7
100
AcDbLine
 10
88.7162501095619
 20
-74.11499999999991
 30
0.0
 11
88.7162501095619
 21
-64.3850000000001
 31
0.0
  0
LINE
  5
202
330
1E
100
AcDbEntity
  8
1
 62
     7
100
AcDbLine
 10
88.7162501095619
 20
-64.3850000000001
 30
0.0
 11
90.91958115775852
 21
-64.40422817875685
 31
0.0
  0
LINE
  5
203
330
1E
100
AcDbEntity
  8
1
 62
     7
100
AcDbLine
 10
88.7162501095619
 20
-64.3850000000001
 30
0.0
 11
85.27745618001516
 21
-64.3850000000001
 31
0.0
  0
LINE
  5
204
330
1E
100
AcDbEntity
  8
1
 62
     7
100
AcDbLine
 10
85.13625010956195
 20
-69.6788251781835
 30
0.0
 11
84.58267387386623
 21
-65.17030854038364
 31
0.0
  0
LINE
  5
205
330
1E
100
AcDbEntity
  8
1
 62
     7
100
AcDbLine
 10
85.13625010956195
 20
-69.6788251781835
 30
0.0
 11
85.13625010956195
 21
-73.41499999999985
 31
0.0
  0
LINE
  5
206
330
1E
100
AcDbEntity
  8
1
 62
     7
100
AcDbLine
 10
88.7162501095619
 20
-74.11499999999991
 30
0.0
 11
85.83625010956192
 21
-74.11499999999991
 31
0.0
  0
LINE
  5
207
330
1E
100
AcDbEntity
  8
1
 62
     7
100
AcDbLine
 10
90.67889769137057
 20
-74.0636062643548
 30
0.0
 11
88.7162501095619
 21
-74.11499999999991
 31
0.0
  0
LINE
  5
208
330
1E
100
AcDbEntity
  8
1
 62
     7
100
AcDbLine
 10
-252.043746259964
 20
88.05856500252264
 30
0.0
 11
-253.3543039461346
 21
90.63067928547196
 31
0.0
  0
LINE
  5
209
330
1E
100
AcDbEntity
  8
1
 62
     7
100
AcDbLine
 10
-253.6159837273495
 20
85.63753161169904
 30
0.0
 11
-252.043746259964
 21
88.05856500252264
 31
0.0
  0
LINE
  5
20A
330
1E
100
AcDbEntity
  8
1
 62
     7
100
AcDbLine
 10
-256.4987788809056
 20
85.78861250382477
 30
0.0
 11
-253.6159837273495
 21
85.63753161169904
 31
0.0
  0
LINE
  5
20B
330
1E
100
AcDbEntity
  8
1
 62
     7
100
AcDbLine
 10
-257.8093365670766
 20
88.36072678677409
 30
0.0
 11
-256.4987788809056
 21
85.78861250382477
 31
0.0
  0
LINE
  5
20C
330
1E
100
AcDbEntity
  8
1
 62
     7
100
AcDbLine
 10
-256.237099099691
 20
90.78176017759778
 30
0.0
 11
-257.8093365670766
 21
88.36072678677409
 31
0.0
  0
LINE
  5
20D
330
1E
100
AcDbEntity
  8
1
 62
     7
100
AcDbLine
 10
-253.3543039461346
 20
90.63067928547196
 30
0.0
 11
-256.237099099691
 21
90.78176017759778
 31
0.0
  0
LINE
  5
20E
330
1E
100
AcDbEntity
  8
1
 62
     7
100
AcDbLine
 10
-167.919217618646
 20
-88.05856500252241
 30
0.0
 11
-166.6086599324754
 21
-90.63067928547196
 31
0.0
  0
LINE
  5
20F
330
1E
100
AcDbEntity
  8
1
 62
     7
100
AcDbLine
 10
-166.3469801512608
 20
-85.63753161169904
 30
0.0
 11
-167.919217618646
 21
-88.05856500252241
 31
0.0
  0
LINE
  5
210
330
1E
100
AcDbEntity
  8
1
 62
     7
100
AcDbLine
 10
-163.4641849977044
 20
-85.78861250382464
 30
0.0
 11
-166.3469801512608
 21
-85.63753161169904
 31
0.0
  0
LINE
  5
211
330
1E
100
AcDbEntity
  8
1
 62
     7
100
AcDbLine
 10
-162.1536273115335
 20
-88.36072678677409
 30
0.0
 11
-163.4641849977044
 21
-85.78861250382464
 31
0.0
  0
LINE
  5
212
330
1E
100
AcDbEntity
  8
1
 62
     7
100
AcDbLine
 10
-163.725864778919
 20
-90.78176017759769
 30
0.0
 11
-162.1536273115335
 21
-88.36072678677409
 31
0.0
  0
LINE
  5
213
330
1E
100
AcDbEntity
  8
1
 62
     7
100
AcDbLine
 10
-166.6086599324754
 20
-90.63067928547196
 30
0.0
 11
-163.725864778919
 21
-90.78176017759769
 31
0.0
  0
LINE
  5
214
330
1E
100
AcDbEntity
  8
1
 62
     7
100
AcDbLine
 10
-300.6121612247769
 20
-43.37282200682955
 30
0.0
 11
-300.7632421169028
 21
-46.25561716038589
 31
0.0
  0
LINE
  5
215
330
1E
100
AcDbEntity
  8
1
 62
     7
100
AcDbLine
 10
-300.7632421169028
 20
-46.25561716038589
 30
0.0
 11
-298.3422087260793
 21
-47.82785462777144
 31
0.0
  0
LINE
  5
216
330
1E
100
AcDbEntity
  8
1
 62
     7
100
AcDbLine
 10
-298.3422087260793
 20
-47.82785462777144
 30
0.0
 11
-295.7700944431298
 21
-46.51729694160063
 31
0.0
  0
LINE
  5
217
330
1E
100
AcDbEntity
  8
1
 62
     7
100
AcDbLine
 10
-295.7700944431298
 20
-46.51729694160063
 30
0.0
 11
-295.6190135510041
 21
-43.6345017880443
 31
0.0
  0
LINE
  5
218
330
1E
100
AcDbEntity
  8
1
 62
     7
100
AcDbLine
 10
-295.6190135510041
 20
-43.6345017880443
 30
0.0
 11
-298.0400469418277
 21
-42.06226432065876
 31
0.0
  0
LINE
  5
219
330
1E
100
AcDbEntity
  8
1
 62
     7
100
AcDbLine
 10
-298.0400469418277
 20
-42.06226432065876
 30
0.0
 11
-300.6121612247769
 21
-43.37282200682955
 31
0.0
  0
LINE
  5
21A
330
1E
100
AcDbEntity
  8
1
 62
     3
100
AcDbLine
 10
25.50000000000014
 20
101.2000000000002
 30
0.0
 11
48.50000000000026
 21
101.2000000000002
 31
0.0
  0
LINE
  5
21B
330
1E
100
AcDbEntity
  8
1
 62
     3
100
AcDbLine
 10
25.50000000000014
 20
96.79999999999997
 30
0.0
 11
48.50000000000026
 21
96.79999999999997
 31
0.0
  0
LINE
  5
21C
330
1E
100
AcDbEntity
  8
1
 62
     3
100
AcDbLine
 10
25.50000000000014
 20
101.2000000000002
 30
0.0
 11
24.11435935394505
 21
102.0
 31
0.0
  0
LINE
  5
21D
330
1E
100
AcDbEntity
  8
1
 62
     3
100
AcDbLine
 10
25.50000000000014
 20
96.79999999999997
 30
0.0
 11
24.11435935394505
 21
96.0
 31
0.0
  0
LINE
  5
21E
330
1E
100
AcDbEntity
  8
1
 62
     7
100
AcDbLine
 10
8.500000000000026
 20
104.0
 30
0.0
 11
2.900000000000062
 21
104.0
 31
0.0
  0
LINE
  5
21F
330
1E
100
AcDbEntity
  8
1
 62
     7
100
AcDbLine
 10
2.900000000000062
 20
104.0
 30
0.0
 11
2.5
 21
103.6
 31
0.0
  0
LINE
  5
220
330
1E
100
AcDbEntity
  8
1
 62
     7
100
AcDbLine
 10
2.5
 20
103.6
 30
0.0
 11
2.5
 21
94.40000000000008
 31
0.0
  0
LINE
  5
221
330
1E
100
AcDbEntity
  8
1
 62
     7
100
AcDbLine
 10
2.5
 20
94.40000000000008
 30
0.0
 11
2.900000000000062
 21
94.0
 31
0.0
  0
LINE
  5
222
330
1E
100
AcDbEntity
  8
1
 62
     7
100
AcDbLine
 10
2.900000000000062
 20
94.0
 30
0.0
 11
8.500000000000026
 21
94.0
 31
0.0
  0
LINE
  5
223
330
1E
100
AcDbEntity
  8
1
 62
     7
100
AcDbLine
 10
47.70000000000012
 20
96.0
 30
0.0
 11
48.50000000000026
 21
96.79999999999997
 31
0.0
  0
LINE
  5
224
330
1E
100
AcDbEntity
  8
1
 62
     7
100
AcDbLine
 10
48.50000000000026
 20
96.79999999999997
 30
0.0
 11
48.50000000000026
 21
101.2000000000002
 31
0.0
  0
LINE
  5
225
330
1E
100
AcDbEntity
  8
1
 62
     7
100
AcDbLine
 10
48.50000000000026
 20
101.2000000000002
 30
0.0
 11
47.70000000000012
 21
102.0
 31
0.0
  0
LINE
  5
226
330
1E
100
AcDbEntity
  8
1
 62
     7
100
AcDbLine
 10
25.50000000000014
 20
102.0
 30
0.0
 11
25.50000000000014
 21
96.0
 31
0.0
  0
LINE
  5
227
330
1E
100
AcDbEntity
  8
1
 62
     7
100
AcDbLine
 10
47.70000000000012
 20
102.0
 30
0.0
 11
8.750000000000143
 21
102.0
 31
0.0
  0
LINE
  5
228
330
1E
100
AcDbEntity
  8
1
 62
     7
100
AcDbLine
 10
8.750000000000143
 20
96.0
 30
0.0
 11
47.70000000000012
 21
96.0
 31
0.0
  0
LINE
  5
229
330
1E
100
AcDbEntity
  8
1
 62
     7
100
AcDbLine
 10
47.70000000000012
 20
96.0
 30
0.0
 11
47.70000000000012
 21
102.0
 31
0.0
  0
LINE
  5
22A
330
1E
100
AcDbEntity
  8
1
 62
     7
100
AcDbLine
 10
2.900000000000062
 20
104.0
 30
0.0
 11
2.900000000000062
 21
94.0
 31
0.0
  0
LINE
  5
22B
330
1E
100
AcDbEntity
  8
1
 62
     7
100
AcDbLine
 10
8.500000000000026
 20
104.4999999999999
 30
0.0
 11
8.500000000000026
 21
93.0
 31
0.0
  0
LINE
  5
22C
330
1E
100
AcDbEntity
  8
1
 62
     7
100
AcDbLine
 10
-177.457185817664
 20
92.00932078803896
 30
0.0
 11
-176.5651305932309
 21
94.75478446652676
 31
0.0
  0
LINE
  5
22D
330
1E
100
AcDbEntity
  8
1
 62
     7
100
AcDbLine
 10
-180.2808547206181
 20
91.4091314347323
 30
0.0
 11
-177.457185817664
 21
92.00932078803896
 31
0.0
  0
LINE
  5
22E
330
1E
100
AcDbEntity
  8
1
 62
     7
100
AcDbLine
 10
-182.2124683991397
 20
93.55440575991348
 30
0.0
 11
-180.2808547206181
 21
91.4091314347323
 31
0.0
  0
LINE
  5
22F
330
1E
100
AcDbEntity
  8
1
 62
     7
100
AcDbLine
 10
-181.3204131747069
 20
96.29986943840142
 30
0.0
 11
-182.2124683991397
 21
93.55440575991348
 31
0.0
  0
LINE
  5
230
330
1E
100
AcDbEntity
  8
1
 62
     7
100
AcDbLine
 10
-178.4967442717527
 20
96.90005879170792
 30
0.0
 11
-181.3204131747069
 21
96.29986943840142
 31
0.0
  0
LINE
  5
231
330
1E
100
AcDbEntity
  8
1
 62
     7
100
AcDbLine
 10
-176.5651305932309
 20
94.75478446652676
 30
0.0
 11
-178.4967442717527
 21
96.90005879170792
 31
0.0
  0
LINE
  5
232
330
1E
100
AcDbEntity
  8
1
 62
     7
100
AcDbLine
 10
-150.6165944105049
 20
77.4555038636852
 30
0.0
 11
-148.919804542321
 21
79.79093476109198
 31
0.0
  0
LINE
  5
233
330
1E
100
AcDbEntity
  8
1
 62
     7
100
AcDbLine
 10
-153.487531830534
 20
77.75725154571296
 30
0.0
 11
-150.6165944105049
 21
77.4555038636852
 31
0.0
  0
LINE
  5
234
330
1E
100
AcDbEntity
  8
1
 62
     7
100
AcDbLine
 10
-154.6616793823796
 20
80.39443012514754
 30
0.0
 11
-153.487531830534
 21
77.75725154571296
 31
0.0
  0
LINE
  5
235
330
1E
100
AcDbEntity
  8
1
 62
     7
100
AcDbLine
 10
-152.964889514196
 20
82.72986102255435
 30
0.0
 11
-154.6616793823796
 21
80.39443012514754
 31
0.0
  0
LINE
  5
236
330
1E
100
AcDbEntity
  8
1
 62
     7
100
AcDbLine
 10
-150.0939520941666
 20
82.42811334052644
 30
0.0
 11
-152.964889514196
 21
82.72986102255435
 31
0.0
  0
LINE
  5
237
330
1E
100
AcDbEntity
  8
1
 62
     7
100
AcDbLine
 10
-148.919804542321
 20
79.79093476109198
 30
0.0
 11
-150.0939520941666
 21
82.42811334052644
 31
0.0
  0
LINE
  5
238
330
1E
100
AcDbEntity
  8
1
 62
     7
100
AcDbLine
 10
-154.6616793823796
 20
-80.39443012514754
 30
0.0
 11
-152.9648895141957
 21
-82.72986102255426
 31
0.0
  0
LINE
  5
239
330
1E
100
AcDbEntity
  8
1
 62
     7
100
AcDbLine
 10
-153.487531830534
 20
-77.75725154571285
 30
0.0
 11
-154.6616793823796
 21
-80.39443012514754
 31
0.0
  0
LINE
  5
23A
330
1E
100
AcDbEntity
  8
1
 62
     7
100
AcDbLine
 10
-150.6165944105049
 20
-77.45550386368506
 30
0.0
 11
-153.487531830534
 21
-77.75725154571285
 31
0.0
  0
LINE
  5
23B
330
1E
100
AcDbEntity
  8
1
 62
     7
100
AcDbLine
 10
-148.919804542321
 20
-79.79093476109176
 30
0.0
 11
-150.6165944105049
 21
-77.45550386368506
 31
0.0
  0
LINE
  5
23C
330
1E
100
AcDbEntity
  8
1
 62
     7
100
AcDbLine
 10
-150.0939520941666
 20
-82.42811334052644
 30
0.0
 11
-148.919804542321
 21
-79.79093476109176
 31
0.0
  0
LINE
  5
23D
330
1E
100
AcDbEntity
  8
1
 62
     7
100
AcDbLine
 10
-152.9648895141957
 20
-82.72986102255426
 30
0.0
 11
-150.0939520941666
 21
-82.42811334052644
 31
0.0
  0
LINE
  5
23E
330
1E
100
AcDbEntity
  8
1
 62
     7
100
AcDbLine
 10
-182.2124683991395
 20
-93.55440575991359
 30
0.0
 11
-181.3204131747069
 21
-96.29986943840128
 31
0.0
  0
LINE
  5
23F
330
1E
100
AcDbEntity
  8
1
 62
     7
100
AcDbLine
 10
-180.2808547206181
 20
-91.40913143473223
 30
0.0
 11
-182.2124683991395
 21
-93.55440575991359
 31
0.0
  0
LINE
  5
240
330
1E
100
AcDbEntity
  8
1
 62
     7
100
AcDbLine
 10
-177.4571858176639
 20
-92.00932078803885
 30
0.0
 11
-180.2808547206181
 21
-91.40913143473223
 31
0.0
  0
LINE
  5
241
330
1E
100
AcDbEntity
  8
1
 62
     7
100
AcDbLine
 10
-176.5651305932308
 20
-94.75478446652664
 30
0.0
 11
-177.4571858176639
 21
-92.00932078803885
 31
0.0
  0
LINE
  5
242
330
1E
100
AcDbEntity
  8
1
 62
     7
100
AcDbLine
 10
-178.4967442717525
 20
-96.90005879170781
 30
0.0
 11
-176.5651305932308
 21
-94.75478446652664
 31
0.0
  0
LINE
  5
243
330
1E
100
AcDbEntity
  8
1
 62
     7
100
AcDbLine
 10
-181.3204131747069
 20
-96.29986943840128
 30
0.0
 11
-178.4967442717525
 21
-96.90005879170781
 31
0.0
  0
LINE
  5
244
330
1E
100
AcDbEntity
  8
1
 62
     7
100
AcDbLine
 10
-212.481481939305
 20
-97.55662432702571
 30
0.0
 11
-212.481481939305
 21
-100.443375672974
 31
0.0
  0
LINE
  5
245
330
1E
100
AcDbEntity
  8
1
 62
     7
100
AcDbLine
 10
-209.981481939305
 20
-96.11324865405187
 30
0.0
 11
-212.481481939305
 21
-97.55662432702571
 31
0.0
  0
LINE
  5
246
330
1E
100
AcDbEntity
  8
1
 62
     7
100
AcDbLine
 10
-207.4814819393052
 20
-97.55662432702571
 30
0.0
 11
-209.981481939305
 21
-96.11324865405187
 31
0.0
  0
LINE
  5
247
330
1E
100
AcDbEntity
  8
1
 62
     7
100
AcDbLine
 10
-207.4814819393052
 20
-100.443375672974
 30
0.0
 11
-207.4814819393052
 21
-97.55662432702571
 31
0.0
  0
LINE
  5
248
330
1E
100
AcDbEntity
  8
1
 62
     7
100
AcDbLine
 10
-209.981481939305
 20
-101.8867513459479
 30
0.0
 11
-207.4814819393052
 21
-100.443375672974
 31
0.0
  0
LINE
  5
249
330
1E
100
AcDbEntity
  8
1
 62
     7
100
AcDbLine
 10
-212.481481939305
 20
-100.443375672974
 30
0.0
 11
-209.981481939305
 21
-101.8867513459479
 31
0.0
  0
LINE
  5
24A
330
1E
100
AcDbEntity
  8
1
 62
     7
100
AcDbLine
 10
-242.5057780609463
 20
-92.00932078803896
 30
0.0
 11
-243.397833285379
 21
-94.75478446652664
 31
0.0
  0
LINE
  5
24B
330
1E
100
AcDbEntity
  8
1
 62
     7
100
AcDbLine
 10
-239.6821091579921
 20
-91.40913143473223
 30
0.0
 11
-242.5057780609463
 21
-92.00932078803896
 31
0.0
  0
LINE
  5
24C
330
1E
100
AcDbEntity
  8
1
 62
     7
100
AcDbLine
 10
-237.7504954794706
 20
-93.55440575991359
 30
0.0
 11
-239.6821091579921
 21
-91.40913143473223
 31
0.0
  0
LINE
  5
24D
330
1E
100
AcDbEntity
  8
1
 62
     7
100
AcDbLine
 10
-238.6425507039033
 20
-96.29986943840142
 30
0.0
 11
-237.7504954794706
 21
-93.55440575991359
 31
0.0
  0
LINE
  5
24E
330
1E
100
AcDbEntity
  8
1
 62
     7
100
AcDbLine
 10
-241.4662196068575
 20
-96.90005879170781
 30
0.0
 11
-238.6425507039033
 21
-96.29986943840142
 31
0.0
  0
LINE
  5
24F
330
1E
100
AcDbEntity
  8
1
 62
     7
100
AcDbLine
 10
-243.397833285379
 20
-94.75478446652664
 30
0.0
 11
-241.4662196068575
 21
-96.90005879170781
 31
0.0
  0
LINE
  5
250
330
1E
100
AcDbEntity
  8
1
 62
     7
100
AcDbLine
 10
-269.3463694681053
 20
-77.45550386368506
 30
0.0
 11
-271.0431593362893
 21
-79.79093476109176
 31
0.0
  0
LINE
  5
251
330
1E
100
AcDbEntity
  8
1
 62
     7
100
AcDbLine
 10
-266.475432048076
 20
-77.75725154571285
 30
0.0
 11
-269.3463694681053
 21
-77.45550386368506
 31
0.0
  0
LINE
  5
252
330
1E
100
AcDbEntity
  8
1
 62
     7
100
AcDbLine
 10
-265.3012844962306
 20
-80.39443012514754
 30
0.0
 11
-266.475432048076
 21
-77.75725154571285
 31
0.0
  0
LINE
  5
253
330
1E
100
AcDbEntity
  8
1
 62
     7
100
AcDbLine
 10
-266.9980743644143
 20
-82.72986102255426
 30
0.0
 11
-265.3012844962306
 21
-80.39443012514754
 31
0.0
  0
LINE
  5
254
330
1E
100
AcDbEntity
  8
1
 62
     7
100
AcDbLine
 10
-269.8690117844437
 20
-82.42811334052644
 30
0.0
 11
-266.9980743644143
 21
-82.72986102255426
 31
0.0
  0
LINE
  5
255
330
1E
100
AcDbEntity
  8
1
 62
     7
100
AcDbLine
 10
-271.0431593362893
 20
-79.79093476109176
 30
0.0
 11
-269.8690117844437
 21
-82.42811334052644
 31
0.0
  0
LINE
  5
256
330
1E
100
AcDbEntity
  8
1
 62
     7
100
AcDbLine
 10
-290.3759120644526
 20
-55.31980255692554
 30
0.0
 11
-292.7113429618593
 21
-57.01659242510925
 31
0.0
  0
LINE
  5
257
330
1E
100
AcDbEntity
  8
1
 62
     7
100
AcDbLine
 10
-287.7387334850181
 20
-56.49395010877095
 30
0.0
 11
-290.3759120644526
 21
-55.31980255692554
 31
0.0
  0
LINE
  5
258
330
1E
100
AcDbEntity
  8
1
 62
     7
100
AcDbLine
 10
-287.4369858029903
 20
-59.3648875288003
 30
0.0
 11
-287.7387334850181
 21
-56.49395010877095
 31
0.0
  0
LINE
  5
259
330
1E
100
AcDbEntity
  8
1
 62
     7
100
AcDbLine
 10
-289.7724167003971
 20
-61.0616773969839
 30
0.0
 11
-287.4369858029903
 21
-59.3648875288003
 31
0.0
  0
LINE
  5
25A
330
1E
100
AcDbEntity
  8
1
 62
     7
100
AcDbLine
 10
-292.4095952798317
 20
-59.88752984513859
 30
0.0
 11
-289.7724167003971
 21
-61.0616773969839
 31
0.0
  0
LINE
  5
25B
330
1E
100
AcDbEntity
  8
1
 62
     7
100
AcDbLine
 10
-292.7113429618593
 20
-57.01659242510925
 30
0.0
 11
-292.4095952798317
 21
-59.88752984513859
 31
0.0
  0
LINE
  5
25C
330
1E
100
AcDbEntity
  8
1
 62
     7
100
AcDbLine
 10
-303.5358876992186
 20
-27.7690135401657
 30
0.0
 11
-306.2813513777063
 21
-28.66106876459821
 31
0.0
  0
LINE
  5
25D
330
1E
100
AcDbEntity
  8
1
 62
     7
100
AcDbLine
 10
-301.3906133740375
 20
-29.70062721868714
 30
0.0
 11
-303.5358876992186
 21
-27.7690135401657
 31
0.0
  0
LINE
  5
25E
330
1E
100
AcDbEntity
  8
1
 62
     7
100
AcDbLine
 10
-301.9908027273438
 20
-32.52429612164121
 30
0.0
 11
-301.3906133740375
 21
-29.70062721868714
 31
0.0
  0
LINE
  5
25F
330
1E
100
AcDbEntity
  8
1
 62
     7
100
AcDbLine
 10
-304.7362664058316
 20
-33.41635134607407
 30
0.0
 11
-301.9908027273438
 21
-32.52429612164121
 31
0.0
  0
LINE
  5
260
330
1E
100
AcDbEntity
  8
1
 62
     7
100
AcDbLine
 10
-306.8815407310129
 20
-31.48473766755251
 30
0.0
 11
-304.7362664058316
 21
-33.41635134607407
 31
0.0
  0
LINE
  5
261
330
1E
100
AcDbEntity
  8
1
 62
     7
100
AcDbLine
 10
-306.2813513777063
 20
-28.66106876459821
 30
0.0
 11
-306.8815407310129
 21
-31.48473766755251
 31
0.0
  0
LINE
  5
262
330
1E
100
AcDbEntity
  8
1
 62
     7
100
AcDbLine
 10
-307.5381062663311
 20
2.5
 30
0.0
 11
-310.4248576122792
 21
2.5
 31
0.0
  0
LINE
  5
263
330
1E
100
AcDbEntity
  8
1
 62
     7
100
AcDbLine
 10
-306.094730593357
 20
0.0
 30
0.0
 11
-307.5381062663311
 21
2.5
 31
0.0
  0
LINE
  5
264
330
1E
100
AcDbEntity
  8
1
 62
     7
100
AcDbLine
 10
-307.5381062663311
 20
-2.5
 30
0.0
 11
-306.094730593357
 21
0.0
 31
0.0
  0
LINE
  5
265
330
1E
100
AcDbEntity
  8
1
 62
     7
100
AcDbLine
 10
-310.4248576122792
 20
-2.5
 30
0.0
 11
-307.5381062663311
 21
-2.5
 31
0.0
  0
LINE
  5
266
330
1E
100
AcDbEntity
  8
1
 62
     7
100
AcDbLine
 10
-311.8682332852531
 20
0.0
 30
0.0
 11
-310.4248576122792
 21
-2.5
 31
0.0
  0
LINE
  5
267
330
1E
100
AcDbEntity
  8
1
 62
     7
100
AcDbLine
 10
-310.4248576122792
 20
2.5
 30
0.0
 11
-311.8682332852531
 21
0.0
 31
0.0
  0
LINE
  5
268
330
1E
100
AcDbEntity
  8
1
 62
     7
100
AcDbLine
 10
-301.9908027273441
 20
32.52429612164121
 30
0.0
 11
-304.7362664058319
 21
33.41635134607394
 31
0.0
  0
LINE
  5
269
330
1E
100
AcDbEntity
  8
1
 62
     7
100
AcDbLine
 10
-301.3906133740375
 20
29.70062721868714
 30
0.0
 11
-301.9908027273441
 21
32.52429612164121
 31
0.0
  0
LINE
  5
26A
330
1E
100
AcDbEntity
  8
1
 62
     7
100
AcDbLine
 10
-303.535887699219
 20
27.76901354016559
 30
0.0
 11
-301.3906133740375
 21
29.70062721868714
 31
0.0
  0
LINE
  5
26B
330
1E
100
AcDbEntity
  8
1
 62
     7
100
AcDbLine
 10
-306.2813513777063
 20
28.6610687645981
 30
0.0
 11
-303.535887699219
 21
27.76901354016559
 31
0.0
  0
LINE
  5
26C
330
1E
100
AcDbEntity
  8
1
 62
     7
100
AcDbLine
 10
-306.8815407310131
 20
31.48473766755239
 30
0.0
 11
-306.2813513777063
 21
28.6610687645981
 31
0.0
  0
LINE
  5
26D
330
1E
100
AcDbEntity
  8
1
 62
     7
100
AcDbLine
 10
-304.7362664058319
 20
33.41635134607394
 30
0.0
 11
-306.8815407310131
 21
31.48473766755239
 31
0.0
  0
LINE
  5
26E
330
1E
100
AcDbEntity
  8
1
 62
     7
100
AcDbLine
 10
-287.4369858029903
 20
59.3648875288003
 30
0.0
 11
-289.7724167003971
 21
61.06167739698399
 31
0.0
  0
LINE
  5
26F
330
1E
100
AcDbEntity
  8
1
 62
     7
100
AcDbLine
 10
-287.7387334850181
 20
56.49395010877107
 30
0.0
 11
-287.4369858029903
 21
59.3648875288003
 31
0.0
  0
LINE
  5
270
330
1E
100
AcDbEntity
  8
1
 62
     7
100
AcDbLine
 10
-290.3759120644528
 20
55.31980255692554
 30
0.0
 11
-287.7387334850181
 21
56.49395010877107
 31
0.0
  0
LINE
  5
271
330
1E
100
AcDbEntity
  8
1
 62
     7
100
AcDbLine
 10
-292.7113429618596
 20
57.01659242510925
 30
0.0
 11
-290.3759120644528
 21
55.31980255692554
 31
0.0
  0
LINE
  5
272
330
1E
100
AcDbEntity
  8
1
 62
     7
100
AcDbLine
 10
-292.4095952798318
 20
59.88752984513849
 30
0.0
 11
-292.7113429618596
 21
57.01659242510925
 31
0.0
  0
LINE
  5
273
330
1E
100
AcDbEntity
  8
1
 62
     7
100
AcDbLine
 10
-289.7724167003971
 20
61.06167739698399
 30
0.0
 11
-292.4095952798318
 21
59.88752984513849
 31
0.0
  0
LINE
  5
274
330
1E
100
AcDbEntity
  8
1
 62
     7
100
AcDbLine
 10
-265.3012844962307
 20
80.39443012514754
 30
0.0
 11
-266.9980743644146
 21
82.72986102255435
 31
0.0
  0
LINE
  5
275
330
1E
100
AcDbEntity
  8
1
 62
     7
100
AcDbLine
 10
-266.4754320480763
 20
77.75725154571296
 30
0.0
 11
-265.3012844962307
 21
80.39443012514754
 31
0.0
  0
LINE
  5
276
330
1E
100
AcDbEntity
  8
1
 62
     7
100
AcDbLine
 10
-269.3463694681053
 20
77.4555038636852
 30
0.0
 11
-266.4754320480763
 21
77.75725154571296
 31
0.0
  0
LINE
  5
277
330
1E
100
AcDbEntity
  8
1
 62
     7
100
AcDbLine
 10
-271.0431593362893
 20
79.79093476109198
 30
0.0
 11
-269.3463694681053
 21
77.4555038636852
 31
0.0
  0
LINE
  5
278
330
1E
100
AcDbEntity
  8
1
 62
     7
100
AcDbLine
 10
-269.8690117844438
 20
82.42811334052644
 30
0.0
 11
-271.0431593362893
 21
79.79093476109198
 31
0.0
  0
LINE
  5
279
330
1E
100
AcDbEntity
  8
1
 62
     7
100
AcDbLine
 10
-266.9980743644146
 20
82.72986102255435
 30
0.0
 11
-269.8690117844438
 21
82.42811334052644
 31
0.0
  0
LINE
  5
27A
330
1E
100
AcDbEntity
  8
1
 62
     7
100
AcDbLine
 10
-237.7504954794708
 20
93.55440575991348
 30
0.0
 11
-238.6425507039035
 21
96.29986943840142
 31
0.0
  0
LINE
  5
27B
330
1E
100
AcDbEntity
  8
1
 62
     7
100
AcDbLine
 10
-239.6821091579921
 20
91.40913143473257
 30
0.0
 11
-237.7504954794708
 21
93.55440575991348
 31
0.0
  0
LINE
  5
27C
330
1E
100
AcDbEntity
  8
1
 62
     7
100
AcDbLine
 10
-242.5057780609465
 20
92.00932078803896
 30
0.0
 11
-239.6821091579921
 21
91.40913143473257
 31
0.0
  0
LINE
  5
27D
330
1E
100
AcDbEntity
  8
1
 62
     7
100
AcDbLine
 10
-243.3978332853793
 20
94.75478446652676
 30
0.0
 11
-242.5057780609465
 21
92.00932078803896
 31
0.0
  0
LINE
  5
27E
330
1E
100
AcDbEntity
  8
1
 62
     7
100
AcDbLine
 10
-241.4662196068578
 20
96.90005879170792
 30
0.0
 11
-243.3978332853793
 21
94.75478446652676
 31
0.0
  0
LINE
  5
27F
330
1E
100
AcDbEntity
  8
1
 62
     7
100
AcDbLine
 10
-238.6425507039035
 20
96.29986943840142
 30
0.0
 11
-241.4662196068578
 21
96.90005879170792
 31
0.0
  0
LINE
  5
280
330
1E
100
AcDbEntity
  8
1
 62
     7
100
AcDbLine
 10
-207.4814819393052
 20
100.443375672974
 30
0.0
 11
-209.9814819393051
 21
101.8867513459482
 31
0.0
  0
LINE
  5
281
330
1E
100
AcDbEntity
  8
1
 62
     7
100
AcDbLine
 10
-209.9814819393051
 20
101.8867513459482
 30
0.0
 11
-212.4814819393053
 21
100.443375672974
 31
0.0
  0
LINE
  5
282
330
1E
100
AcDbEntity
  8
1
 62
     7
100
AcDbLine
 10
-212.4814819393053
 20
100.443375672974
 30
0.0
 11
-212.4814819393053
 21
97.55662432702605
 31
0.0
  0
LINE
  5
283
330
1E
100
AcDbEntity
  8
1
 62
     7
100
AcDbLine
 10
-212.4814819393053
 20
97.55662432702605
 30
0.0
 11
-209.9814819393051
 21
96.11324865405187
 31
0.0
  0
LINE
  5
284
330
1E
100
AcDbEntity
  8
1
 62
     7
100
AcDbLine
 10
-209.9814819393051
 20
96.11324865405187
 30
0.0
 11
-207.4814819393052
 21
97.55662432702605
 31
0.0
  0
LINE
  5
285
330
1E
100
AcDbEntity
  8
1
 62
     7
100
AcDbLine
 10
-207.4814819393052
 20
97.55662432702605
 30
0.0
 11
-207.4814819393052
 21
100.443375672974
 31
0.0
  0
LINE
  5
286
330
1E
100
AcDbEntity
  8
1
 62
     7
100
AcDbLine
 10
2.900000000000062
 20
-94.0
 30
0.0
 11
2.900000000000062
 21
-104.0
 31
0.0
  0
LINE
  5
287
330
1E
100
AcDbEntity
  8
1
 62
     7
100
AcDbLine
 10
32.70000000000001
 20
-102.0
 30
0.0
 11
32.70000000000001
 21
-96.0
 31
0.0
  0
LINE
  5
288
330
1E
100
AcDbEntity
  8
1
 62
     7
100
AcDbLine
 10
10.50000000000003
 20
-96.0
 30
0.0
 11
10.50000000000003
 21
-102.0
 31
0.0
  0
LINE
  5
289
330
1E
100
AcDbEntity
  8
1
 62
     7
100
AcDbLine
 10
8.750000000000143
 20
-102.0
 30
0.0
 11
32.70000000000001
 21
-102.0
 31
0.0
  0
LINE
  5
28A
330
1E
100
AcDbEntity
  8
1
 62
     7
100
AcDbLine
 10
32.70000000000001
 20
-102.0
 30
0.0
 11
33.50000000000012
 21
-101.2000000000001
 31
0.0
  0
LINE
  5
28B
330
1E
100
AcDbEntity
  8
1
 62
     7
100
AcDbLine
 10
33.50000000000012
 20
-101.2000000000001
 30
0.0
 11
33.50000000000012
 21
-96.79999999999997
 31
0.0
  0
LINE
  5
28C
330
1E
100
AcDbEntity
  8
1
 62
     7
100
AcDbLine
 10
33.50000000000012
 20
-96.79999999999997
 30
0.0
 11
32.70000000000001
 21
-96.0
 31
0.0
  0
LINE
  5
28D
330
1E
100
AcDbEntity
  8
1
 62
     7
100
AcDbLine
 10
32.70000000000001
 20
-96.0
 30
0.0
 11
8.750000000000143
 21
-96.0
 31
0.0
  0
LINE
  5
28E
330
1E
100
AcDbEntity
  8
1
 62
     7
100
AcDbLine
 10
8.500000000000026
 20
-94.0
 30
0.0
 11
2.900000000000062
 21
-94.0
 31
0.0
  0
LINE
  5
28F
330
1E
100
AcDbEntity
  8
1
 62
     7
100
AcDbLine
 10
2.900000000000062
 20
-94.0
 30
0.0
 11
2.5
 21
-94.39999999999995
 31
0.0
  0
LINE
  5
290
330
1E
100
AcDbEntity
  8
1
 62
     7
100
AcDbLine
 10
2.5
 20
-94.39999999999995
 30
0.0
 11
2.5
 21
-103.5999999999999
 31
0.0
  0
LINE
  5
291
330
1E
100
AcDbEntity
  8
1
 62
     7
100
AcDbLine
 10
2.5
 20
-103.5999999999999
 30
0.0
 11
2.900000000000062
 21
-104.0
 31
0.0
  0
LINE
  5
292
330
1E
100
AcDbEntity
  8
1
 62
     7
100
AcDbLine
 10
2.900000000000062
 20
-104.0
 30
0.0
 11
8.500000000000026
 21
-104.0
 31
0.0
  0
LINE
  5
293
330
1E
100
AcDbEntity
  8
1
 62
     7
100
AcDbLine
 10
8.500000000000026
 20
-104.4999999999999
 30
0.0
 11
8.500000000000026
 21
-93.0
 31
0.0
  0
LINE
  5
294
330
1E
100
AcDbEntity
  8
1
 62
     3
100
AcDbLine
 10
9.114359353944934
 20
-96.0
 30
0.0
 11
10.50000000000003
 21
-96.79999999999997
 31
0.0
  0
LINE
  5
295
330
1E
100
AcDbEntity
  8
1
 62
     3
100
AcDbLine
 10
9.114359353944934
 20
-102.0
 30
0.0
 11
10.50000000000003
 21
-101.2000000000002
 31
0.0
  0
LINE
  5
296
330
1E
100
AcDbEntity
  8
1
 62
     3
100
AcDbLine
 10
33.50000000000012
 20
-96.79999999999997
 30
0.0
 11
10.50000000000003
 21
-96.79999999999997
 31
0.0
  0
LINE
  5
297
330
1E
100
AcDbEntity
  8
1
 62
     3
100
AcDbLine
 10
33.50000000000012
 20
-101.2000000000001
 30
0.0
 11
10.50000000000003
 21
-101.2000000000002
 31
0.0
  0
LINE
  5
298
330
1E
100
AcDbEntity
  8
1
 62
     7
100
AcDbLine
 10
39.00000000000002
 20
-88.0
 30
0.0
 11
39.00000000000002
 21
-104.4999999999999
 31
0.0
  0
ARC
  5
29D
330
1E
100
AcDbEntity
  8
1
 62
     7
100
AcDbCircle
 10
75.10000000000005
 20
-100.2940008850349
 30
0.0
 40
19.5000000000001
100
AcDbArc
 50
54.59497949523875
 51
90.0
  0
ARC
  5
29E
330
1E
100
AcDbEntity
  8
0
 62
     7
100
AcDbCircle
 10
41.99999994742372
 20
-76.15600093761111
 30
0.0
 40
3.499999947423702
100
AcDbArc
 50
180.0000000000428
 51
270.0
  0
ARC
  5
29F
330
1E
100
AcDbEntity
  8
1
 62
     7
100
AcDbCircle
 10
75.10000000000005
 20
100.2939991149649
 30
0.0
 40
19.50000000000001
100
AcDbArc
 50
270.0
 51
305.4050294818528
  0
ARC
  5
2A0
330
1E
100
AcDbEntity
  8
0
 62
     7
100
AcDbCircle
 10
41.99999994742372
 20
76.15599916754115
 30
0.0
 40
3.49999994742393
100
AcDbArc
 50
89.99999999995907
 51
180.0
  0
ARC
  5
2A1
330
1E
100
AcDbEntity
  8
0
 62
     7
100
AcDbCircle
 10
82.40000043399792
 20
26.499999601951
 30
0.0
 40
2.499999962447362
100
AcDbArc
 50
179.9999999999139
 51
269.9999999999203
  0
ARC
  5
2A2
330
1E
100
AcDbEntity
  8
0
 62
     7
100
AcDbCircle
 10
82.40000043398172
 20
-26.49999960191655
 30
0.0
 40
2.499999962430818
100
AcDbArc
 50
89.99999999970819
 51
179.9999999997133
  0
ARC
  5
2A3
330
1E
100
AcDbEntity
  8
1
 62
     7
100
AcDbCircle
 10
41.50000000000002
 20
-51.0
 30
0.0
 40
2.999999999999993
100
AcDbArc
 50
180.0
 51
270.0
  0
ARC
  5
2A4
330
1E
100
AcDbEntity
  8
1
 62
     7
100
AcDbCircle
 10
41.50000000000002
 20
51.0
 30
0.0
 40
3.0
100
AcDbArc
 50
90.0
 51
180.0
  0
ARC
  5
2A5
330
1E
100
AcDbEntity
  8
1
 62
     7
100
AcDbCircle
 10
343.6999999970228
 20
0.0
 30
0.0
 40
11.99999981972985
100
AcDbArc
 50
109.4712209388035
 51
70.5287790611965
  0
CIRCLE
  5
2A6
330
1E
100
AcDbEntity
  8
1
 62
     7
100
AcDbCircle
 10
343.6999999970228
 20
0.0
 30
0.0
 40
88.49999999999999
  0
CIRCLE
  5
2A7
330
1E
100
AcDbEntity
  8
1
 62
     7
100
AcDbCircle
 10
343.6999999970228
 20
0.0
 30
0.0
 40
29.99999866428986
  0
CIRCLE
  5
2A8
330
1E
100
AcDbEntity
  8
1
 62
     7
100
AcDbCircle
 10
452.7177848333549
 20
45.15664501908043
 30
0.0
 40
4.79999999999999
  0
CIRCLE
  5
2A9
330
1E
100
AcDbEntity
  8
1
 62
     3
100
AcDbCircle
 10
452.7177848333549
 20
45.15664501908043
 30
0.0
 40
6.000000000000089
  0
CIRCLE
  5
2AA
330
1E
100
AcDbEntity
  8
1
 62
     7
100
AcDbCircle
 10
452.7177848333548
 20
-45.15664501908065
 30
0.0
 40
4.799999999999947
  0
CIRCLE
  5
2AB
330
1E
100
AcDbEntity
  8
1
 62
     3
100
AcDbCircle
 10
452.7177848333548
 20
-45.15664501908065
 30
0.0
 40
6.0
  0
CIRCLE
  5
2AC
330
1E
100
AcDbEntity
  8
1
 62
     7
100
AcDbCircle
 10
388.8566450161035
 20
-109.0177848363319
 30
0.0
 40
4.800000000000131
  0
CIRCLE
  5
2AD
330
1E
100
AcDbEntity
  8
1
 62
     3
100
AcDbCircle
 10
388.8566450161035
 20
-109.0177848363319
 30
0.0
 40
6.000000000000037
  0
CIRCLE
  5
2AE
330
1E
100
AcDbEntity
  8
1
 62
     7
100
AcDbCircle
 10
388.8566450161036
 20
109.0177848363319
 30
0.0
 40
4.799999999999898
  0
CIRCLE
  5
2AF
330
1E
100
AcDbEntity
  8
1
 62
     3
100
AcDbCircle
 10
388.8566450161036
 20
109.0177848363319
 30
0.0
 40
6.0
  0
CIRCLE
  5
2B0
330
1E
100
AcDbEntity
  8
1
 62
     7
100
AcDbCircle
 10
427.1386001770355
 20
83.43860018001249
 30
0.0
 40
7.000000000000177
  0
CIRCLE
  5
2B1
330
1E
100
AcDbEntity
  8
1
 62
     7
100
AcDbCircle
 10
461.6999999970229
 20
-0.0000000000001137
 30
0.0
 40
7.0
  0
CIRCLE
  5
2B2
330
1E
100
AcDbEntity
  8
1
 62
     7
100
AcDbCircle
 10
427.1386001770355
 20
-83.4386001800126
 30
0.0
 40
7.000000000000016
  0
CIRCLE
  5
2B3
330
1E
100
AcDbEntity
  8
1
 62
     7
100
AcDbCircle
 10
343.6999999970227
 20
-118.0
 30
0.0
 40
7.0
  0
CIRCLE
  5
2B4
330
1E
100
AcDbEntity
  8
1
 62
     7
100
AcDbCircle
 10
343.6999999970228
 20
118.0
 30
0.0
 40
7.0
  0
CIRCLE
  5
2B5
330
1E
100
AcDbEntity
  8
1
 62
     7
100
AcDbCircle
 10
-209.981481939305
 20
0.0
 30
0.0
 40
65.90000000000009
  0
CIRCLE
  5
2B6
330
1E
100
AcDbEntity
  8
1
 62
     7
100
AcDbCircle
 10
-154.981481939305
 20
0.0
 30
0.0
 40
6.400000000000089
  0
CIRCLE
  5
2B7
330
1E
100
AcDbEntity
  8
1
 62
     3
100
AcDbCircle
 10
-154.981481939305
 20
0.0
 30
0.0
 40
8.0
  0
CIRCLE
  5
2B8
330
1E
100
AcDbEntity
  8
1
 62
     3
100
AcDbCircle
 10
-171.0906089740449
 20
-38.89087296526021
 30
0.0
 40
8.000000000000204
  0
CIRCLE
  5
2B9
330
1E
100
AcDbEntity
  8
1
 62
     7
100
AcDbCircle
 10
-171.0906089740449
 20
-38.89087296526021
 30
0.0
 40
6.400000000000061
  0
CIRCLE
  5
2BA
330
1E
100
AcDbEntity
  8
1
 62
     7
100
AcDbCircle
 10
-209.981481939305
 20
-55.0
 30
0.0
 40
6.400000000000203
  0
CIRCLE
  5
2BB
330
1E
100
AcDbEntity
  8
1
 62
     3
100
AcDbCircle
 10
-209.981481939305
 20
-55.0
 30
0.0
 40
8.0
  0
CIRCLE
  5
2BC
330
1E
100
AcDbEntity
  8
1
 62
     3
100
AcDbCircle
 10
-248.8723549045654
 20
-38.89087296526021
 30
0.0
 40
7.999999999999964
  0
CIRCLE
  5
2BD
330
1E
100
AcDbEntity
  8
1
 62
     7
100
AcDbCircle
 10
-248.8723549045654
 20
-38.89087296526021
 30
0.0
 40
6.400000000000072
  0
CIRCLE
  5
2BE
330
1E
100
AcDbEntity
  8
1
 62
     7
100
AcDbCircle
 10
-248.8723549045654
 20
38.89087296526021
 30
0.0
 40
6.400000000000067
  0
CIRCLE
  5
2BF
330
1E
100
AcDbEntity
  8
1
 62
     3
100
AcDbCircle
 10
-248.8723549045654
 20
38.89087296526021
 30
0.0
 40
8.000000000000124
  0
CIRCLE
  5
2C0
330
1E
100
AcDbEntity
  8
1
 62
     7
100
AcDbCircle
 10
-264.9814819393053
 20
0.0
 30
0.0
 40
6.400000000000203
  0
CIRCLE
  5
2C1
330
1E
100
AcDbEntity
  8
1
 62
     3
100
AcDbCircle
 10
-264.9814819393053
 20
0.0
 30
0.0
 40
8.0
  0
CIRCLE
  5
2C2
330
1E
100
AcDbEntity
  8
1
 62
     7
100
AcDbCircle
 10
-209.981481939305
 20
0.0
 30
0.0
 40
25.99999960938998
  0
CIRCLE
  5
2C3
330
1E
100
AcDbEntity
  8
1
 62
     7
100
AcDbCircle
 10
-209.981481939305
 20
0.0
 30
0.0
 40
19.17307122223757
  0
CIRCLE
  5
2C4
330
1E
100
AcDbEntity
  8
1
  6
CENTER
 62
     3
100
AcDbCircle
 10
-209.981481939305
 20
0.0
 30
0.0
 40
55.0000000000002
  0
CIRCLE
  5
2C5
330
1E
100
AcDbEntity
  8
1
  6
CENTER
 62
     3
100
AcDbCircle
 10
-209.981481939305
 20
0.0
 30
0.0
 40
40.0
  0
CIRCLE
  5
2C6
330
1E
100
AcDbEntity
  8
1
 62
     3
100
AcDbCircle
 10
-209.981481939305
 20
55.0
 30
0.0
 40
8.0
  0
CIRCLE
  5
2C7
330
1E
100
AcDbEntity
  8
1
 62
     7
100
AcDbCircle
 10
-209.981481939305
 20
55.0
 30
0.0
 40
6.400000000000089
  0
CIRCLE
  5
2C8
330
1E
100
AcDbEntity
  8
1
 62
     3
100
AcDbCircle
 10
-171.0906089740449
 20
38.89087296526021
 30
0.0
 40
8.000000000000049
  0
CIRCLE
  5
2C9
330
1E
100
AcDbEntity
  8
1
 62
     7
100
AcDbCircle
 10
-171.0906089740449
 20
38.89087296526021
 30
0.0
 40
6.399999999999991
  0
CIRCLE
  5
2CA
330
1E
100
AcDbEntity
  8
1
 62
     7
100
AcDbCircle
 10
-209.981481939305
 20
0.0
 30
0.0
 40
70.00000000000004
  0
CIRCLE
  5
2CB
330
1E
100
AcDbEntity
  8
1
 62
     7
100
AcDbCircle
 10
-209.981481939305
 20
0.0
 30
0.0
 40
70.90000000000002
  0
CIRCLE
  5
2CC
330
1E
100
AcDbEntity
  8
1
 62
     7
100
AcDbCircle
 10
-209.981481939305
 20
0.0
 30
0.0
 40
77.50000000000001
  0
CIRCLE
  5
2CD
330
1E
100
AcDbEntity
  8
1
 62
     7
100
AcDbCircle
 10
-209.981481939305
 20
0.0
 30
0.0
 40
89.50000000000001
  0
CIRCLE
  5
2CE
330
1E
100
AcDbEntity
  8
1
 62
     7
100
AcDbCircle
 10
-209.981481939305
 20
0.0
 30
0.0
 40
93.0
  0
CIRCLE
  5
2CF
330
1E
100
AcDbEntity
  8
1
  6
CENTER
 62
     3
100
AcDbCircle
 10
-209.981481939305
 20
0.0
 30
0.0
 40
99.00000000000012
  0
CIRCLE
  5
2D0
330
1E
100
AcDbEntity
  8
1
 62
     7
100
AcDbCircle
 10
-209.981481939305
 20
0.0
 30
0.0
 40
104.9999999999997
  0
CIRCLE
  5
2D1
330
1E
100
AcDbEntity
  8
1
 62
     7
100
AcDbCircle
 10
343.6999999970228
 20
0.0
 30
0.0
 40
130.0000000000169
  0
CIRCLE
  5
2D2
330
1E
100
AcDbEntity
  8
1
  6
CENTER
 62
     3
100
AcDbCircle
 10
343.6999999970228
 20
0.0
 30
0.0
 40
118.0000000000124
  0
CIRCLE
  5
2D3
330
1E
100
AcDbEntity
  8
1
 62
     7
100
AcDbCircle
 10
343.6999999970228
 20
0.0
 30
0.0
 40
104.0
  0
CIRCLE
  5
2D4
330
1E
100
AcDbEntity
  8
1
 62
     7
100
AcDbCircle
 10
343.6999999970228
 20
0.0
 30
0.0
 40
101.2999999999999
  0
CIRCLE
  5
2D5
330
1E
100
AcDbEntity
  8
1
 62
     7
100
AcDbCircle
 10
343.6999999970228
 20
0.0
 30
0.0
 40
82.49999876077138
  0
CIRCLE
  5
2D6
330
1E
100
AcDbEntity
  8
1
 62
     7
100
AcDbCircle
 10
260.2613998170105
 20
-83.4386001800126
 30
0.0
 40
7.000000000000016
  0
CIRCLE
  5
2D7
330
1E
100
AcDbEntity
  8
1
 62
     7
100
AcDbCircle
 10
225.6999999970231
 20
-0.0000000000001137
 30
0.0
 40
7.0
  0
CIRCLE
  5
2D8
330
1E
100
AcDbEntity
  8
1
 62
     7
100
AcDbCircle
 10
260.2613998170104
 20
83.43860018001249
 30
0.0
 40
7.000000000000138
  0
CIRCLE
  5
2D9
330
1E
100
AcDbEntity
  8
1
 62
     3
100
AcDbCircle
 10
298.5433549779423
 20
109.0177848363319
 30
0.0
 40
6.0
  0
CIRCLE
  5
2DA
330
1E
100
AcDbEntity
  8
1
 62
     7
100
AcDbCircle
 10
298.5433549779423
 20
109.0177848363319
 30
0.0
 40
4.800000000000012
  0
CIRCLE
  5
2DB
330
1E
100
AcDbEntity
  8
1
 62
     3
100
AcDbCircle
 10
298.5433549779425
 20
-109.0177848363319
 30
0.0
 40
6.000000000000037
  0
CIRCLE
  5
2DC
330
1E
100
AcDbEntity
  8
1
 62
     7
100
AcDbCircle
 10
298.5433549779425
 20
-109.0177848363319
 30
0.0
 40
4.80000000000009
  0
CIRCLE
  5
2DD
330
1E
100
AcDbEntity
  8
1
 62
     3
100
AcDbCircle
 10
234.682215160691
 20
-45.15664501908065
 30
0.0
 40
6.0
  0
CIRCLE
  5
2DE
330
1E
100
AcDbEntity
  8
1
 62
     7
100
AcDbCircle
 10
234.682215160691
 20
-45.15664501908065
 30
0.0
 40
4.799999999999947
  0
CIRCLE
  5
2DF
330
1E
100
AcDbEntity
  8
1
 62
     3
100
AcDbCircle
 10
234.682215160691
 20
45.15664501908043
 30
0.0
 40
6.000000000000027
  0
CIRCLE
  5
2E0
330
1E
100
AcDbEntity
  8
1
 62
     7
100
AcDbCircle
 10
234.682215160691
 20
45.15664501908043
 30
0.0
 40
4.800000000000008
  0
CIRCLE
  5
2E1
330
1E
100
AcDbEntity
  8
1
 62
     7
100
AcDbCircle
 10
-129.8887994961855
 20
-58.19073997695477
 30
0.0
 40
5.00000000000015
  0
CIRCLE
  5
2E2
330
1E
100
AcDbEntity
  8
1
 62
     7
100
AcDbCircle
 10
-129.8887994961855
 20
-58.19073997695477
 30
0.0
 40
4.307179676972533
  0
CIRCLE
  5
2E3
330
1E
100
AcDbEntity
  8
1
 62
     7
100
AcDbCircle
 10
-115.8268868260849
 20
-30.59268244311977
 30
0.0
 40
5.000000000000036
  0
CIRCLE
  5
2E4
330
1E
100
AcDbEntity
  8
1
 62
     7
100
AcDbCircle
 10
-115.8268868260849
 20
-30.59268244311977
 30
0.0
 40
4.307179676972456
  0
CIRCLE
  5
2E5
330
1E
100
AcDbEntity
  8
1
 62
     7
100
AcDbCircle
 10
-110.9814819393053
 20
-0.0000000000001137
 30
0.0
 40
5.0
  0
CIRCLE
  5
2E6
330
1E
100
AcDbEntity
  8
1
 62
     7
100
AcDbCircle
 10
-110.9814819393053
 20
-0.0000000000001137
 30
0.0
 40
4.307179676972508
  0
CIRCLE
  5
2E7
330
1E
100
AcDbEntity
  8
1
 62
     7
100
AcDbCircle
 10
-115.8268868260849
 20
30.59268244311966
 30
0.0
 40
5.000000000000096
  0
CIRCLE
  5
2E8
330
1E
100
AcDbEntity
  8
1
 62
     7
100
AcDbCircle
 10
-115.8268868260849
 20
30.59268244311966
 30
0.0
 40
4.307179676972523
  0
CIRCLE
  5
2E9
330
1E
100
AcDbEntity
  8
1
 62
     7
100
AcDbCircle
 10
-129.8887994961855
 20
58.19073997695477
 30
0.0
 40
4.999999999999973
  0
CIRCLE
  5
2EA
330
1E
100
AcDbEntity
  8
1
 62
     7
100
AcDbCircle
 10
-129.8887994961855
 20
58.19073997695477
 30
0.0
 40
4.307179676972325
  0
CIRCLE
  5
2EB
330
1E
100
AcDbEntity
  8
1
 62
     7
100
AcDbCircle
 10
-121.7718360446568
 20
44.9450594742151
 30
0.0
 40
5.000000000000079
  0
CIRCLE
  5
2EC
330
1E
100
AcDbEntity
  8
1
 62
     7
100
AcDbCircle
 10
-121.7718360446568
 20
44.9450594742151
 30
0.0
 40
4.307179676972356
  0
CIRCLE
  5
2ED
330
1E
100
AcDbEntity
  8
1
 62
     7
100
AcDbCircle
 10
96.06000010956194
 20
69.36499999999989
 30
0.0
 40
6.643749999999883
  0
CIRCLE
  5
2EE
330
1E
100
AcDbEntity
  8
1
 62
     7
100
AcDbCircle
 10
96.06000010956194
 20
-69.36500177007236
 30
0.0
 40
6.643749999999883
  0
CIRCLE
  5
2EF
330
1E
100
AcDbEntity
  8
1
 62
     7
100
AcDbCircle
 10
-254.9265414135203
 20
88.20964589464836
 30
0.0
 40
4.307179676972451
  0
CIRCLE
  5
2F0
330
1E
100
AcDbEntity
  8
1
 62
     7
100
AcDbCircle
 10
-254.9265414135203
 20
88.20964589464836
 30
0.0
 40
4.999999999999983
  0
CIRCLE
  5
2F1
330
1E
100
AcDbEntity
  8
1
 62
     7
100
AcDbCircle
 10
-165.03642246509
 20
-88.20964589464836
 30
0.0
 40
4.307179676972401
  0
CIRCLE
  5
2F2
330
1E
100
AcDbEntity
  8
1
 62
     7
100
AcDbCircle
 10
-165.03642246509
 20
-88.20964589464836
 30
0.0
 40
5.000000000000058
  0
CIRCLE
  5
2F3
330
1E
100
AcDbEntity
  8
1
 62
     7
100
AcDbCircle
 10
-298.1911278339533
 20
-44.9450594742151
 30
0.0
 40
5.000000000000058
  0
CIRCLE
  5
2F4
330
1E
100
AcDbEntity
  8
1
 62
     7
100
AcDbCircle
 10
-298.1911278339533
 20
-44.9450594742151
 30
0.0
 40
4.307179676972511
  0
CIRCLE
  5
2F5
330
1E
100
AcDbEntity
  8
1
 62
     7
100
AcDbCircle
 10
-179.3887994961854
 20
94.15459511322012
 30
0.0
 40
4.307179676972441
  0
CIRCLE
  5
2F6
330
1E
100
AcDbEntity
  8
1
 62
     7
100
AcDbCircle
 10
-179.3887994961854
 20
94.15459511322012
 30
0.0
 40
5.000000000000115
  0
CIRCLE
  5
2F7
330
1E
100
AcDbEntity
  8
1
 62
     7
100
AcDbCircle
 10
-151.7907419623504
 20
80.09268244311966
 30
0.0
 40
4.307179676972546
  0
CIRCLE
  5
2F8
330
1E
100
AcDbEntity
  8
1
 62
     7
100
AcDbCircle
 10
-151.7907419623504
 20
80.09268244311966
 30
0.0
 40
5.000000000000174
  0
CIRCLE
  5
2F9
330
1E
100
AcDbEntity
  8
1
 62
     7
100
AcDbCircle
 10
-151.7907419623503
 20
-80.09268244311954
 30
0.0
 40
4.307179676972317
  0
CIRCLE
  5
2FA
330
1E
100
AcDbEntity
  8
1
 62
     7
100
AcDbCircle
 10
-151.7907419623503
 20
-80.09268244311954
 30
0.0
 40
4.999999999999906
  0
CIRCLE
  5
2FB
330
1E
100
AcDbEntity
  8
1
 62
     7
100
AcDbCircle
 10
-179.3887994961854
 20
-94.15459511322001
 30
0.0
 40
4.307179676972515
  0
CIRCLE
  5
2FC
330
1E
100
AcDbEntity
  8
1
 62
     7
100
AcDbCircle
 10
-179.3887994961854
 20
-94.15459511322001
 30
0.0
 40
5.000000000000058
  0
CIRCLE
  5
2FD
330
1E
100
AcDbEntity
  8
1
 62
     7
100
AcDbCircle
 10
-209.981481939305
 20
-98.99999999999987
 30
0.0
 40
4.307179676972508
  0
CIRCLE
  5
2FE
330
1E
100
AcDbEntity
  8
1
 62
     7
100
AcDbCircle
 10
-209.981481939305
 20
-98.99999999999987
 30
0.0
 40
5.0
  0
CIRCLE
  5
2FF
330
1E
100
AcDbEntity
  8
1
 62
     7
100
AcDbCircle
 10
-240.5741643824248
 20
-94.15459511322001
 30
0.0
 40
4.307179676972475
  0
CIRCLE
  5
300
330
1E
100
AcDbEntity
  8
1
 62
     7
100
AcDbCircle
 10
-240.5741643824248
 20
-94.15459511322001
 30
0.0
 40
5.000000000000106
  0
CIRCLE
  5
301
330
1E
100
AcDbEntity
  8
1
 62
     7
100
AcDbCircle
 10
-268.1722219162598
 20
-80.09268244311954
 30
0.0
 40
4.307179676972544
  0
CIRCLE
  5
302
330
1E
100
AcDbEntity
  8
1
 62
     7
100
AcDbCircle
 10
-268.1722219162598
 20
-80.09268244311954
 30
0.0
 40
5.000000000000198
  0
CIRCLE
  5
303
330
1E
100
AcDbEntity
  8
1
 62
     7
100
AcDbCircle
 10
-290.0741643824249
 20
-58.19073997695466
 30
0.0
 40
4.30717967697257
  0
CIRCLE
  5
304
330
1E
100
AcDbEntity
  8
1
 62
     7
100
AcDbCircle
 10
-290.0741643824249
 20
-58.19073997695466
 30
0.0
 40
5.000000000000209
  0
CIRCLE
  5
305
330
1E
100
AcDbEntity
  8
1
 62
     7
100
AcDbCircle
 10
-304.1360770525252
 20
-30.59268244311977
 30
0.0
 40
4.307179676972352
  0
CIRCLE
  5
306
330
1E
100
AcDbEntity
  8
1
 62
     7
100
AcDbCircle
 10
-304.1360770525252
 20
-30.59268244311977
 30
0.0
 40
4.99999999999996
  0
CIRCLE
  5
307
330
1E
100
AcDbEntity
  8
1
 62
     7
100
AcDbCircle
 10
-308.9814819393051
 20
0.0
 30
0.0
 40
4.307179676972508
  0
CIRCLE
  5
308
330
1E
100
AcDbEntity
  8
1
 62
     7
100
AcDbCircle
 10
-308.9814819393051
 20
0.0
 30
0.0
 40
5.0
  0
CIRCLE
  5
309
330
1E
100
AcDbEntity
  8
1
 62
     7
100
AcDbCircle
 10
-304.1360770525252
 20
30.59268244311966
 30
0.0
 40
4.307179676972441
  0
CIRCLE
  5
30A
330
1E
100
AcDbEntity
  8
1
 62
     7
100
AcDbCircle
 10
-304.1360770525252
 20
30.59268244311966
 30
0.0
 40
4.999999999999893
  0
CIRCLE
  5
30B
330
1E
100
AcDbEntity
  8
1
 62
     7
100
AcDbCircle
 10
-290.074164382425
 20
58.19073997695489
 30
0.0
 40
4.307179676972562
  0
CIRCLE
  5
30C
330
1E
100
AcDbEntity
  8
1
 62
     7
100
AcDbCircle
 10
-290.074164382425
 20
58.19073997695489
 30
0.0
 40
5.000000000000018
  0
CIRCLE
  5
30D
330
1E
100
AcDbEntity
  8
1
 62
     7
100
AcDbCircle
 10
-268.1722219162601
 20
80.09268244311966
 30
0.0
 40
4.307179676972205
  0
CIRCLE
  5
30E
330
1E
100
AcDbEntity
  8
1
 62
     7
100
AcDbCircle
 10
-268.1722219162601
 20
80.09268244311966
 30
0.0
 40
4.999999999999813
  0
CIRCLE
  5
30F
330
1E
100
AcDbEntity
  8
1
 62
     7
100
AcDbCircle
 10
-240.574164382425
 20
94.15459511322037
 30
0.0
 40
4.307179676972512
  0
CIRCLE
  5
310
330
1E
100
AcDbEntity
  8
1
 62
     7
100
AcDbCircle
 10
-240.574164382425
 20
94.15459511322037
 30
0.0
 40
4.99999999999996
  0
CIRCLE
  5
311
330
1E
100
AcDbEntity
  8
1
 62
     7
100
AcDbCircle
 10
-209.9814819393051
 20
99.0
 30
0.0
 40
5.0
  0
CIRCLE
  5
312
330
1E
100
AcDbEntity
  8
1
 62
     7
100
AcDbCircle
 10
-209.9814819393051
 20
99.0
 30
0.0
 40
4.307179676972309
  0
ARC
  5
313
330
1E
100
AcDbEntity
  8
1
 62
     7
100
AcDbCircle
 10
36.23000024434495
 20
-52.99999922651966
 30
0.0
 40
1.0
100
AcDbArc
 50
0.0
 51
90.0
  0
ARC
  5
314
330
1E
100
AcDbEntity
  8
1
 62
     7
100
AcDbCircle
 10
36.23000024434495
 20
52.99999922651966
 30
0.0
 40
1.0
100
AcDbArc
 50
270.0
 51
0.0
  0
ARC
  5
315
330
1E
100
AcDbEntity
  8
1
 62
     7
100
AcDbCircle
 10
41.69600024434485
 20
-76.32800088503529
 30
0.0
 40
4.465999999999902
100
AcDbArc
 50
180.0
 51
270.0
  0
ARC
  5
316
330
1E
100
AcDbEntity
  8
1
 62
     7
100
AcDbCircle
 10
41.69600024434485
 20
76.32799911496498
 30
0.0
 40
4.465999999999893
100
AcDbArc
 50
90.0
 51
180.0
  0
ARC
  5
317
330
1E
100
AcDbEntity
  8
1
 62
     7
100
AcDbCircle
 10
74.50000000025394
 20
89.0
 30
0.0
 40
4.99999999974608
100
AcDbArc
 50
0.0
 51
90.0
  0
ARC
  5
318
330
1E
100
AcDbEntity
  8
1
 62
     7
100
AcDbCircle
 10
74.50000000000001
 20
-89.0
 30
0.0
 40
5.0
100
AcDbArc
 50
270.0
 51
0.0
  0
ARC
  5
319
330
1E
100
AcDbEntity
  8
1
 62
     7
100
AcDbCircle
 10
49.90000000016543
 20
-48.59999999999989
 30
0.0
 40
0.6000000000001294
100
AcDbArc
 50
0.0
 51
90.0
  0
ARC
  5
31A
330
1E
100
AcDbEntity
  8
1
 62
     7
100
AcDbCircle
 10
49.90000000016543
 20
-31.39999999999998
 30
0.0
 40
0.6000000000000192
100
AcDbArc
 50
270.0
 51
0.0
  0
ARC
  5
31B
330
1E
100
AcDbEntity
  8
1
 62
     7
100
AcDbCircle
 10
85.83625010956192
 20
73.41499999999995
 30
0.0
 40
0.6999999999999318
100
AcDbArc
 50
90.0
 51
180.0
  0
ARC
  5
31C
330
1E
100
AcDbEntity
  8
1
 62
     7
100
AcDbCircle
 10
85.27745618001516
 20
65.08500000000015
 30
0.0
 40
0.6999999999999702
100
AcDbArc
 50
173.0000000000087
 51
270.0
  0
ARC
  5
31D
330
1E
100
AcDbEntity
  8
1
 62
     7
100
AcDbCircle
 10
85.27745618001516
 20
-65.08500000000004
 30
0.0
 40
0.6999999999999318
100
AcDbArc
 50
90.0
 51
187.0000000000004
  0
ARC
  5
31E
330
1E
100
AcDbEntity
  8
1
 62
     7
100
AcDbCircle
 10
85.83625010956192
 20
-73.41499999999985
 30
0.0
 40
0.6999999999999888
100
AcDbArc
 50
180.0
 51
270.0
  0
ARC
  5
31F
330
1E
100
AcDbEntity
  8
1
 62
     7
100
AcDbCircle
 10
8.750000000000143
 20
102.2499999999999
 30
0.0
 40
0.2500000000001137
100
AcDbArc
 50
180.0
 51
270.0
  0
ARC
  5
320
330
1E
100
AcDbEntity
  8
1
 62
     7
100
AcDbCircle
 10
8.750000000000143
 20
95.75000000000001
 30
0.0
 40
0.25
100
AcDbArc
 50
90.0
 51
180.0
  0
ARC
  5
321
330
1E
100
AcDbEntity
  8
1
 62
     7
100
AcDbCircle
 10
8.750000000000143
 20
-95.75000000000001
 30
0.0
 40
0.2500000000001137
100
AcDbArc
 50
180.0
 51
270.0
  0
ARC
  5
322
330
1E
100
AcDbEntity
  8
1
 62
     7
100
AcDbCircle
 10
8.750000000000143
 20
-102.2499999999999
 30
0.0
 40
0.25
100
AcDbArc
 50
90.0
 51
180.0
  0
LINE
  5
327
330
1E
100
AcDbEntity
  8
1
 62
     7
100
AcDbLine
 10
-194.6241446447015
 20
36.9551813004515
 30
0.0
 11
-194.6741446447014
 21
36.95518130045138
 31
0.0
  0
CIRCLE
  5
328
330
1E
100
AcDbEntity
  8
1
 62
     7
100
AcDbCircle
 10
-194.6741446447014
 20
36.95518130045138
 30
0.0
 40
0.5000000000000005
  0
LINE
  5
329
330
1E
100
AcDbEntity
  8
1
 62
     7
100
AcDbLine
 10
-172.9763006388536
 20
15.30733729460349
 30
0.0
 11
-173.0263006388535
 21
15.30733729460349
 31
0.0
  0
CIRCLE
  5
32A
330
1E
100
AcDbEntity
  8
1
 62
     7
100
AcDbCircle
 10
-173.0263006388535
 20
15.30733729460349
 30
0.0
 40
0.5000000000000005
  0
LINE
  5
32B
330
1E
100
AcDbEntity
  8
1
 62
     7
100
AcDbLine
 10
-172.9763006388536
 20
-15.3073372946036
 30
0.0
 11
-173.0263006388535
 21
-15.3073372946036
 31
0.0
  0
CIRCLE
  5
32C
330
1E
100
AcDbEntity
  8
1
 62
     7
100
AcDbCircle
 10
-173.0263006388535
 20
-15.3073372946036
 30
0.0
 40
0.5000000000000005
  0
LINE
  5
32D
330
1E
100
AcDbEntity
  8
1
 62
     7
100
AcDbLine
 10
-194.6241446447015
 20
-36.9551813004515
 30
0.0
 11
-194.6741446447014
 21
-36.9551813004515
 31
0.0
  0
CIRCLE
  5
32E
330
1E
100
AcDbEntity
  8
1
 62
     7
100
AcDbCircle
 10
-194.6741446447014
 20
-36.9551813004515
 30
0.0
 40
0.5000000000000005
  0
LINE
  5
32F
330
1E
100
AcDbEntity
  8
1
 62
     7
100
AcDbLine
 10
-225.2388192339089
 20
-36.9551813004515
 30
0.0
 11
-225.2888192339088
 21
-36.9551813004515
 31
0.0
  0
CIRCLE
  5
330
330
1E
100
AcDbEntity
  8
1
 62
     7
100
AcDbCircle
 10
-225.2888192339088
 20
-36.9551813004515
 30
0.0
 40
0.5000000000000005
  0
LINE
  5
331
330
1E
100
AcDbEntity
  8
1
 62
     7
100
AcDbLine
 10
-246.8866632397566
 20
-15.3073372946036
 30
0.0
 11
-246.9366632397565
 21
-15.30733729460371
 31
0.0
  0
CIRCLE
  5
332
330
1E
100
AcDbEntity
  8
1
 62
     7
100
AcDbCircle
 10
-246.9366632397565
 20
-15.30733729460371
 30
0.0
 40
0.5000000000000005
  0
LINE
  5
333
330
1E
100
AcDbEntity
  8
1
 62
     7
100
AcDbLine
 10
-246.8866632397566
 20
15.30733729460349
 30
0.0
 11
-246.9366632397567
 21
15.30733729460349
 31
0.0
  0
CIRCLE
  5
334
330
1E
100
AcDbEntity
  8
1
 62
     7
100
AcDbCircle
 10
-246.9366632397567
 20
15.30733729460349
 30
0.0
 40
0.5000000000000005
  0
LINE
  5
335
330
1E
100
AcDbEntity
  8
1
 62
     7
100
AcDbLine
 10
-225.2388192339089
 20
36.9551813004515
 30
0.0
 11
-225.2888192339088
 21
36.95518130045138
 31
0.0
  0
CIRCLE
  5
336
330
1E
100
AcDbEntity
  8
1
 62
     7
100
AcDbCircle
 10
-225.2888192339088
 20
36.95518130045138
 30
0.0
 40
0.5000000000000005
  0
TEXT
  5
33B
330
1E
100
AcDbEntity
  8
1
 62
     3
100
AcDbText
 10
-231.9856201397537
 20
-341.7662828865942
 30
0.0
 40
5.4
  1
 
 41
0.9
100
AcDbText
  0
TEXT
  5
341
330
1E
100
AcDbEntity
  8
1
100
AcDbText
 10
286.5154415096868
 20
-206.206532137837
 30
0.0
 40
9.5
  1
CSG-65-XXX-2UH.dxf
 41
0.9
100
AcDbText
  0
INSERT
  5
3B5
330
1E
100
AcDbEntity
  8
0
100
AcDbBlockReference
  2
HD Logo
 10
159.9679030883255
 20
-343.8214730005864
 30
0.0
 41
2.594497586386896
 42
2.594497586386896
 43
2.594497586386896
  0
INSERT
  5
3BF
330
1E
100
AcDbEntity
  8
0
100
AcDbBlockReference
  2
HD LLC
 10
424.9763109792064
 20
-341.9239013968955
 30
0.0
 41
2.6
 42
2.6
 43
2.6
  0
INSERT
  5
3D4
330
1E
100
AcDbEntity
  8
0
100
AcDbBlockReference
  2
NTC
 10
-459.9867232679298
 20
-239.5215895633895
 30
0.0
 41
1.56
 42
1.56
 43
1.56
  0
ENDSEC
  0
SECTION
  2
OBJECTS
  0
DICTIONARY
  5
C
330
0
100
AcDbDictionary
281
     1
  3
ACAD_GROUP
350
D
  3
ACAD_LAYOUT
350
19
  3
ACAD_MLINESTYLE
350
16
  3
ACAD_PLOTSETTINGS
350
18
  3
ACAD_PLOTSTYLENAME
350
E
  3
AcDbVariableDictionary
350
3C0
  0
DICTIONARY
  5
D
102
{ACAD_REACTORS
330
C
102
}
330
C
100
AcDbDictionary
281
     1
  0
DICTIONARY
  5
19
102
{ACAD_REACTORS
330
C
102
}
330
C
100
AcDbDictionary
281
     1
  3
Layout1
350
1D
  3
Model
350
21
  0
DICTIONARY
  5
16
102
{ACAD_REACTORS
330
C
102
}
330
C
100
AcDbDictionary
281
     1
  3
Standard
350
17
  0
DICTIONARY
  5
18
102
{ACAD_REACTORS
330
C
102
}
330
C
100
AcDbDictionary
281
     1
  0
ACDBDICTIONARYWDFLT
  5
E
102
{ACAD_REACTORS
330
C
102
}
330
C
100
AcDbDictionary
281
     1
  3
Normal
350
F
100
AcDbDictionaryWithDefault
340
F
  0
DICTIONARY
  5
3C0
102
{ACAD_REACTORS
330
C
102
}
330
C
100
AcDbDictionary
281
     1
  3
DIMASSOC
350
3C1
  0
LAYOUT
  5
1D
102
{ACAD_REACTORS
330
19
102
}
330
19
100
AcDbPlotSettings
  1

  2
\\SERVER9\HP LaserJet 5100 PCL 5e
  4

  6

 40
0.0
 41
0.0
 42
0.0
 43
0.0
 44
0.0
 45
0.0
 46
0.0
 47
0.0
 48
0.0
 49
0.0
140
0.0
141
0.0
142
1.0
143
1.0
 70
   688
 72
     0
 73
     0
 74
     5
  7

 75
    16
147
1.0
148
0.0
149
0.0
100
AcDbLayout
  1
Layout1
 70
     1
 71
     1
 10
0.0
 20
0.0
 11
12.0
 21
9.0
 12
0.0
 22
0.0
 32
0.0
 14
1.000000000000000E+20
 24
1.000000000000000E+20
 34
1.000000000000000E+20
 15
-1.000000000000000E+20
 25
-1.000000000000000E+20
 35
-1.000000000000000E+20
146
0.0
 13
0.0
 23
0.0
 33
0.0
 16
1.0
 26
0.0
 36
0.0
 17
0.0
 27
1.0
 37
0.0
 76
     0
330
1A
  0
LAYOUT
  5
21
102
{ACAD_REACTORS
330
19
102
}
330
19
100
AcDbPlotSettings
  1

  2
\\SERVER9\HP LaserJet 5100 PCL 5e
  4

  6

 40
0.0
 41
0.0
 42
0.0
 43
0.0
 44
0.0
 45
0.0
 46
0.0
 47
0.0
 48
0.0
 49
0.0
140
0.0
141
0.0
142
1.0
143
1.0
 70
  1712
 72
     0
 73
     0
 74
     0
  7

 75
     0
147
1.0
148
0.0
149
0.0
100
AcDbLayout
  1
Model
 70
     1
 71
     0
 10
0.0
 20
0.0
 11
12.0
 21
9.0
 12
0.0
 22
0.0
 32
0.0
 14
0.0
 24
0.0
 34
0.0
 15
0.0
 25
0.0
 35
0.0
146
0.0
 13
0.0
 23
0.0
 33
0.0
 16
1.0
 26
0.0
 36
0.0
 17
0.0
 27
1.0
 37
0.0
 76
     0
330
1E
  0
MLINESTYLE
  5
17
102
{ACAD_REACTORS
330
16
102
}
330
16
100
AcDbMlineStyle
  2
STANDARD
 70
     0
  3

 62
   256
 51
90.0
 52
90.0
 71
     2
 49
0.5
 62
   256
  6
BYLAYER
 49
-0.5
 62
   256
  6
BYLAYER
  0
ACDBPLACEHOLDER
  5
F
102
{ACAD_REACTORS
330
E
102
}
330
E
  0
DICTIONARYVAR
  5
3C1
102
{ACAD_REACTORS
330
3C0
102
}
330
3C0
100
DictionaryVariables
280
     0
  1
1
  0
ENDSEC
  0
EOF
