  0
SECTION
  2
HEADER
  9
$ACADVER
  1
AC1015
  9
$ACADMAINTVER
 70
     6
  9
$DWGCODEPAGE
  3
DOS932
  9
$INSBASE
 10
0.0
 20
0.0
 30
0.0
  9
$EXTMIN
 10
0.0
 20
0.0
 30
0.0
  9
$EXTMAX
 10
420.0
 20
297.0
 30
0.0
  9
$LIMMIN
 10
0.0
 20
0.0
  9
$LIMMAX
 10
420.0
 20
297.0
  9
$ORTHOMODE
 70
     0
  9
$REGENMODE
 70
     1
  9
$FILLMODE
 70
     1
  9
$QTEXTMODE
 70
     0
  9
$MIRRTEXT
 70
     1
  9
$LTSCALE
 40
1.0
  9
$ATTMODE
 70
     1
  9
$TEXTSIZE
 40
3.5277777778
  9
$TRACEWID
 40
1.0
  9
$TEXTSTYLE
  7
Standard
  9
$CLAYER
  8
0
  9
$CELTYPE
  6
ByLayer
  9
$CECOLOR
 62
   256
  9
$CELTSCALE
 40
1.0
  9
$DISPSILH
 70
     0
  9
$DIMSCALE
 40
1.0
  9
$DIMASZ
 40
2.6975097656
  9
$DIMEXO
 40
1.0
  9
$DIMDLI
 40
3.75
  9
$DIMRND
 40
0.0
  9
$DIMDLE
 40
0.0
  9
$DIMEXE
 40
1.0
  9
$DIMTP
 40
0.0
  9
$DIMTM
 40
0.0
  9
$DIMTXT
 40
3.5277777778
  9
$DIMCEN
 40
2.5
  9
$DIMTSZ
 40
0.0
  9
$DIMTOL
 70
     0
  9
$DIMLIM
 70
     0
  9
$DIMTIH
 70
     1
  9
$DIMTOH
 70
     1
  9
$DIMSE1
 70
     0
  9
$DIMSE2
 70
     0
  9
$DIMTAD
 70
     1
  9
$DIMZIN
 70
     0
  9
$DIMBLK
  1

  9
$DIMASO
 70
     1
  9
$DIMSHO
 70
     1
  9
$DIMPOST
  1

  9
$DIMAPOST
  1

  9
$DIMALT
 70
     0
  9
$DIMALTD
 70
     3
  9
$DIMALTF
 40
0.0393700787
  9
$DIMLFAC
 40
1.0
  9
$DIMTOFL
 70
     1
  9
$DIMTVP
 40
0.0
  9
$DIMTIX
 70
     0
  9
$DIMSOXD
 70
     0
  9
$DIMSAH
 70
     0
  9
$DIMBLK1
  1

  9
$DIMBLK2
  1

  9
$DIMSTYLE
  2
ISO-25
  9
$DIMCLRD
 70
     0
  9
$DIMCLRE
 70
     0
  9
$DIMCLRT
 70
     0
  9
$DIMTFAC
 40
1.0
  9
$DIMGAP
 40
2.0
  9
$DIMJUST
 70
     0
  9
$DIMSD1
 70
     0
  9
$DIMSD2
 70
     0
  9
$DIMTOLJ
 70
     0
  9
$DIMTZIN
 70
     0
  9
$DIMALTZ
 70
     0
  9
$DIMALTTZ
 70
     0
  9
$DIMUPT
 70
     0
  9
$DIMDEC
 70
     3
  9
$DIMTDEC
 70
     3
  9
$DIMALTU
 70
     2
  9
$DIMALTTD
 70
     3
  9
$DIMTXSTY
  7
Standard
  9
$DIMAUNIT
 70
     0
  9
$DIMADEC
 70
     3
  9
$DIMALTRND
 40
0.0
  9
$DIMAZIN
 70
     0
  9
$DIMDSEP
 70
    44
  9
$DIMATFIT
 70
     3
  9
$DIMFRAC
 70
     0
  9
$DIMLDRBLK
  1

  9
$DIMLUNIT
 70
     2
  9
$DIMLWD
 70
    -2
  9
$DIMLWE
 70
    -2
  9
$DIMTMOVE
 70
     0
  9
$LUNITS
 70
     2
  9
$LUPREC
 70
     4
  9
$SKETCHINC
 40
1.0
  9
$FILLETRAD
 40
10.0
  9
$AUNITS
 70
     0
  9
$AUPREC
 70
     0
  9
$MENU
  1
.
  9
$ELEVATION
 40
0.0
  9
$PELEVATION
 40
0.0
  9
$THICKNESS
 40
0.0
  9
$LIMCHECK
 70
     0
  9
$CHAMFERA
 40
0.0
  9
$CHAMFERB
 40
0.0
  9
$CHAMFERC
 40
0.0
  9
$CHAMFERD
 40
0.0
  9
$SKPOLY
 70
     0
  9
$TDCREATE
 40
2458681.684583634
  9
$TDUCREATE
 40
2458681.309583634
  9
$TDUPDATE
 40
2458681.68458897
  9
$TDUUPDATE
 40
2458681.30958897
  9
$TDINDWG
 40
0.0000000116
  9
$TDUSRTIMER
 40
0.0000000116
  9
$USRTIMER
 70
     1
  9
$ANGBASE
 50
0.0
  9
$ANGDIR
 70
     0
  9
$PDMODE
 70
     0
  9
$PDSIZE
 40
-1.0
  9
$PLINEWID
 40
0.0
  9
$SPLFRAME
 70
     0
  9
$SPLINETYPE
 70
     6
  9
$SPLINESEGS
 70
     8
  9
$HANDSEED
  5
489
  9
$SURFTAB1
 70
     6
  9
$SURFTAB2
 70
     6
  9
$SURFTYPE
 70
     6
  9
$SURFU
 70
     6
  9
$SURFV
 70
     6
  9
$UCSBASE
  2

  9
$UCSNAME
  2

  9
$UCSORG
 10
0.0
 20
0.0
 30
0.0
  9
$UCSXDIR
 10
1.0
 20
0.0
 30
0.0
  9
$UCSYDIR
 10
0.0
 20
1.0
 30
0.0
  9
$UCSORTHOREF
  2

  9
$UCSORTHOVIEW
 70
     0
  9
$UCSORGTOP
 10
0.0
 20
0.0
 30
0.0
  9
$UCSORGBOTTOM
 10
0.0
 20
0.0
 30
0.0
  9
$UCSORGLEFT
 10
0.0
 20
0.0
 30
0.0
  9
$UCSORGRIGHT
 10
0.0
 20
0.0
 30
0.0
  9
$UCSORGFRONT
 10
0.0
 20
0.0
 30
0.0
  9
$UCSORGBACK
 10
0.0
 20
0.0
 30
0.0
  9
$PUCSBASE
  2

  9
$PUCSNAME
  2

  9
$PUCSORG
 10
0.0
 20
0.0
 30
0.0
  9
$PUCSXDIR
 10
1.0
 20
0.0
 30
0.0
  9
$PUCSYDIR
 10
0.0
 20
1.0
 30
0.0
  9
$PUCSORTHOREF
  2

  9
$PUCSORTHOVIEW
 70
     0
  9
$PUCSORGTOP
 10
0.0
 20
0.0
 30
0.0
  9
$PUCSORGBOTTOM
 10
0.0
 20
0.0
 30
0.0
  9
$PUCSORGLEFT
 10
0.0
 20
0.0
 30
0.0
  9
$PUCSORGRIGHT
 10
0.0
 20
0.0
 30
0.0
  9
$PUCSORGFRONT
 10
0.0
 20
0.0
 30
0.0
  9
$PUCSORGBACK
 10
0.0
 20
0.0
 30
0.0
  9
$USERI1
 70
     0
  9
$USERI2
 70
     0
  9
$USERI3
 70
     0
  9
$USERI4
 70
     0
  9
$USERI5
 70
     0
  9
$USERR1
 40
0.0
  9
$USERR2
 40
0.0
  9
$USERR3
 40
0.0
  9
$USERR4
 40
0.0
  9
$USERR5
 40
0.0
  9
$WORLDVIEW
 70
     1
  9
$SHADEDGE
 70
     3
  9
$SHADEDIF
 70
    70
  9
$TILEMODE
 70
     1
  9
$MAXACTVP
 70
    64
  9
$PINSBASE
 10
0.0
 20
0.0
 30
0.0
  9
$PLIMCHECK
 70
     0
  9
$PEXTMIN
 10
1.0000000000E+20
 20
1.0000000000E+20
 30
1.0000000000E+20
  9
$PEXTMAX
 10
-1.0000000000E+20
 20
-1.0000000000E+20
 30
-1.0000000000E+20
  9
$PLIMMIN
 10
0.0
 20
0.0
  9
$PLIMMAX
 10
420.0
 20
297.0
  9
$UNITMODE
 70
     0
  9
$VISRETAIN
 70
     1
  9
$PLINEGEN
 70
     0
  9
$PSLTSCALE
 70
     1
  9
$TREEDEPTH
 70
  3020
  9
$CMLSTYLE
  2
Standard
  9
$CMLJUST
 70
     0
  9
$CMLSCALE
 40
20.0
  9
$PROXYGRAPHICS
 70
     1
  9
$MEASUREMENT
 70
     1
  9
$CELWEIGHT
370
    -1
  9
$ENDCAPS
280
     0
  9
$JOINSTYLE
280
     0
  9
$LWDISPLAY
290
     1
  9
$INSUNITS
 70
     4
  9
$HYPERLINKBASE
  1

  9
$STYLESHEET
  1

  9
$XEDIT
290
     1
  9
$CEPSNTYPE
380
     0
  9
$PSTYLEMODE
290
     1
  9
$FINGERPRINTGUID
  2
{38EE2836-F477-44D1-AF1D-57B99EFF8CB4}
  9
$VERSIONGUID
  2
{FAEB1C32-E019-11D5-929B-00C0DF256EC4}
  9
$EXTNAMES
290
     1
  9
$PSVPSCALE
 40
0.0
  9
$OLESTARTUP
290
     0
  0
ENDSEC
  0
SECTION
  2
CLASSES
  0
CLASS
  1
ACDBDICTIONARYWDFLT
  2
AcDbDictionaryWithDefault
  3
ObjectDBX Classes
 90
        0
280
     0
281
     0
  0
CLASS
  1
VISUALSTYLE
  2
AcDbVisualStyle
  3
ObjectDBX Classes
 90
     4095
280
     0
281
     0
  0
CLASS
  1
MATERIAL
  2
AcDbMaterial
  3
ObjectDBX Classes
 90
     1153
280
     0
281
     0
  0
CLASS
  1
SCALE
  2
AcDbScale
  3
ObjectDBX Classes
 90
     1153
280
     0
281
     0
  0
CLASS
  1
TABLESTYLE
  2
AcDbTableStyle
  3
ObjectDBX Classes
 90
     4095
280
     0
281
     0
  0
CLASS
  1
MLEADERSTYLE
  2
AcDbMLeaderStyle
  3
ACDB_MLEADERSTYLE_CLASS
 90
     4095
280
     0
281
     0
  0
CLASS
  1
SUN
  2
AcDbSun
  3
SCENEOE
 90
     1153
280
     0
281
     0
  0
CLASS
  1
ACDBPLACEHOLDER
  2
AcDbPlaceHolder
  3
ObjectDBX Classes
 90
        0
280
     0
281
     0
  0
CLASS
  1
LAYOUT
  2
AcDbLayout
  3
ObjectDBX Classes
 90
        0
280
     0
281
     0
  0
ENDSEC
  0
SECTION
  2
TABLES
  0
TABLE
  2
VPORT
  5
8
330
0
100
AcDbSymbolTable
 70
     1
  0
VPORT
  5
29
330
8
100
AcDbSymbolTableRecord
100
AcDbViewportTableRecord
  2
*Active
 70
     0
 10
0.0
 20
0.0
 11
1.0
 21
1.0
 12
210.0
 22
148.5
 13
0.0
 23
0.0
 14
10.0
 24
10.0
 15
10.0
 25
10.0
 16
0.0
 26
0.0
 36
1.0
 17
0.0
 27
0.0
 37
0.0
 40
297.0
 41
1.4141414141
 42
50.0
 43
0.0
 44
0.0
 50
0.0
 51
0.0
 71
     0
 72
  2000
 73
     1
 74
     3
 75
     0
 76
     0
 77
     0
 78
     0
281
     0
 65
     1
110
0.0
120
0.0
130
0.0
111
1.0
121
0.0
131
0.0
112
0.0
122
1.0
132
0.0
 79
     0
146
0.0
  0
ENDTAB
  0
TABLE
  2
LTYPE
  5
5
330
0
100
AcDbSymbolTable
 70
     6
  0
LTYPE
  5
14
330
5
100
AcDbSymbolTableRecord
100
AcDbLinetypeTableRecord
  2
ByBlock
 70
     0
  3

 72
    65
 73
     0
 40
0.0
  0
LTYPE
  5
15
330
5
100
AcDbSymbolTableRecord
100
AcDbLinetypeTableRecord
  2
ByLayer
 70
     0
  3

 72
    65
 73
     0
 40
0.0
  0
LTYPE
  5
16
330
5
100
AcDbSymbolTableRecord
100
AcDbLinetypeTableRecord
  2
Continuous
 70
     0
  3
Solid line
 72
    65
 73
     0
 40
0.0
  0
LTYPE
  5
6E
330
5
100
AcDbSymbolTableRecord
100
AcDbLinetypeTableRecord
  2
HIDDEN
 70
     0
  3
Hidden __ __ __ __ __ __ __ __ __ __ __ __ __ __
 72
    65
 73
     2
 40
1.905
 49
1.27
 74
     0
 49
-0.635
 74
     0
  0
LTYPE
  5
6F
330
5
100
AcDbSymbolTableRecord
100
AcDbLinetypeTableRecord
  2
PHANTOM
 70
     0
  3
Phantom ______  __  __  ______  __  __  ______
 72
    65
 73
     6
 40
12.7
 49
6.35
 74
     0
 49
-1.27
 74
     0
 49
1.27
 74
     0
 49
-1.27
 74
     0
 49
1.27
 74
     0
 49
-1.27
 74
     0
  0
LTYPE
  5
70
330
5
100
AcDbSymbolTableRecord
100
AcDbLinetypeTableRecord
  2
CENTER
 70
     0
  3
Center ____ _ ____ _ ____ _ ____ _ ____ _ ____
 72
    65
 73
     4
 40
10.16
 49
6.35
 74
     0
 49
-1.27
 74
     0
 49
1.27
 74
     0
 49
-1.27
 74
     0
  0
LTYPE
  5
71
330
5
100
AcDbSymbolTableRecord
100
AcDbLinetypeTableRecord
  2
CENTERX2
 70
     0
  3
Center (2x) ________  __  ________  __  _____
 72
    65
 73
     4
 40
20.32
 49
12.7
 74
     0
 49
-2.54
 74
     0
 49
2.54
 74
     0
 49
-2.54
 74
     0
  0
LTYPE
  5
72
330
5
100
AcDbSymbolTableRecord
100
AcDbLinetypeTableRecord
  2
DOT2
 70
     0
  3
Dot (.5x) ........................................
 72
    65
 73
     2
 40
0.635
 49
0.0
 74
     0
 49
-0.635
 74
     0
  0
ENDTAB
  0
TABLE
  2
LAYER
  5
2
330
0
100
AcDbSymbolTable
 70
     6
  0
LAYER
  5
10
330
2
100
AcDbSymbolTableRecord
100
AcDbLayerTableRecord
  2
0
 70
     0
 62
     7
  6
Continuous
370
    -3
390
F
  0
LAYER
  5
73
330
2
100
AcDbSymbolTableRecord
100
AcDbLayerTableRecord
  2
SLD-0
 70
     0
 62
   179
  6
Continuous
370
    -3
390
F
  0
LAYER
  5
74
330
2
100
AcDbSymbolTableRecord
100
AcDbLayerTableRecord
  2
1
 70
     0
 62
   179
  6
Continuous
370
    -3
390
F
  0
LAYER
  5
75
330
2
100
AcDbSymbolTableRecord
100
AcDbLayerTableRecord
  2
FORMAT
 70
     0
 62
     7
  6
Continuous
370
    -3
390
F
  0
LAYER
  5
76
330
2
100
AcDbSymbolTableRecord
100
AcDbLayerTableRecord
  2
注記
 70
     0
 62
   190
  6
Continuous
370
    -3
390
F
  0
LAYER
  5
77
330
2
100
AcDbSymbolTableRecord
100
AcDbLayerTableRecord
  2
寸法
 70
     0
 62
    96
  6
Continuous
370
    -3
390
F
  0
ENDTAB
  0
TABLE
  2
STYLE
  5
3
330
0
100
AcDbSymbolTable
 70
     2
  0
STYLE
  5
11
330
3
100
AcDbSymbolTableRecord
100
AcDbTextStyleTableRecord
  2
Standard
 70
     0
 40
0.0
 41
1.0
 50
0.0
 71
     0
 42
3.5277777778
  3
txt
  4
bigfont
  0
STYLE
  5
7F
330
3
100
AcDbSymbolTableRecord
100
AcDbTextStyleTableRecord
  2
SLDTEXTSTYLE0
 70
     0
 40
0.0
 41
0.7
 50
0.0
 71
     0
 42
3.5277777778
  3
TXT
  4
bigfont
  0
ENDTAB
  0
TABLE
  2
VIEW
  5
6
330
0
100
AcDbSymbolTable
 70
     0
  0
ENDTAB
  0
TABLE
  2
UCS
  5
7
330
0
100
AcDbSymbolTable
 70
     0
  0
ENDTAB
  0
TABLE
  2
APPID
  5
9
330
0
100
AcDbSymbolTable
 70
     1
  0
APPID
  5
12
330
9
100
AcDbSymbolTableRecord
100
AcDbRegAppTableRecord
  2
ACAD
 70
     0
  0
ENDTAB
  0
TABLE
  2
DIMSTYLE
  5
A
330
0
100
AcDbSymbolTable
 70
     1
100
AcDbDimStyleTable
  0
DIMSTYLE
105
27
330
A
100
AcDbSymbolTableRecord
100
AcDbDimStyleTableRecord
  2
ISO-25
 70
     0
 41
2.5
 42
0.625
 43
3.75
 44
1.25
 73
     0
 74
     0
 77
     1
 78
     8
140
2.5
141
2.5
143
0.0393700787
147
0.625
171
     3
172
     1
178
     0
271
     2
272
     2
274
     3
278
    44
283
     0
284
     8
340
11
  0
ENDTAB
  0
TABLE
  2
BLOCK_RECORD
  5
1
330
0
100
AcDbSymbolTable
 70
    10
  0
BLOCK_RECORD
  5
1F
330
1
100
AcDbSymbolTableRecord
100
AcDbBlockTableRecord
  2
*Model_Space
340
22
  0
BLOCK_RECORD
  5
1B
330
1
100
AcDbSymbolTableRecord
100
AcDbBlockTableRecord
  2
*Paper_Space
340
1E
  0
BLOCK_RECORD
  5
23
330
1
100
AcDbSymbolTableRecord
100
AcDbBlockTableRecord
  2
*Paper_Space0
340
26
  0
BLOCK_RECORD
  5
78
330
1
100
AcDbSymbolTableRecord
100
AcDbBlockTableRecord
  2
SW_NOTE_0
340
0
102
{BLKREFS
331
89
102
}
  0
BLOCK_RECORD
  5
CD
330
1
100
AcDbSymbolTableRecord
100
AcDbBlockTableRecord
  2
SW_CENTERMARKSYMBOL_0
340
0
102
{BLKREFS
331
138
102
}
  0
BLOCK_RECORD
  5
139
330
1
100
AcDbSymbolTableRecord
100
AcDbBlockTableRecord
  2
SW_CENTERMARKSYMBOL_1
340
0
102
{BLKREFS
331
166
102
}
  0
BLOCK_RECORD
  5
167
330
1
100
AcDbSymbolTableRecord
100
AcDbBlockTableRecord
  2
SW_CENTERMARKSYMBOL_2
340
0
102
{BLKREFS
331
172
102
}
  0
BLOCK_RECORD
  5
355
330
1
100
AcDbSymbolTableRecord
100
AcDbBlockTableRecord
  2
SW_NOTE_1
340
0
102
{BLKREFS
331
35A
102
}
  0
BLOCK_RECORD
  5
35B
330
1
100
AcDbSymbolTableRecord
100
AcDbBlockTableRecord
  2
SW_CENTERMARKSYMBOL_3
340
0
102
{BLKREFS
331
3B2
102
}
  0
BLOCK_RECORD
  5
3B3
330
1
100
AcDbSymbolTableRecord
100
AcDbBlockTableRecord
  2
SW_CENTERMARKSYMBOL_4
340
0
102
{BLKREFS
331
3FC
102
}
  0
BLOCK_RECORD
  5
3FD
330
1
100
AcDbSymbolTableRecord
100
AcDbBlockTableRecord
  2
SW_CENTERMARKSYMBOL_5
340
0
102
{BLKREFS
331
408
102
}
  0
BLOCK_RECORD
  5
409
330
1
100
AcDbSymbolTableRecord
100
AcDbBlockTableRecord
  2
SW_CENTERMARKSYMBOL_6
340
0
102
{BLKREFS
331
474
102
}
  0
ENDTAB
  0
ENDSEC
  0
SECTION
  2
BLOCKS
  0
BLOCK
  5
20
330
1F
100
AcDbEntity
  8
0
100
AcDbBlockBegin
  2
*Model_Space
 70
     0
 10
0.0
 20
0.0
 30
0.0
  3
*Model_Space
  1

  0
ENDBLK
  5
21
330
1F
100
AcDbEntity
  8
0
100
AcDbBlockEnd
  0
BLOCK
  5
1C
330
1B
100
AcDbEntity
 67
     1
  8
0
100
AcDbBlockBegin
  2
*Paper_Space
 70
     0
 10
0.0
 20
0.0
 30
0.0
  3
*Paper_Space
  1

  0
ENDBLK
  5
1D
330
1B
100
AcDbEntity
 67
     1
  8
0
100
AcDbBlockEnd
  0
BLOCK
  5
24
330
23
100
AcDbEntity
  8
0
100
AcDbBlockBegin
  2
*Paper_Space0
 70
     0
 10
0.0
 20
0.0
 30
0.0
  3
*Paper_Space0
  1

  0
ENDBLK
  5
25
330
23
100
AcDbEntity
  8
0
100
AcDbBlockEnd
  0
BLOCK
  5
79
330
78
100
AcDbEntity
  8
0
100
AcDbBlockBegin
  2
SW_NOTE_0
 70
     0
 10
0.0
 20
0.0
 30
0.0
  3
SW_NOTE_0
  1

  0
ARC
  5
7B
330
78
100
AcDbEntity
  8
注記
 62
     0
100
AcDbCircle
 10
-0.0926266172
 20
-18.1041358696
 30
0.0
 40
22.63710618436407
100
AcDbArc
 50
90.0
 51
270.0
  0
ARC
  5
7C
330
78
100
AcDbEntity
  8
注記
 62
     0
100
AcDbCircle
 10
99.9073733828
 20
-18.1041358696
 30
0.0
 40
22.63710618436407
100
AcDbArc
 50
270.0
 51
90.0
  0
LINE
  5
7D
330
78
100
AcDbEntity
  8
注記
 62
     0
100
AcDbLine
 10
-0.0926266172
 20
4.5329703147
 30
0.0
 11
99.9073733828
 21
4.5329703147
 31
0.0
  0
LINE
  5
7E
330
78
100
AcDbEntity
  8
注記
 62
     0
100
AcDbLine
 10
99.9073733828
 20
-40.741242054
 30
0.0
 11
-0.0926266172
 21
-40.741242054
 31
0.0
  0
MTEXT
  5
80
330
78
100
AcDbEntity
  8
注記
 62
     0
100
AcDbMText
 10
0.0
 20
3.4106583948
 30
0.0
 40
2.6458333333
 41
0.0
 71
     1
 72
     1
  1
The reference drawing
  7
SLDTEXTSTYLE0
 73
     1
 44
1.0
  0
MTEXT
  5
81
330
78
100
AcDbEntity
  8
注記
 62
     0
100
AcDbMText
 10
0.0
 20
-1.1171195042
 30
0.0
 40
2.6458333333
 41
0.0
 71
     1
 72
     1
  1
All speciffcations and dimensions mentioned in the drawing are
  7
SLDTEXTSTYLE0
 73
     1
 44
1.0
  0
MTEXT
  5
82
330
78
100
AcDbEntity
  8
注記
 62
     0
100
AcDbMText
 10
0.0
 20
-5.6448974033
 30
0.0
 40
2.6458333333
 41
0.0
 71
     1
 72
     1
  1
subject to change without notification.
  7
SLDTEXTSTYLE0
 73
     1
 44
1.0
  0
MTEXT
  5
83
330
78
100
AcDbEntity
  8
注記
 62
     0
100
AcDbMText
 10
0.0
 20
-10.1726753024
 30
0.0
 40
2.6458333333
 41
0.0
 71
     1
 72
     1
  1
This drawing itself is also a property of Harmonic Drive systems,Inc.
  7
SLDTEXTSTYLE0
 73
     1
 44
1.0
  0
MTEXT
  5
84
330
78
100
AcDbEntity
  8
注記
 62
     0
100
AcDbMText
 10
0.0
 20
-19.2282311005
 30
0.0
 40
2.6458333333
 41
0.0
 71
     1
 72
     1
  1
Harmonic Drive Systems,Inc.
  7
SLDTEXTSTYLE0
 73
     1
 44
1.0
  0
MTEXT
  5
85
330
78
100
AcDbEntity
  8
注記
 62
     0
100
AcDbMText
 10
0.0
 20
-23.7560089995
 30
0.0
 40
2.6458333333
 41
0.0
 71
     1
 72
     1
  1
Minamiohi 6-25-3 Shinagawa-ku Tokyo 140-0013
  7
SLDTEXTSTYLE0
 73
     1
 44
1.0
  0
MTEXT
  5
86
330
78
100
AcDbEntity
  8
注記
 62
     0
100
AcDbMText
 10
0.0
 20
-28.2837868986
 30
0.0
 40
2.6458333333
 41
0.0
 71
     1
 72
     1
  1
Japan
  7
SLDTEXTSTYLE0
 73
     1
 44
1.0
  0
MTEXT
  5
87
330
78
100
AcDbEntity
  8
注記
 62
     0
100
AcDbMText
 10
0.0
 20
-32.8115647976
 30
0.0
 40
2.6458333333
 41
0.0
 71
     1
 72
     1
  1
Tel. 03-5471-7800 / Fax. 03-5471-7811
  7
SLDTEXTSTYLE0
 73
     1
 44
1.0
  0
MTEXT
  5
88
330
78
100
AcDbEntity
  8
注記
 62
     0
100
AcDbMText
 10
0.0
 20
-37.3393426967
 30
0.0
 40
2.6458333333
 41
0.0
 71
     1
 72
     1
  1
http://www.hds.co.jp
  7
SLDTEXTSTYLE0
 73
     1
 44
1.0
  0
ENDBLK
  5
7A
330
78
100
AcDbEntity
  8
0
100
AcDbBlockEnd
  0
BLOCK
  5
CE
330
CD
100
AcDbEntity
  8
0
100
AcDbBlockBegin
  2
SW_CENTERMARKSYMBOL_0
 70
     0
 10
0.0
 20
0.0
 30
0.0
  3
SW_CENTERMARKSYMBOL_0
  1

  0
ARC
  5
D0
330
CD
100
AcDbEntity
  8
0
  6
Continuous
 62
     0
370
     0
100
AcDbCircle
 10
0.0
 20
-51.0
 30
0.0
 40
50.99999999999957
100
AcDbArc
 50
90.0
 51
94.4937866285
  0
ARC
  5
D1
330
CD
100
AcDbEntity
  8
0
  6
Continuous
 62
     0
370
     0
100
AcDbCircle
 10
0.0
 20
-51.0
 30
0.0
 40
50.99999999999957
100
AcDbArc
 50
85.5062133715
 51
90.0
  0
ARC
  5
D2
330
CD
100
AcDbEntity
  8
0
  6
Continuous
 62
     0
370
     0
100
AcDbCircle
 10
0.0
 20
-51.0
 30
0.0
 40
50.99999999999955
100
AcDbArc
 50
75.0
 51
79.4937866285
  0
ARC
  5
D3
330
CD
100
AcDbEntity
  8
0
  6
Continuous
 62
     0
370
     0
100
AcDbCircle
 10
0.0
 20
-51.0
 30
0.0
 40
50.99999999999957
100
AcDbArc
 50
70.5062133715
 51
75.0
  0
ARC
  5
D4
330
CD
100
AcDbEntity
  8
0
  6
Continuous
 62
     0
370
     0
100
AcDbCircle
 10
0.0
 20
-51.0
 30
0.0
 40
50.99999999999958
100
AcDbArc
 50
60.0
 51
64.4937866285
  0
ARC
  5
D5
330
CD
100
AcDbEntity
  8
0
  6
Continuous
 62
     0
370
     0
100
AcDbCircle
 10
0.0
 20
-51.0
 30
0.0
 40
50.99999999999957
100
AcDbArc
 50
55.5062133715
 51
60.0
  0
ARC
  5
D6
330
CD
100
AcDbEntity
  8
0
  6
Continuous
 62
     0
370
     0
100
AcDbCircle
 10
0.0
 20
-51.0
 30
0.0
 40
50.99999999999976
100
AcDbArc
 50
30.0
 51
34.4937866285
  0
ARC
  5
D7
330
CD
100
AcDbEntity
  8
0
  6
Continuous
 62
     0
370
     0
100
AcDbCircle
 10
0.0
 20
-51.0
 30
0.0
 40
50.99999999999974
100
AcDbArc
 50
25.5062133715
 51
30.0
  0
ARC
  5
D8
330
CD
100
AcDbEntity
  8
0
  6
Continuous
 62
     0
370
     0
100
AcDbCircle
 10
0.0
 20
-51.0
 30
0.0
 40
50.99999999999996
100
AcDbArc
 50
0.0
 51
4.4937866285
  0
ARC
  5
D9
330
CD
100
AcDbEntity
  8
0
  6
Continuous
 62
     0
370
     0
100
AcDbCircle
 10
0.0
 20
-51.0
 30
0.0
 40
50.99999999999994
100
AcDbArc
 50
355.5062133715
 51
0.0
  0
ARC
  5
DA
330
CD
100
AcDbEntity
  8
0
  6
Continuous
 62
     0
370
     0
100
AcDbCircle
 10
0.0
 20
-51.0
 30
0.0
 40
51.00000000000008
100
AcDbArc
 50
345.0
 51
349.4937866285
  0
ARC
  5
DB
330
CD
100
AcDbEntity
  8
0
  6
Continuous
 62
     0
370
     0
100
AcDbCircle
 10
0.0
 20
-51.0
 30
0.0
 40
51.00000000000008
100
AcDbArc
 50
340.5062133715
 51
345.0
  0
ARC
  5
DC
330
CD
100
AcDbEntity
  8
0
  6
Continuous
 62
     0
370
     0
100
AcDbCircle
 10
0.0
 20
-51.0
 30
0.0
 40
51.00000000000017
100
AcDbArc
 50
330.0
 51
334.4937866285
  0
ARC
  5
DD
330
CD
100
AcDbEntity
  8
0
  6
Continuous
 62
     0
370
     0
100
AcDbCircle
 10
0.0
 20
-51.0
 30
0.0
 40
51.00000000000016
100
AcDbArc
 50
325.5062133715
 51
330.0
  0
ARC
  5
DE
330
CD
100
AcDbEntity
  8
0
  6
Continuous
 62
     0
370
     0
100
AcDbCircle
 10
0.0
 20
-51.0
 30
0.0
 40
51.00000000000038
100
AcDbArc
 50
300.0
 51
304.4937866285
  0
ARC
  5
DF
330
CD
100
AcDbEntity
  8
0
  6
Continuous
 62
     0
370
     0
100
AcDbCircle
 10
0.0
 20
-51.0
 30
0.0
 40
51.00000000000036
100
AcDbArc
 50
295.5062133715
 51
300.0
  0
ARC
  5
E0
330
CD
100
AcDbEntity
  8
0
  6
Continuous
 62
     0
370
     0
100
AcDbCircle
 10
0.0
 20
-51.0
 30
0.0
 40
51.00000000000045
100
AcDbArc
 50
270.0
 51
274.4937866285
  0
ARC
  5
E1
330
CD
100
AcDbEntity
  8
0
  6
Continuous
 62
     0
370
     0
100
AcDbCircle
 10
0.0
 20
-51.0
 30
0.0
 40
51.00000000000044
100
AcDbArc
 50
265.5062133715
 51
270.0
  0
ARC
  5
E2
330
CD
100
AcDbEntity
  8
0
  6
Continuous
 62
     0
370
     0
100
AcDbCircle
 10
0.0
 20
-51.0
 30
0.0
 40
51.00000000000046
100
AcDbArc
 50
255.0
 51
259.4937866285
  0
ARC
  5
E3
330
CD
100
AcDbEntity
  8
0
  6
Continuous
 62
     0
370
     0
100
AcDbCircle
 10
0.0
 20
-51.0
 30
0.0
 40
51.00000000000045
100
AcDbArc
 50
250.5062133715
 51
255.0
  0
ARC
  5
E4
330
CD
100
AcDbEntity
  8
0
  6
Continuous
 62
     0
370
     0
100
AcDbCircle
 10
0.0
 20
-51.0
 30
0.0
 40
51.00000000000042
100
AcDbArc
 50
240.0
 51
244.4937866285
  0
ARC
  5
E5
330
CD
100
AcDbEntity
  8
0
  6
Continuous
 62
     0
370
     0
100
AcDbCircle
 10
0.0
 20
-51.0
 30
0.0
 40
51.00000000000043
100
AcDbArc
 50
235.5062133715
 51
240.0
  0
ARC
  5
E6
330
CD
100
AcDbEntity
  8
0
  6
Continuous
 62
     0
370
     0
100
AcDbCircle
 10
0.0
 20
-51.0
 30
0.0
 40
51.00000000000027
100
AcDbArc
 50
210.0
 51
214.4937866285
  0
ARC
  5
E7
330
CD
100
AcDbEntity
  8
0
  6
Continuous
 62
     0
370
     0
100
AcDbCircle
 10
0.0
 20
-51.0
 30
0.0
 40
51.00000000000027
100
AcDbArc
 50
205.5062133715
 51
210.0
  0
ARC
  5
E8
330
CD
100
AcDbEntity
  8
0
  6
Continuous
 62
     0
370
     0
100
AcDbCircle
 10
0.0
 20
-51.0
 30
0.0
 40
51.00000000000006
100
AcDbArc
 50
180.0
 51
184.4937866285
  0
ARC
  5
E9
330
CD
100
AcDbEntity
  8
0
  6
Continuous
 62
     0
370
     0
100
AcDbCircle
 10
0.0
 20
-51.0
 30
0.0
 40
51.00000000000008
100
AcDbArc
 50
175.5062133715
 51
180.0
  0
ARC
  5
EA
330
CD
100
AcDbEntity
  8
0
  6
Continuous
 62
     0
370
     0
100
AcDbCircle
 10
0.0
 20
-51.0
 30
0.0
 40
50.99999999999996
100
AcDbArc
 50
165.0
 51
169.4937866285
  0
ARC
  5
EB
330
CD
100
AcDbEntity
  8
0
  6
Continuous
 62
     0
370
     0
100
AcDbCircle
 10
0.0
 20
-51.0
 30
0.0
 40
50.99999999999995
100
AcDbArc
 50
160.5062133715
 51
165.0
  0
ARC
  5
EC
330
CD
100
AcDbEntity
  8
0
  6
Continuous
 62
     0
370
     0
100
AcDbCircle
 10
0.0
 20
-51.0
 30
0.0
 40
50.99999999999982
100
AcDbArc
 50
150.0
 51
154.4937866285
  0
ARC
  5
ED
330
CD
100
AcDbEntity
  8
0
  6
Continuous
 62
     0
370
     0
100
AcDbCircle
 10
0.0
 20
-51.0
 30
0.0
 40
50.99999999999984
100
AcDbArc
 50
145.5062133715
 51
150.0
  0
ARC
  5
EE
330
CD
100
AcDbEntity
  8
0
  6
Continuous
 62
     0
370
     0
100
AcDbCircle
 10
0.0
 20
-51.0
 30
0.0
 40
50.99999999999966
100
AcDbArc
 50
120.0
 51
124.4937866285
  0
ARC
  5
EF
330
CD
100
AcDbEntity
  8
0
  6
Continuous
 62
     0
370
     0
100
AcDbCircle
 10
0.0
 20
-51.0
 30
0.0
 40
50.99999999999965
100
AcDbArc
 50
115.5062133715
 51
120.0
  0
ARC
  5
F0
330
CD
100
AcDbEntity
  8
0
  6
CENTERX2
 62
     0
370
     0
100
AcDbCircle
 10
0.0
 20
-51.0
 30
0.0
 40
50.99999999999994
100
AcDbArc
 50
8.987573257
 51
21.012426743
  0
ARC
  5
F1
330
CD
100
AcDbEntity
  8
0
  6
CENTERX2
 62
     0
370
     0
100
AcDbCircle
 10
0.0
 20
-51.0
 30
0.0
 40
50.99999999999972
100
AcDbArc
 50
38.987573257
 51
51.012426743
  0
ARC
  5
F2
330
CD
100
AcDbEntity
  8
0
  6
CENTERX2
 62
     0
370
     0
100
AcDbCircle
 10
0.0
 20
-51.0
 30
0.0
 40
50.99999999999966
100
AcDbArc
 50
98.987573257
 51
111.012426743
  0
ARC
  5
F3
330
CD
100
AcDbEntity
  8
0
  6
CENTERX2
 62
     0
370
     0
100
AcDbCircle
 10
0.0
 20
-51.0
 30
0.0
 40
50.99999999999982
100
AcDbArc
 50
128.987573257
 51
141.012426743
  0
ARC
  5
F4
330
CD
100
AcDbEntity
  8
0
  6
CENTERX2
 62
     0
370
     0
100
AcDbCircle
 10
0.0
 20
-51.0
 30
0.0
 40
51.00000000000029
100
AcDbArc
 50
188.987573257
 51
201.012426743
  0
ARC
  5
F5
330
CD
100
AcDbEntity
  8
0
  6
CENTERX2
 62
     0
370
     0
100
AcDbCircle
 10
0.0
 20
-51.0
 30
0.0
 40
51.0000000000004
100
AcDbArc
 50
218.987573257
 51
231.012426743
  0
ARC
  5
F6
330
CD
100
AcDbEntity
  8
0
  6
CENTERX2
 62
     0
370
     0
100
AcDbCircle
 10
0.0
 20
-51.0
 30
0.0
 40
51.00000000000045
100
AcDbArc
 50
278.987573257
 51
291.012426743
  0
ARC
  5
F7
330
CD
100
AcDbEntity
  8
0
  6
CENTERX2
 62
     0
370
     0
100
AcDbCircle
 10
0.0
 20
-51.0
 30
0.0
 40
51.00000000000036
100
AcDbArc
 50
308.987573257
 51
321.012426743
  0
LINE
  5
F8
330
CD
100
AcDbEntity
  8
0
  6
Continuous
 62
     0
370
     0
100
AcDbLine
 10
0.0
 20
0.0
 30
0.0
 11
0.0
 21
4.0
 31
0.0
  0
LINE
  5
F9
330
CD
100
AcDbEntity
  8
0
  6
Continuous
 62
     0
370
     0
100
AcDbLine
 10
0.0
 20
0.0
 30
0.0
 11
0.0
 21
-4.0
 31
0.0
  0
LINE
  5
FA
330
CD
100
AcDbEntity
  8
0
  6
Continuous
 62
     0
370
     0
100
AcDbLine
 10
0.0
 20
4.0
 30
0.0
 11
0.0
 21
6.25
 31
0.0
  0
LINE
  5
FB
330
CD
100
AcDbEntity
  8
0
  6
Continuous
 62
     0
370
     0
100
AcDbLine
 10
0.0
 20
-4.0
 30
0.0
 11
0.0
 21
-6.25
 31
0.0
  0
LINE
  5
FC
330
CD
100
AcDbEntity
  8
0
  6
Continuous
 62
     0
370
     0
100
AcDbLine
 10
13.1997713002
 20
-1.7377828593
 30
0.0
 11
14.2350474806
 21
2.1259204459
 31
0.0
  0
LINE
  5
FD
330
CD
100
AcDbEntity
  8
0
  6
Continuous
 62
     0
370
     0
100
AcDbLine
 10
13.1997713002
 20
-1.7377828593
 30
0.0
 11
12.1644951198
 21
-5.6014861644
 31
0.0
  0
LINE
  5
FE
330
CD
100
AcDbEntity
  8
0
  6
Continuous
 62
     0
370
     0
100
AcDbLine
 10
14.2350474806
 20
2.1259204459
 30
0.0
 11
14.8820950934
 21
4.5407350116
 31
0.0
  0
LINE
  5
FF
330
CD
100
AcDbEntity
  8
0
  6
Continuous
 62
     0
370
     0
100
AcDbLine
 10
12.1644951198
 20
-5.6014861644
 30
0.0
 11
11.5174475071
 21
-8.0163007301
 31
0.0
  0
LINE
  5
100
330
CD
100
AcDbEntity
  8
0
  6
Continuous
 62
     0
370
     0
100
AcDbLine
 10
25.5
 20
-6.832704407
 30
0.0
 11
27.5
 21
-3.3686027919
 31
0.0
  0
LINE
  5
101
330
CD
100
AcDbEntity
  8
0
  6
Continuous
 62
     0
370
     0
100
AcDbLine
 10
25.5
 20
-6.832704407
 30
0.0
 11
23.5
 21
-10.2968060221
 31
0.0
  0
LINE
  5
102
330
CD
100
AcDbEntity
  8
0
  6
Continuous
 62
     0
370
     0
100
AcDbLine
 10
27.5
 20
-3.3686027919
 30
0.0
 11
28.625
 21
-1.4200456333
 31
0.0
  0
LINE
  5
103
330
CD
100
AcDbEntity
  8
0
  6
Continuous
 62
     0
370
     0
100
AcDbLine
 10
23.5
 20
-10.2968060221
 30
0.0
 11
22.375
 21
-12.2453631806
 31
0.0
  0
LINE
  5
104
330
CD
100
AcDbEntity
  8
0
  6
Continuous
 62
     0
370
     0
100
AcDbLine
 10
44.167295593
 20
-25.5
 30
0.0
 11
47.6313972081
 21
-23.5
 31
0.0
  0
LINE
  5
105
330
CD
100
AcDbEntity
  8
0
  6
Continuous
 62
     0
370
     0
100
AcDbLine
 10
44.167295593
 20
-25.5
 30
0.0
 11
40.7031939779
 21
-27.5
 31
0.0
  0
LINE
  5
106
330
CD
100
AcDbEntity
  8
0
  6
Continuous
 62
     0
370
     0
100
AcDbLine
 10
47.6313972081
 20
-23.5
 30
0.0
 11
49.5799543667
 21
-22.375
 31
0.0
  0
LINE
  5
107
330
CD
100
AcDbEntity
  8
0
  6
Continuous
 62
     0
370
     0
100
AcDbLine
 10
40.7031939779
 20
-27.5
 30
0.0
 11
38.7546368194
 21
-28.625
 31
0.0
  0
LINE
  5
108
330
CD
100
AcDbEntity
  8
0
  6
Continuous
 62
     0
370
     0
100
AcDbLine
 10
51.0
 20
-51.0
 30
0.0
 11
55.0
 21
-51.0
 31
0.0
  0
LINE
  5
109
330
CD
100
AcDbEntity
  8
0
  6
Continuous
 62
     0
370
     0
100
AcDbLine
 10
51.0
 20
-51.0
 30
0.0
 11
47.0
 21
-51.0
 31
0.0
  0
LINE
  5
10A
330
CD
100
AcDbEntity
  8
0
  6
Continuous
 62
     0
370
     0
100
AcDbLine
 10
55.0
 20
-51.0
 30
0.0
 11
57.25
 21
-51.0
 31
0.0
  0
LINE
  5
10B
330
CD
100
AcDbEntity
  8
0
  6
Continuous
 62
     0
370
     0
100
AcDbLine
 10
47.0
 20
-51.0
 30
0.0
 11
44.75
 21
-51.0
 31
0.0
  0
LINE
  5
10C
330
CD
100
AcDbEntity
  8
0
  6
Continuous
 62
     0
370
     0
100
AcDbLine
 10
49.2622171407
 20
-64.1997713002
 30
0.0
 11
53.1259204459
 21
-65.2350474806
 31
0.0
  0
LINE
  5
10D
330
CD
100
AcDbEntity
  8
0
  6
Continuous
 62
     0
370
     0
100
AcDbLine
 10
49.2622171407
 20
-64.1997713002
 30
0.0
 11
45.3985138356
 21
-63.1644951198
 31
0.0
  0
LINE
  5
10E
330
CD
100
AcDbEntity
  8
0
  6
Continuous
 62
     0
370
     0
100
AcDbLine
 10
53.1259204459
 20
-65.2350474806
 30
0.0
 11
55.5407350116
 21
-65.8820950934
 31
0.0
  0
LINE
  5
10F
330
CD
100
AcDbEntity
  8
0
  6
Continuous
 62
     0
370
     0
100
AcDbLine
 10
45.3985138356
 20
-63.1644951198
 30
0.0
 11
42.9836992699
 21
-62.5174475071
 31
0.0
  0
LINE
  5
110
330
CD
100
AcDbEntity
  8
0
  6
Continuous
 62
     0
370
     0
100
AcDbLine
 10
44.167295593
 20
-76.5
 30
0.0
 11
47.6313972081
 21
-78.5
 31
0.0
  0
LINE
  5
111
330
CD
100
AcDbEntity
  8
0
  6
Continuous
 62
     0
370
     0
100
AcDbLine
 10
44.167295593
 20
-76.5
 30
0.0
 11
40.7031939779
 21
-74.5
 31
0.0
  0
LINE
  5
112
330
CD
100
AcDbEntity
  8
0
  6
Continuous
 62
     0
370
     0
100
AcDbLine
 10
47.6313972081
 20
-78.5
 30
0.0
 11
49.5799543667
 21
-79.625
 31
0.0
  0
LINE
  5
113
330
CD
100
AcDbEntity
  8
0
  6
Continuous
 62
     0
370
     0
100
AcDbLine
 10
40.7031939779
 20
-74.5
 30
0.0
 11
38.7546368194
 21
-73.375
 31
0.0
  0
LINE
  5
114
330
CD
100
AcDbEntity
  8
0
  6
Continuous
 62
     0
370
     0
100
AcDbLine
 10
25.5
 20
-95.167295593
 30
0.0
 11
27.5
 21
-98.6313972081
 31
0.0
  0
LINE
  5
115
330
CD
100
AcDbEntity
  8
0
  6
Continuous
 62
     0
370
     0
100
AcDbLine
 10
25.5
 20
-95.167295593
 30
0.0
 11
23.5
 21
-91.7031939779
 31
0.0
  0
LINE
  5
116
330
CD
100
AcDbEntity
  8
0
  6
Continuous
 62
     0
370
     0
100
AcDbLine
 10
27.5
 20
-98.6313972081
 30
0.0
 11
28.625
 21
-100.5799543667
 31
0.0
  0
LINE
  5
117
330
CD
100
AcDbEntity
  8
0
  6
Continuous
 62
     0
370
     0
100
AcDbLine
 10
23.5
 20
-91.7031939779
 30
0.0
 11
22.375
 21
-89.7546368194
 31
0.0
  0
LINE
  5
118
330
CD
100
AcDbEntity
  8
0
  6
Continuous
 62
     0
370
     0
100
AcDbLine
 10
0.0
 20
-102.0
 30
0.0
 11
0.0
 21
-106.0
 31
0.0
  0
LINE
  5
119
330
CD
100
AcDbEntity
  8
0
  6
Continuous
 62
     0
370
     0
100
AcDbLine
 10
0.0
 20
-102.0
 30
0.0
 11
0.0
 21
-98.0
 31
0.0
  0
LINE
  5
11A
330
CD
100
AcDbEntity
  8
0
  6
Continuous
 62
     0
370
     0
100
AcDbLine
 10
0.0
 20
-106.0
 30
0.0
 11
0.0
 21
-108.25
 31
0.0
  0
LINE
  5
11B
330
CD
100
AcDbEntity
  8
0
  6
Continuous
 62
     0
370
     0
100
AcDbLine
 10
0.0
 20
-98.0
 30
0.0
 11
0.0
 21
-95.75
 31
0.0
  0
LINE
  5
11C
330
CD
100
AcDbEntity
  8
0
  6
Continuous
 62
     0
370
     0
100
AcDbLine
 10
-13.1997713002
 20
-100.2622171407
 30
0.0
 11
-14.2350474806
 21
-104.1259204459
 31
0.0
  0
LINE
  5
11D
330
CD
100
AcDbEntity
  8
0
  6
Continuous
 62
     0
370
     0
100
AcDbLine
 10
-13.1997713002
 20
-100.2622171407
 30
0.0
 11
-12.1644951198
 21
-96.3985138356
 31
0.0
  0
LINE
  5
11E
330
CD
100
AcDbEntity
  8
0
  6
Continuous
 62
     0
370
     0
100
AcDbLine
 10
-14.2350474806
 20
-104.1259204459
 30
0.0
 11
-14.8820950934
 21
-106.5407350116
 31
0.0
  0
LINE
  5
11F
330
CD
100
AcDbEntity
  8
0
  6
Continuous
 62
     0
370
     0
100
AcDbLine
 10
-12.1644951198
 20
-96.3985138356
 30
0.0
 11
-11.5174475071
 21
-93.9836992699
 31
0.0
  0
LINE
  5
120
330
CD
100
AcDbEntity
  8
0
  6
Continuous
 62
     0
370
     0
100
AcDbLine
 10
-25.5
 20
-95.167295593
 30
0.0
 11
-27.5
 21
-98.6313972081
 31
0.0
  0
LINE
  5
121
330
CD
100
AcDbEntity
  8
0
  6
Continuous
 62
     0
370
     0
100
AcDbLine
 10
-25.5
 20
-95.167295593
 30
0.0
 11
-23.5
 21
-91.7031939779
 31
0.0
  0
LINE
  5
122
330
CD
100
AcDbEntity
  8
0
  6
Continuous
 62
     0
370
     0
100
AcDbLine
 10
-27.5
 20
-98.6313972081
 30
0.0
 11
-28.625
 21
-100.5799543667
 31
0.0
  0
LINE
  5
123
330
CD
100
AcDbEntity
  8
0
  6
Continuous
 62
     0
370
     0
100
AcDbLine
 10
-23.5
 20
-91.7031939779
 30
0.0
 11
-22.375
 21
-89.7546368194
 31
0.0
  0
LINE
  5
124
330
CD
100
AcDbEntity
  8
0
  6
Continuous
 62
     0
370
     0
100
AcDbLine
 10
-44.167295593
 20
-76.5
 30
0.0
 11
-47.6313972081
 21
-78.5
 31
0.0
  0
LINE
  5
125
330
CD
100
AcDbEntity
  8
0
  6
Continuous
 62
     0
370
     0
100
AcDbLine
 10
-44.167295593
 20
-76.5
 30
0.0
 11
-40.7031939779
 21
-74.5
 31
0.0
  0
LINE
  5
126
330
CD
100
AcDbEntity
  8
0
  6
Continuous
 62
     0
370
     0
100
AcDbLine
 10
-47.6313972081
 20
-78.5
 30
0.0
 11
-49.5799543667
 21
-79.625
 31
0.0
  0
LINE
  5
127
330
CD
100
AcDbEntity
  8
0
  6
Continuous
 62
     0
370
     0
100
AcDbLine
 10
-40.7031939779
 20
-74.5
 30
0.0
 11
-38.7546368194
 21
-73.375
 31
0.0
  0
LINE
  5
128
330
CD
100
AcDbEntity
  8
0
  6
Continuous
 62
     0
370
     0
100
AcDbLine
 10
-51.0
 20
-51.0
 30
0.0
 11
-55.0
 21
-51.0
 31
0.0
  0
LINE
  5
129
330
CD
100
AcDbEntity
  8
0
  6
Continuous
 62
     0
370
     0
100
AcDbLine
 10
-51.0
 20
-51.0
 30
0.0
 11
-47.0
 21
-51.0
 31
0.0
  0
LINE
  5
12A
330
CD
100
AcDbEntity
  8
0
  6
Continuous
 62
     0
370
     0
100
AcDbLine
 10
-55.0
 20
-51.0
 30
0.0
 11
-57.25
 21
-51.0
 31
0.0
  0
LINE
  5
12B
330
CD
100
AcDbEntity
  8
0
  6
Continuous
 62
     0
370
     0
100
AcDbLine
 10
-47.0
 20
-51.0
 30
0.0
 11
-44.75
 21
-51.0
 31
0.0
  0
LINE
  5
12C
330
CD
100
AcDbEntity
  8
0
  6
Continuous
 62
     0
370
     0
100
AcDbLine
 10
-49.2622171407
 20
-37.8002286998
 30
0.0
 11
-53.1259204459
 21
-36.7649525194
 31
0.0
  0
LINE
  5
12D
330
CD
100
AcDbEntity
  8
0
  6
Continuous
 62
     0
370
     0
100
AcDbLine
 10
-49.2622171407
 20
-37.8002286998
 30
0.0
 11
-45.3985138356
 21
-38.8355048802
 31
0.0
  0
LINE
  5
12E
330
CD
100
AcDbEntity
  8
0
  6
Continuous
 62
     0
370
     0
100
AcDbLine
 10
-53.1259204459
 20
-36.7649525194
 30
0.0
 11
-55.5407350116
 21
-36.1179049066
 31
0.0
  0
LINE
  5
12F
330
CD
100
AcDbEntity
  8
0
  6
Continuous
 62
     0
370
     0
100
AcDbLine
 10
-45.3985138356
 20
-38.8355048802
 30
0.0
 11
-42.9836992699
 21
-39.4825524929
 31
0.0
  0
LINE
  5
130
330
CD
100
AcDbEntity
  8
0
  6
Continuous
 62
     0
370
     0
100
AcDbLine
 10
-44.167295593
 20
-25.5
 30
0.0
 11
-47.6313972081
 21
-23.5
 31
0.0
  0
LINE
  5
131
330
CD
100
AcDbEntity
  8
0
  6
Continuous
 62
     0
370
     0
100
AcDbLine
 10
-44.167295593
 20
-25.5
 30
0.0
 11
-40.7031939779
 21
-27.5
 31
0.0
  0
LINE
  5
132
330
CD
100
AcDbEntity
  8
0
  6
Continuous
 62
     0
370
     0
100
AcDbLine
 10
-47.6313972081
 20
-23.5
 30
0.0
 11
-49.5799543667
 21
-22.375
 31
0.0
  0
LINE
  5
133
330
CD
100
AcDbEntity
  8
0
  6
Continuous
 62
     0
370
     0
100
AcDbLine
 10
-40.7031939779
 20
-27.5
 30
0.0
 11
-38.7546368194
 21
-28.625
 31
0.0
  0
LINE
  5
134
330
CD
100
AcDbEntity
  8
0
  6
Continuous
 62
     0
370
     0
100
AcDbLine
 10
-25.5
 20
-6.832704407
 30
0.0
 11
-27.5
 21
-3.3686027919
 31
0.0
  0
LINE
  5
135
330
CD
100
AcDbEntity
  8
0
  6
Continuous
 62
     0
370
     0
100
AcDbLine
 10
-25.5
 20
-6.832704407
 30
0.0
 11
-23.5
 21
-10.2968060221
 31
0.0
  0
LINE
  5
136
330
CD
100
AcDbEntity
  8
0
  6
Continuous
 62
     0
370
     0
100
AcDbLine
 10
-27.5
 20
-3.3686027919
 30
0.0
 11
-28.625
 21
-1.4200456333
 31
0.0
  0
LINE
  5
137
330
CD
100
AcDbEntity
  8
0
  6
Continuous
 62
     0
370
     0
100
AcDbLine
 10
-23.5
 20
-10.2968060221
 30
0.0
 11
-22.375
 21
-12.2453631806
 31
0.0
  0
ENDBLK
  5
CF
330
CD
100
AcDbEntity
  8
0
100
AcDbBlockEnd
  0
BLOCK
  5
13A
330
139
100
AcDbEntity
  8
0
100
AcDbBlockBegin
  2
SW_CENTERMARKSYMBOL_1
 70
     0
 10
0.0
 20
0.0
 30
0.0
  3
SW_CENTERMARKSYMBOL_1
  1

  0
ARC
  5
13C
330
139
100
AcDbEntity
  8
0
  6
Continuous
 62
     0
370
     0
100
AcDbCircle
 10
0.0
 20
-30.0
 30
0.0
 40
30.0
100
AcDbArc
 50
90.0
 51
97.6394372684
  0
ARC
  5
13D
330
139
100
AcDbEntity
  8
0
  6
Continuous
 62
     0
370
     0
100
AcDbCircle
 10
0.0
 20
-30.0
 30
0.0
 40
30.0
100
AcDbArc
 50
82.3605627316
 51
90.0
  0
ARC
  5
13E
330
139
100
AcDbEntity
  8
0
  6
Continuous
 62
     0
370
     0
100
AcDbCircle
 10
0.0
 20
-30.0
 30
0.0
 40
30.00000000000002
100
AcDbArc
 50
150.0
 51
157.6394372684
  0
ARC
  5
13F
330
139
100
AcDbEntity
  8
0
  6
Continuous
 62
     0
370
     0
100
AcDbCircle
 10
0.0
 20
-30.0
 30
0.0
 40
30.00000000000001
100
AcDbArc
 50
142.3605627316
 51
150.0
  0
ARC
  5
140
330
139
100
AcDbEntity
  8
0
  6
Continuous
 62
     0
370
     0
100
AcDbCircle
 10
0.0
 20
-30.0
 30
0.0
 40
30.00000000000002
100
AcDbArc
 50
210.0
 51
217.6394372684
  0
ARC
  5
141
330
139
100
AcDbEntity
  8
0
  6
Continuous
 62
     0
370
     0
100
AcDbCircle
 10
0.0
 20
-30.0
 30
0.0
 40
30.00000000000002
100
AcDbArc
 50
202.3605627316
 51
210.0
  0
ARC
  5
142
330
139
100
AcDbEntity
  8
0
  6
Continuous
 62
     0
370
     0
100
AcDbCircle
 10
0.0
 20
-30.0
 30
0.0
 40
30.0
100
AcDbArc
 50
270.0
 51
277.6394372684
  0
ARC
  5
143
330
139
100
AcDbEntity
  8
0
  6
Continuous
 62
     0
370
     0
100
AcDbCircle
 10
0.0
 20
-30.0
 30
0.0
 40
30.0
100
AcDbArc
 50
262.3605627316
 51
270.0
  0
ARC
  5
144
330
139
100
AcDbEntity
  8
0
  6
Continuous
 62
     0
370
     0
100
AcDbCircle
 10
0.0
 20
-30.0
 30
0.0
 40
30.0
100
AcDbArc
 50
330.0
 51
337.6394372684
  0
ARC
  5
145
330
139
100
AcDbEntity
  8
0
  6
Continuous
 62
     0
370
     0
100
AcDbCircle
 10
0.0
 20
-30.0
 30
0.0
 40
30.0
100
AcDbArc
 50
322.3605627316
 51
330.0
  0
ARC
  5
146
330
139
100
AcDbEntity
  8
0
  6
Continuous
 62
     0
370
     0
100
AcDbCircle
 10
0.0
 20
-30.0
 30
0.0
 40
30.00000000000001
100
AcDbArc
 50
30.0
 51
37.6394372684
  0
ARC
  5
147
330
139
100
AcDbEntity
  8
0
  6
Continuous
 62
     0
370
     0
100
AcDbCircle
 10
0.0
 20
-30.0
 30
0.0
 40
30.00000000000001
100
AcDbArc
 50
22.3605627316
 51
30.0
  0
ARC
  5
148
330
139
100
AcDbEntity
  8
0
  6
CENTERX2
 62
     0
370
     0
100
AcDbCircle
 10
0.0
 20
-30.0
 30
0.0
 40
30.00000000000001
100
AcDbArc
 50
45.2788745368
 51
74.7211254632
  0
ARC
  5
149
330
139
100
AcDbEntity
  8
0
  6
CENTERX2
 62
     0
370
     0
100
AcDbCircle
 10
0.0
 20
-30.0
 30
0.0
 40
30.00000000000001
100
AcDbArc
 50
105.2788745368
 51
134.7211254632
  0
ARC
  5
14A
330
139
100
AcDbEntity
  8
0
  6
CENTERX2
 62
     0
370
     0
100
AcDbCircle
 10
0.0
 20
-30.0
 30
0.0
 40
29.99999999999999
100
AcDbArc
 50
165.2788745368
 51
194.7211254632
  0
ARC
  5
14B
330
139
100
AcDbEntity
  8
0
  6
CENTERX2
 62
     0
370
     0
100
AcDbCircle
 10
0.0
 20
-30.0
 30
0.0
 40
30.00000000000001
100
AcDbArc
 50
225.2788745368
 51
254.7211254632
  0
ARC
  5
14C
330
139
100
AcDbEntity
  8
0
  6
CENTERX2
 62
     0
370
     0
100
AcDbCircle
 10
0.0
 20
-30.0
 30
0.0
 40
30.00000000000001
100
AcDbArc
 50
285.2788745368
 51
314.7211254632
  0
ARC
  5
14D
330
139
100
AcDbEntity
  8
0
  6
CENTERX2
 62
     0
370
     0
100
AcDbCircle
 10
0.0
 20
-30.0
 30
0.0
 40
29.99999999999999
100
AcDbArc
 50
345.2788745368
 51
14.7211254632
  0
LINE
  5
14E
330
139
100
AcDbEntity
  8
0
  6
Continuous
 62
     0
370
     0
100
AcDbLine
 10
0.0
 20
0.0
 30
0.0
 11
0.0
 21
4.0
 31
0.0
  0
LINE
  5
14F
330
139
100
AcDbEntity
  8
0
  6
Continuous
 62
     0
370
     0
100
AcDbLine
 10
0.0
 20
0.0
 30
0.0
 11
0.0
 21
-4.0
 31
0.0
  0
LINE
  5
150
330
139
100
AcDbEntity
  8
0
  6
Continuous
 62
     0
370
     0
100
AcDbLine
 10
0.0
 20
4.0
 30
0.0
 11
0.0
 21
5.25
 31
0.0
  0
LINE
  5
151
330
139
100
AcDbEntity
  8
0
  6
Continuous
 62
     0
370
     0
100
AcDbLine
 10
0.0
 20
-4.0
 30
0.0
 11
0.0
 21
-5.25
 31
0.0
  0
LINE
  5
152
330
139
100
AcDbEntity
  8
0
  6
Continuous
 62
     0
370
     0
100
AcDbLine
 10
-25.9807621135
 20
-15.0
 30
0.0
 11
-29.4448637287
 21
-13.0
 31
0.0
  0
LINE
  5
153
330
139
100
AcDbEntity
  8
0
  6
Continuous
 62
     0
370
     0
100
AcDbLine
 10
-25.9807621135
 20
-15.0
 30
0.0
 11
-22.5166604984
 21
-17.0
 31
0.0
  0
LINE
  5
154
330
139
100
AcDbEntity
  8
0
  6
Continuous
 62
     0
370
     0
100
AcDbLine
 10
-29.4448637287
 20
-13.0
 30
0.0
 11
-30.5273954834
 21
-12.375
 31
0.0
  0
LINE
  5
155
330
139
100
AcDbEntity
  8
0
  6
Continuous
 62
     0
370
     0
100
AcDbLine
 10
-22.5166604984
 20
-17.0
 30
0.0
 11
-21.4341287437
 21
-17.625
 31
0.0
  0
LINE
  5
156
330
139
100
AcDbEntity
  8
0
  6
Continuous
 62
     0
370
     0
100
AcDbLine
 10
-25.9807621135
 20
-45.0
 30
0.0
 11
-29.4448637287
 21
-47.0
 31
0.0
  0
LINE
  5
157
330
139
100
AcDbEntity
  8
0
  6
Continuous
 62
     0
370
     0
100
AcDbLine
 10
-25.9807621135
 20
-45.0
 30
0.0
 11
-22.5166604984
 21
-43.0
 31
0.0
  0
LINE
  5
158
330
139
100
AcDbEntity
  8
0
  6
Continuous
 62
     0
370
     0
100
AcDbLine
 10
-29.4448637287
 20
-47.0
 30
0.0
 11
-30.5273954834
 21
-47.625
 31
0.0
  0
LINE
  5
159
330
139
100
AcDbEntity
  8
0
  6
Continuous
 62
     0
370
     0
100
AcDbLine
 10
-22.5166604984
 20
-43.0
 30
0.0
 11
-21.4341287437
 21
-42.375
 31
0.0
  0
LINE
  5
15A
330
139
100
AcDbEntity
  8
0
  6
Continuous
 62
     0
370
     0
100
AcDbLine
 10
0.0
 20
-60.0
 30
0.0
 11
0.0
 21
-64.0
 31
0.0
  0
LINE
  5
15B
330
139
100
AcDbEntity
  8
0
  6
Continuous
 62
     0
370
     0
100
AcDbLine
 10
0.0
 20
-60.0
 30
0.0
 11
0.0
 21
-56.0
 31
0.0
  0
LINE
  5
15C
330
139
100
AcDbEntity
  8
0
  6
Continuous
 62
     0
370
     0
100
AcDbLine
 10
0.0
 20
-64.0
 30
0.0
 11
0.0
 21
-65.25
 31
0.0
  0
LINE
  5
15D
330
139
100
AcDbEntity
  8
0
  6
Continuous
 62
     0
370
     0
100
AcDbLine
 10
0.0
 20
-56.0
 30
0.0
 11
0.0
 21
-54.75
 31
0.0
  0
LINE
  5
15E
330
139
100
AcDbEntity
  8
0
  6
Continuous
 62
     0
370
     0
100
AcDbLine
 10
25.9807621135
 20
-45.0
 30
0.0
 11
29.4448637287
 21
-47.0
 31
0.0
  0
LINE
  5
15F
330
139
100
AcDbEntity
  8
0
  6
Continuous
 62
     0
370
     0
100
AcDbLine
 10
25.9807621135
 20
-45.0
 30
0.0
 11
22.5166604984
 21
-43.0
 31
0.0
  0
LINE
  5
160
330
139
100
AcDbEntity
  8
0
  6
Continuous
 62
     0
370
     0
100
AcDbLine
 10
29.4448637287
 20
-47.0
 30
0.0
 11
30.5273954834
 21
-47.625
 31
0.0
  0
LINE
  5
161
330
139
100
AcDbEntity
  8
0
  6
Continuous
 62
     0
370
     0
100
AcDbLine
 10
22.5166604984
 20
-43.0
 30
0.0
 11
21.4341287437
 21
-42.375
 31
0.0
  0
LINE
  5
162
330
139
100
AcDbEntity
  8
0
  6
Continuous
 62
     0
370
     0
100
AcDbLine
 10
25.9807621135
 20
-15.0
 30
0.0
 11
29.4448637287
 21
-13.0
 31
0.0
  0
LINE
  5
163
330
139
100
AcDbEntity
  8
0
  6
Continuous
 62
     0
370
     0
100
AcDbLine
 10
25.9807621135
 20
-15.0
 30
0.0
 11
22.5166604984
 21
-17.0
 31
0.0
  0
LINE
  5
164
330
139
100
AcDbEntity
  8
0
  6
Continuous
 62
     0
370
     0
100
AcDbLine
 10
29.4448637287
 20
-13.0
 30
0.0
 11
30.5273954834
 21
-12.375
 31
0.0
  0
LINE
  5
165
330
139
100
AcDbEntity
  8
0
  6
Continuous
 62
     0
370
     0
100
AcDbLine
 10
22.5166604984
 20
-17.0
 30
0.0
 11
21.4341287437
 21
-17.625
 31
0.0
  0
ENDBLK
  5
13B
330
139
100
AcDbEntity
  8
0
100
AcDbBlockEnd
  0
BLOCK
  5
168
330
167
100
AcDbEntity
  8
0
100
AcDbBlockBegin
  2
SW_CENTERMARKSYMBOL_2
 70
     0
 10
0.0
 20
0.0
 30
0.0
  3
SW_CENTERMARKSYMBOL_2
  1

  0
LINE
  5
16A
330
167
100
AcDbEntity
  8
0
  6
Continuous
 62
     0
370
     0
100
AcDbLine
 10
0.0
 20
0.0
 30
0.0
 11
0.0
 21
4.0
 31
0.0
  0
LINE
  5
16B
330
167
100
AcDbEntity
  8
0
  6
Continuous
 62
     0
370
     0
100
AcDbLine
 10
0.0
 20
0.0
 30
0.0
 11
-4.0
 21
0.0
 31
0.0
  0
LINE
  5
16C
330
167
100
AcDbEntity
  8
0
  6
Continuous
 62
     0
370
     0
100
AcDbLine
 10
0.0
 20
0.0
 30
0.0
 11
0.0
 21
-4.0
 31
0.0
  0
LINE
  5
16D
330
167
100
AcDbEntity
  8
0
  6
Continuous
 62
     0
370
     0
100
AcDbLine
 10
0.0
 20
0.0
 30
0.0
 11
4.0
 21
0.0
 31
0.0
  0
LINE
  5
16E
330
167
100
AcDbEntity
  8
0
  6
Continuous
 62
     0
370
     0
100
AcDbLine
 10
0.0
 20
8.0
 30
0.0
 11
0.0
 21
60.5
 31
0.0
  0
LINE
  5
16F
330
167
100
AcDbEntity
  8
0
  6
Continuous
 62
     0
370
     0
100
AcDbLine
 10
-8.0
 20
0.0
 30
0.0
 11
-60.5
 21
0.0
 31
0.0
  0
LINE
  5
170
330
167
100
AcDbEntity
  8
0
  6
Continuous
 62
     0
370
     0
100
AcDbLine
 10
0.0
 20
-8.0
 30
0.0
 11
0.0
 21
-60.5
 31
0.0
  0
LINE
  5
171
330
167
100
AcDbEntity
  8
0
  6
Continuous
 62
     0
370
     0
100
AcDbLine
 10
8.0
 20
0.0
 30
0.0
 11
60.5
 21
0.0
 31
0.0
  0
ENDBLK
  5
169
330
167
100
AcDbEntity
  8
0
100
AcDbBlockEnd
  0
BLOCK
  5
356
330
355
100
AcDbEntity
  8
0
100
AcDbBlockBegin
  2
SW_NOTE_1
 70
     0
 10
0.0
 20
0.0
 30
0.0
  3
SW_NOTE_1
  1

  0
MTEXT
  5
358
330
355
100
AcDbEntity
  8
注記
 62
     0
100
AcDbMText
 10
24.1928385417
 20
7.5034484686
 30
0.0
 40
5.8208333333
 41
0.0
 71
     2
 72
     1
  1
FBS-32-30-2UH
  7
SLDTEXTSTYLE0
 73
     1
 44
1.0
  0
MTEXT
  5
359
330
355
100
AcDbEntity
  8
注記
 62
     0
100
AcDbMText
 10
25.8575720345
 20
-1.2576631783
 30
0.0
 40
5.8208333333
 41
0.0
 71
     2
 72
     1
  1
C002750
  7
SLDTEXTSTYLE0
 73
     1
 44
1.0
  0
ENDBLK
  5
357
330
355
100
AcDbEntity
  8
0
100
AcDbBlockEnd
  0
BLOCK
  5
35C
330
35B
100
AcDbEntity
  8
0
100
AcDbBlockBegin
  2
SW_CENTERMARKSYMBOL_3
 70
     0
 10
0.0
 20
0.0
 30
0.0
  3
SW_CENTERMARKSYMBOL_3
  1

  0
ARC
  5
35E
330
35B
100
AcDbEntity
  8
0
  6
Continuous
 62
     0
370
     0
100
AcDbCircle
 10
19.25
 20
-33.3419780457
 30
0.0
 40
38.50000000000001
100
AcDbArc
 50
120.0
 51
125.9528082611
  0
ARC
  5
35F
330
35B
100
AcDbEntity
  8
0
  6
Continuous
 62
     0
370
     0
100
AcDbCircle
 10
19.25
 20
-33.3419780457
 30
0.0
 40
38.5
100
AcDbArc
 50
114.0471917389
 51
120.0
  0
ARC
  5
360
330
35B
100
AcDbEntity
  8
0
  6
Continuous
 62
     0
370
     0
100
AcDbCircle
 10
19.25
 20
-33.3419780457
 30
0.0
 40
38.50000000000001
100
AcDbArc
 50
90.0
 51
95.9528082611
  0
ARC
  5
361
330
35B
100
AcDbEntity
  8
0
  6
Continuous
 62
     0
370
     0
100
AcDbCircle
 10
19.25
 20
-33.3419780457
 30
0.0
 40
38.50000000000001
100
AcDbArc
 50
84.0471917389
 51
90.0
  0
ARC
  5
362
330
35B
100
AcDbEntity
  8
0
  6
Continuous
 62
     0
370
     0
100
AcDbCircle
 10
19.25
 20
-33.3419780457
 30
0.0
 40
38.5
100
AcDbArc
 50
60.0
 51
65.9528082611
  0
ARC
  5
363
330
35B
100
AcDbEntity
  8
0
  6
Continuous
 62
     0
370
     0
100
AcDbCircle
 10
19.25
 20
-33.3419780457
 30
0.0
 40
38.50000000000001
100
AcDbArc
 50
54.0471917389
 51
60.0
  0
ARC
  5
364
330
35B
100
AcDbEntity
  8
0
  6
Continuous
 62
     0
370
     0
100
AcDbCircle
 10
19.25
 20
-33.3419780457
 30
0.0
 40
38.5
100
AcDbArc
 50
30.0
 51
35.9528082611
  0
ARC
  5
365
330
35B
100
AcDbEntity
  8
0
  6
Continuous
 62
     0
370
     0
100
AcDbCircle
 10
19.25
 20
-33.3419780457
 30
0.0
 40
38.50000000000001
100
AcDbArc
 50
24.0471917389
 51
30.0
  0
ARC
  5
366
330
35B
100
AcDbEntity
  8
0
  6
Continuous
 62
     0
370
     0
100
AcDbCircle
 10
19.25
 20
-33.3419780457
 30
0.0
 40
38.50000000000001
100
AcDbArc
 50
0.0
 51
5.9528082611
  0
ARC
  5
367
330
35B
100
AcDbEntity
  8
0
  6
Continuous
 62
     0
370
     0
100
AcDbCircle
 10
19.25
 20
-33.3419780457
 30
0.0
 40
38.50000000000001
100
AcDbArc
 50
354.0471917389
 51
0.0
  0
ARC
  5
368
330
35B
100
AcDbEntity
  8
0
  6
Continuous
 62
     0
370
     0
100
AcDbCircle
 10
19.25
 20
-33.3419780457
 30
0.0
 40
38.50000000000001
100
AcDbArc
 50
330.0
 51
335.9528082611
  0
ARC
  5
369
330
35B
100
AcDbEntity
  8
0
  6
Continuous
 62
     0
370
     0
100
AcDbCircle
 10
19.25
 20
-33.3419780457
 30
0.0
 40
38.5
100
AcDbArc
 50
324.0471917389
 51
330.0
  0
ARC
  5
36A
330
35B
100
AcDbEntity
  8
0
  6
Continuous
 62
     0
370
     0
100
AcDbCircle
 10
19.25
 20
-33.3419780457
 30
0.0
 40
38.5
100
AcDbArc
 50
300.0
 51
305.9528082611
  0
ARC
  5
36B
330
35B
100
AcDbEntity
  8
0
  6
Continuous
 62
     0
370
     0
100
AcDbCircle
 10
19.25
 20
-33.3419780457
 30
0.0
 40
38.5
100
AcDbArc
 50
294.0471917389
 51
300.0
  0
ARC
  5
36C
330
35B
100
AcDbEntity
  8
0
  6
Continuous
 62
     0
370
     0
100
AcDbCircle
 10
19.25
 20
-33.3419780457
 30
0.0
 40
38.50000000000001
100
AcDbArc
 50
270.0
 51
275.9528082611
  0
ARC
  5
36D
330
35B
100
AcDbEntity
  8
0
  6
Continuous
 62
     0
370
     0
100
AcDbCircle
 10
19.25
 20
-33.3419780457
 30
0.0
 40
38.50000000000001
100
AcDbArc
 50
264.0471917389
 51
270.0
  0
ARC
  5
36E
330
35B
100
AcDbEntity
  8
0
  6
Continuous
 62
     0
370
     0
100
AcDbCircle
 10
19.25
 20
-33.3419780457
 30
0.0
 40
38.50000000000001
100
AcDbArc
 50
240.0
 51
245.9528082611
  0
ARC
  5
36F
330
35B
100
AcDbEntity
  8
0
  6
Continuous
 62
     0
370
     0
100
AcDbCircle
 10
19.25
 20
-33.3419780457
 30
0.0
 40
38.50000000000001
100
AcDbArc
 50
234.0471917389
 51
240.0
  0
ARC
  5
370
330
35B
100
AcDbEntity
  8
0
  6
Continuous
 62
     0
370
     0
100
AcDbCircle
 10
19.25
 20
-33.3419780457
 30
0.0
 40
38.5
100
AcDbArc
 50
210.0
 51
215.9528082611
  0
ARC
  5
371
330
35B
100
AcDbEntity
  8
0
  6
Continuous
 62
     0
370
     0
100
AcDbCircle
 10
19.25
 20
-33.3419780457
 30
0.0
 40
38.50000000000001
100
AcDbArc
 50
204.0471917389
 51
210.0
  0
ARC
  5
372
330
35B
100
AcDbEntity
  8
0
  6
Continuous
 62
     0
370
     0
100
AcDbCircle
 10
19.25
 20
-33.3419780457
 30
0.0
 40
38.50000000000001
100
AcDbArc
 50
180.0
 51
185.9528082611
  0
ARC
  5
373
330
35B
100
AcDbEntity
  8
0
  6
Continuous
 62
     0
370
     0
100
AcDbCircle
 10
19.25
 20
-33.3419780457
 30
0.0
 40
38.50000000000001
100
AcDbArc
 50
174.0471917389
 51
180.0
  0
ARC
  5
374
330
35B
100
AcDbEntity
  8
0
  6
Continuous
 62
     0
370
     0
100
AcDbCircle
 10
19.25
 20
-33.3419780457
 30
0.0
 40
38.5
100
AcDbArc
 50
150.0
 51
155.9528082611
  0
ARC
  5
375
330
35B
100
AcDbEntity
  8
0
  6
Continuous
 62
     0
370
     0
100
AcDbCircle
 10
19.25
 20
-33.3419780457
 30
0.0
 40
38.50000000000001
100
AcDbArc
 50
144.0471917389
 51
150.0
  0
ARC
  5
376
330
35B
100
AcDbEntity
  8
0
  6
CENTERX2
 62
     0
370
     0
100
AcDbCircle
 10
19.25
 20
-33.3419780457
 30
0.0
 40
38.50000000000001
100
AcDbArc
 50
71.9056165222
 51
78.0943834778
  0
ARC
  5
377
330
35B
100
AcDbEntity
  8
0
  6
CENTERX2
 62
     0
370
     0
100
AcDbCircle
 10
19.25
 20
-33.3419780457
 30
0.0
 40
38.50000000000001
100
AcDbArc
 50
101.9056165222
 51
108.0943834778
  0
ARC
  5
378
330
35B
100
AcDbEntity
  8
0
  6
CENTERX2
 62
     0
370
     0
100
AcDbCircle
 10
19.25
 20
-33.3419780457
 30
0.0
 40
38.50000000000001
100
AcDbArc
 50
131.9056165222
 51
138.0943834778
  0
ARC
  5
379
330
35B
100
AcDbEntity
  8
0
  6
CENTERX2
 62
     0
370
     0
100
AcDbCircle
 10
19.25
 20
-33.3419780457
 30
0.0
 40
38.50000000000001
100
AcDbArc
 50
161.9056165222
 51
168.0943834778
  0
ARC
  5
37A
330
35B
100
AcDbEntity
  8
0
  6
CENTERX2
 62
     0
370
     0
100
AcDbCircle
 10
19.25
 20
-33.3419780457
 30
0.0
 40
38.50000000000001
100
AcDbArc
 50
191.9056165222
 51
198.0943834778
  0
ARC
  5
37B
330
35B
100
AcDbEntity
  8
0
  6
CENTERX2
 62
     0
370
     0
100
AcDbCircle
 10
19.25
 20
-33.3419780457
 30
0.0
 40
38.5
100
AcDbArc
 50
221.9056165222
 51
228.0943834778
  0
ARC
  5
37C
330
35B
100
AcDbEntity
  8
0
  6
CENTERX2
 62
     0
370
     0
100
AcDbCircle
 10
19.25
 20
-33.3419780457
 30
0.0
 40
38.5
100
AcDbArc
 50
251.9056165222
 51
258.0943834778
  0
ARC
  5
37D
330
35B
100
AcDbEntity
  8
0
  6
CENTERX2
 62
     0
370
     0
100
AcDbCircle
 10
19.25
 20
-33.3419780457
 30
0.0
 40
38.5
100
AcDbArc
 50
281.9056165222
 51
288.0943834778
  0
ARC
  5
37E
330
35B
100
AcDbEntity
  8
0
  6
CENTERX2
 62
     0
370
     0
100
AcDbCircle
 10
19.25
 20
-33.3419780457
 30
0.0
 40
38.5
100
AcDbArc
 50
311.9056165222
 51
318.0943834778
  0
ARC
  5
37F
330
35B
100
AcDbEntity
  8
0
  6
CENTERX2
 62
     0
370
     0
100
AcDbCircle
 10
19.25
 20
-33.3419780457
 30
0.0
 40
38.50000000000001
100
AcDbArc
 50
341.9056165222
 51
348.0943834778
  0
ARC
  5
380
330
35B
100
AcDbEntity
  8
0
  6
CENTERX2
 62
     0
370
     0
100
AcDbCircle
 10
19.25
 20
-33.3419780457
 30
0.0
 40
38.50000000000001
100
AcDbArc
 50
11.9056165222
 51
18.0943834778
  0
ARC
  5
381
330
35B
100
AcDbEntity
  8
0
  6
CENTERX2
 62
     0
370
     0
100
AcDbCircle
 10
19.25
 20
-33.3419780457
 30
0.0
 40
38.50000000000001
100
AcDbArc
 50
41.9056165222
 51
48.0943834778
  0
LINE
  5
382
330
35B
100
AcDbEntity
  8
0
  6
Continuous
 62
     0
370
     0
100
AcDbLine
 10
0.0
 20
0.0
 30
0.0
 11
-2.0
 21
3.4641016151
 31
0.0
  0
LINE
  5
383
330
35B
100
AcDbEntity
  8
0
  6
Continuous
 62
     0
370
     0
100
AcDbLine
 10
0.0
 20
0.0
 30
0.0
 11
2.0
 21
-3.4641016151
 31
0.0
  0
LINE
  5
384
330
35B
100
AcDbEntity
  8
0
  6
Continuous
 62
     0
370
     0
100
AcDbLine
 10
-2.0
 20
3.4641016151
 30
0.0
 11
-2.825
 21
4.8930435314
 31
0.0
  0
LINE
  5
385
330
35B
100
AcDbEntity
  8
0
  6
Continuous
 62
     0
370
     0
100
AcDbLine
 10
2.0
 20
-3.4641016151
 30
0.0
 11
2.825
 21
-4.8930435314
 31
0.0
  0
LINE
  5
386
330
35B
100
AcDbEntity
  8
0
  6
Continuous
 62
     0
370
     0
100
AcDbLine
 10
19.25
 20
5.1580219543
 30
0.0
 11
19.25
 21
9.1580219543
 31
0.0
  0
LINE
  5
387
330
35B
100
AcDbEntity
  8
0
  6
Continuous
 62
     0
370
     0
100
AcDbLine
 10
19.25
 20
5.1580219543
 30
0.0
 11
19.25
 21
1.1580219543
 31
0.0
  0
LINE
  5
388
330
35B
100
AcDbEntity
  8
0
  6
Continuous
 62
     0
370
     0
100
AcDbLine
 10
19.25
 20
9.1580219543
 30
0.0
 11
19.25
 21
10.8080219543
 31
0.0
  0
LINE
  5
389
330
35B
100
AcDbEntity
  8
0
  6
Continuous
 62
     0
370
     0
100
AcDbLine
 10
19.25
 20
1.1580219543
 30
0.0
 11
19.25
 21
-0.4919780457
 31
0.0
  0
LINE
  5
38A
330
35B
100
AcDbEntity
  8
0
  6
Continuous
 62
     0
370
     0
100
AcDbLine
 10
38.5
 20
0.0
 30
0.0
 11
40.5
 21
3.4641016151
 31
0.0
  0
LINE
  5
38B
330
35B
100
AcDbEntity
  8
0
  6
Continuous
 62
     0
370
     0
100
AcDbLine
 10
38.5
 20
0.0
 30
0.0
 11
36.5
 21
-3.4641016151
 31
0.0
  0
LINE
  5
38C
330
35B
100
AcDbEntity
  8
0
  6
Continuous
 62
     0
370
     0
100
AcDbLine
 10
40.5
 20
3.4641016151
 30
0.0
 11
41.325
 21
4.8930435314
 31
0.0
  0
LINE
  5
38D
330
35B
100
AcDbEntity
  8
0
  6
Continuous
 62
     0
370
     0
100
AcDbLine
 10
36.5
 20
-3.4641016151
 30
0.0
 11
35.675
 21
-4.8930435314
 31
0.0
  0
LINE
  5
38E
330
35B
100
AcDbEntity
  8
0
  6
Continuous
 62
     0
370
     0
100
AcDbLine
 10
52.5919780457
 20
-14.0919780457
 30
0.0
 11
56.0560796608
 21
-12.0919780457
 31
0.0
  0
LINE
  5
38F
330
35B
100
AcDbEntity
  8
0
  6
Continuous
 62
     0
370
     0
100
AcDbLine
 10
52.5919780457
 20
-14.0919780457
 30
0.0
 11
49.1278764306
 21
-16.0919780457
 31
0.0
  0
LINE
  5
390
330
35B
100
AcDbEntity
  8
0
  6
Continuous
 62
     0
370
     0
100
AcDbLine
 10
56.0560796608
 20
-12.0919780457
 30
0.0
 11
57.4850215771
 21
-11.2669780457
 31
0.0
  0
LINE
  5
391
330
35B
100
AcDbEntity
  8
0
  6
Continuous
 62
     0
370
     0
100
AcDbLine
 10
49.1278764306
 20
-16.0919780457
 30
0.0
 11
47.6989345143
 21
-16.9169780457
 31
0.0
  0
LINE
  5
392
330
35B
100
AcDbEntity
  8
0
  6
Continuous
 62
     0
370
     0
100
AcDbLine
 10
57.75
 20
-33.3419780457
 30
0.0
 11
61.75
 21
-33.3419780457
 31
0.0
  0
LINE
  5
393
330
35B
100
AcDbEntity
  8
0
  6
Continuous
 62
     0
370
     0
100
AcDbLine
 10
57.75
 20
-33.3419780457
 30
0.0
 11
53.75
 21
-33.3419780457
 31
0.0
  0
LINE
  5
394
330
35B
100
AcDbEntity
  8
0
  6
Continuous
 62
     0
370
     0
100
AcDbLine
 10
61.75
 20
-33.3419780457
 30
0.0
 11
63.4
 21
-33.3419780457
 31
0.0
  0
LINE
  5
395
330
35B
100
AcDbEntity
  8
0
  6
Continuous
 62
     0
370
     0
100
AcDbLine
 10
53.75
 20
-33.3419780457
 30
0.0
 11
52.1
 21
-33.3419780457
 31
0.0
  0
LINE
  5
396
330
35B
100
AcDbEntity
  8
0
  6
Continuous
 62
     0
370
     0
100
AcDbLine
 10
52.5919780457
 20
-52.5919780457
 30
0.0
 11
56.0560796608
 21
-54.5919780457
 31
0.0
  0
LINE
  5
397
330
35B
100
AcDbEntity
  8
0
  6
Continuous
 62
     0
370
     0
100
AcDbLine
 10
52.5919780457
 20
-52.5919780457
 30
0.0
 11
49.1278764306
 21
-50.5919780457
 31
0.0
  0
LINE
  5
398
330
35B
100
AcDbEntity
  8
0
  6
Continuous
 62
     0
370
     0
100
AcDbLine
 10
56.0560796608
 20
-54.5919780457
 30
0.0
 11
57.4850215771
 21
-55.4169780457
 31
0.0
  0
LINE
  5
399
330
35B
100
AcDbEntity
  8
0
  6
Continuous
 62
     0
370
     0
100
AcDbLine
 10
49.1278764306
 20
-50.5919780457
 30
0.0
 11
47.6989345143
 21
-49.7669780457
 31
0.0
  0
LINE
  5
39A
330
35B
100
AcDbEntity
  8
0
  6
Continuous
 62
     0
370
     0
100
AcDbLine
 10
38.5
 20
-66.6839560914
 30
0.0
 11
40.5
 21
-70.1480577065
 31
0.0
  0
LINE
  5
39B
330
35B
100
AcDbEntity
  8
0
  6
Continuous
 62
     0
370
     0
100
AcDbLine
 10
38.5
 20
-66.6839560914
 30
0.0
 11
36.5
 21
-63.2198544763
 31
0.0
  0
LINE
  5
39C
330
35B
100
AcDbEntity
  8
0
  6
Continuous
 62
     0
370
     0
100
AcDbLine
 10
40.5
 20
-70.1480577065
 30
0.0
 11
41.325
 21
-71.5769996228
 31
0.0
  0
LINE
  5
39D
330
35B
100
AcDbEntity
  8
0
  6
Continuous
 62
     0
370
     0
100
AcDbLine
 10
36.5
 20
-63.2198544763
 30
0.0
 11
35.675
 21
-61.79091256
 31
0.0
  0
LINE
  5
39E
330
35B
100
AcDbEntity
  8
0
  6
Continuous
 62
     0
370
     0
100
AcDbLine
 10
19.25
 20
-71.8419780457
 30
0.0
 11
19.25
 21
-75.8419780457
 31
0.0
  0
LINE
  5
39F
330
35B
100
AcDbEntity
  8
0
  6
Continuous
 62
     0
370
     0
100
AcDbLine
 10
19.25
 20
-71.8419780457
 30
0.0
 11
19.25
 21
-67.8419780457
 31
0.0
  0
LINE
  5
3A0
330
35B
100
AcDbEntity
  8
0
  6
Continuous
 62
     0
370
     0
100
AcDbLine
 10
19.25
 20
-75.8419780457
 30
0.0
 11
19.25
 21
-77.4919780457
 31
0.0
  0
LINE
  5
3A1
330
35B
100
AcDbEntity
  8
0
  6
Continuous
 62
     0
370
     0
100
AcDbLine
 10
19.25
 20
-67.8419780457
 30
0.0
 11
19.25
 21
-66.1919780457
 31
0.0
  0
LINE
  5
3A2
330
35B
100
AcDbEntity
  8
0
  6
Continuous
 62
     0
370
     0
100
AcDbLine
 10
0.0
 20
-66.6839560914
 30
0.0
 11
-2.0
 21
-70.1480577065
 31
0.0
  0
LINE
  5
3A3
330
35B
100
AcDbEntity
  8
0
  6
Continuous
 62
     0
370
     0
100
AcDbLine
 10
0.0
 20
-66.6839560914
 30
0.0
 11
2.0
 21
-63.2198544763
 31
0.0
  0
LINE
  5
3A4
330
35B
100
AcDbEntity
  8
0
  6
Continuous
 62
     0
370
     0
100
AcDbLine
 10
-2.0
 20
-70.1480577065
 30
0.0
 11
-2.825
 21
-71.5769996228
 31
0.0
  0
LINE
  5
3A5
330
35B
100
AcDbEntity
  8
0
  6
Continuous
 62
     0
370
     0
100
AcDbLine
 10
2.0
 20
-63.2198544763
 30
0.0
 11
2.825
 21
-61.79091256
 31
0.0
  0
LINE
  5
3A6
330
35B
100
AcDbEntity
  8
0
  6
Continuous
 62
     0
370
     0
100
AcDbLine
 10
-14.0919780457
 20
-52.5919780457
 30
0.0
 11
-17.5560796608
 21
-54.5919780457
 31
0.0
  0
LINE
  5
3A7
330
35B
100
AcDbEntity
  8
0
  6
Continuous
 62
     0
370
     0
100
AcDbLine
 10
-14.0919780457
 20
-52.5919780457
 30
0.0
 11
-10.6278764306
 21
-50.5919780457
 31
0.0
  0
LINE
  5
3A8
330
35B
100
AcDbEntity
  8
0
  6
Continuous
 62
     0
370
     0
100
AcDbLine
 10
-17.5560796608
 20
-54.5919780457
 30
0.0
 11
-18.9850215771
 21
-55.4169780457
 31
0.0
  0
LINE
  5
3A9
330
35B
100
AcDbEntity
  8
0
  6
Continuous
 62
     0
370
     0
100
AcDbLine
 10
-10.6278764306
 20
-50.5919780457
 30
0.0
 11
-9.1989345143
 21
-49.7669780457
 31
0.0
  0
LINE
  5
3AA
330
35B
100
AcDbEntity
  8
0
  6
Continuous
 62
     0
370
     0
100
AcDbLine
 10
-19.25
 20
-33.3419780457
 30
0.0
 11
-23.25
 21
-33.3419780457
 31
0.0
  0
LINE
  5
3AB
330
35B
100
AcDbEntity
  8
0
  6
Continuous
 62
     0
370
     0
100
AcDbLine
 10
-19.25
 20
-33.3419780457
 30
0.0
 11
-15.25
 21
-33.3419780457
 31
0.0
  0
LINE
  5
3AC
330
35B
100
AcDbEntity
  8
0
  6
Continuous
 62
     0
370
     0
100
AcDbLine
 10
-23.25
 20
-33.3419780457
 30
0.0
 11
-24.9
 21
-33.3419780457
 31
0.0
  0
LINE
  5
3AD
330
35B
100
AcDbEntity
  8
0
  6
Continuous
 62
     0
370
     0
100
AcDbLine
 10
-15.25
 20
-33.3419780457
 30
0.0
 11
-13.6
 21
-33.3419780457
 31
0.0
  0
LINE
  5
3AE
330
35B
100
AcDbEntity
  8
0
  6
Continuous
 62
     0
370
     0
100
AcDbLine
 10
-14.0919780457
 20
-14.0919780457
 30
0.0
 11
-17.5560796608
 21
-12.0919780457
 31
0.0
  0
LINE
  5
3AF
330
35B
100
AcDbEntity
  8
0
  6
Continuous
 62
     0
370
     0
100
AcDbLine
 10
-14.0919780457
 20
-14.0919780457
 30
0.0
 11
-10.6278764306
 21
-16.0919780457
 31
0.0
  0
LINE
  5
3B0
330
35B
100
AcDbEntity
  8
0
  6
Continuous
 62
     0
370
     0
100
AcDbLine
 10
-17.5560796608
 20
-12.0919780457
 30
0.0
 11
-18.9850215771
 21
-11.2669780457
 31
0.0
  0
LINE
  5
3B1
330
35B
100
AcDbEntity
  8
0
  6
Continuous
 62
     0
370
     0
100
AcDbLine
 10
-10.6278764306
 20
-16.0919780457
 30
0.0
 11
-9.1989345143
 21
-16.9169780457
 31
0.0
  0
ENDBLK
  5
35D
330
35B
100
AcDbEntity
  8
0
100
AcDbBlockEnd
  0
BLOCK
  5
3B4
330
3B3
100
AcDbEntity
  8
0
100
AcDbBlockBegin
  2
SW_CENTERMARKSYMBOL_4
 70
     0
 10
0.0
 20
0.0
 30
0.0
  3
SW_CENTERMARKSYMBOL_4
  1

  0
ARC
  5
3B6
330
3B3
100
AcDbEntity
  8
0
  6
Continuous
 62
     0
370
     0
100
AcDbCircle
 10
0.0
 20
-31.0
 30
0.0
 40
31.00000000000006
100
AcDbArc
 50
90.0
 51
97.3930038081
  0
ARC
  5
3B7
330
3B3
100
AcDbEntity
  8
0
  6
Continuous
 62
     0
370
     0
100
AcDbCircle
 10
0.0
 20
-31.0
 30
0.0
 40
31.00000000000006
100
AcDbArc
 50
82.6069961919
 51
90.0
  0
ARC
  5
3B8
330
3B3
100
AcDbEntity
  8
0
  6
Continuous
 62
     0
370
     0
100
AcDbCircle
 10
0.0
 20
-31.0
 30
0.0
 40
31.00000000000007
100
AcDbArc
 50
60.0
 51
67.3930038081
  0
ARC
  5
3B9
330
3B3
100
AcDbEntity
  8
0
  6
Continuous
 62
     0
370
     0
100
AcDbCircle
 10
0.0
 20
-31.0
 30
0.0
 40
31.00000000000006
100
AcDbArc
 50
52.6069961919
 51
60.0
  0
ARC
  5
3BA
330
3B3
100
AcDbEntity
  8
0
  6
Continuous
 62
     0
370
     0
100
AcDbCircle
 10
0.0
 20
-31.0
 30
0.0
 40
31.00000000000004
100
AcDbArc
 50
30.0
 51
37.3930038081
  0
ARC
  5
3BB
330
3B3
100
AcDbEntity
  8
0
  6
Continuous
 62
     0
370
     0
100
AcDbCircle
 10
0.0
 20
-31.0
 30
0.0
 40
31.00000000000005
100
AcDbArc
 50
22.6069961919
 51
30.0
  0
ARC
  5
3BC
330
3B3
100
AcDbEntity
  8
0
  6
Continuous
 62
     0
370
     0
100
AcDbCircle
 10
0.0
 20
-31.0
 30
0.0
 40
31.00000000000001
100
AcDbArc
 50
0.0
 51
7.3930038081
  0
ARC
  5
3BD
330
3B3
100
AcDbEntity
  8
0
  6
Continuous
 62
     0
370
     0
100
AcDbCircle
 10
0.0
 20
-31.0
 30
0.0
 40
31.00000000000001
100
AcDbArc
 50
352.6069961919
 51
0.0
  0
ARC
  5
3BE
330
3B3
100
AcDbEntity
  8
0
  6
Continuous
 62
     0
370
     0
100
AcDbCircle
 10
0.0
 20
-31.0
 30
0.0
 40
30.99999999999999
100
AcDbArc
 50
330.0
 51
337.3930038081
  0
ARC
  5
3BF
330
3B3
100
AcDbEntity
  8
0
  6
Continuous
 62
     0
370
     0
100
AcDbCircle
 10
0.0
 20
-31.0
 30
0.0
 40
30.99999999999999
100
AcDbArc
 50
322.6069961919
 51
330.0
  0
ARC
  5
3C0
330
3B3
100
AcDbEntity
  8
0
  6
Continuous
 62
     0
370
     0
100
AcDbCircle
 10
0.0
 20
-31.0
 30
0.0
 40
30.99999999999997
100
AcDbArc
 50
300.0
 51
307.3930038081
  0
ARC
  5
3C1
330
3B3
100
AcDbEntity
  8
0
  6
Continuous
 62
     0
370
     0
100
AcDbCircle
 10
0.0
 20
-31.0
 30
0.0
 40
30.99999999999997
100
AcDbArc
 50
292.6069961919
 51
300.0
  0
ARC
  5
3C2
330
3B3
100
AcDbEntity
  8
0
  6
Continuous
 62
     0
370
     0
100
AcDbCircle
 10
0.0
 20
-31.0
 30
0.0
 40
30.99999999999994
100
AcDbArc
 50
270.0
 51
277.3930038081
  0
ARC
  5
3C3
330
3B3
100
AcDbEntity
  8
0
  6
Continuous
 62
     0
370
     0
100
AcDbCircle
 10
0.0
 20
-31.0
 30
0.0
 40
30.99999999999994
100
AcDbArc
 50
262.6069961919
 51
270.0
  0
ARC
  5
3C4
330
3B3
100
AcDbEntity
  8
0
  6
Continuous
 62
     0
370
     0
100
AcDbCircle
 10
0.0
 20
-31.0
 30
0.0
 40
30.99999999999995
100
AcDbArc
 50
240.0
 51
247.3930038081
  0
ARC
  5
3C5
330
3B3
100
AcDbEntity
  8
0
  6
Continuous
 62
     0
370
     0
100
AcDbCircle
 10
0.0
 20
-31.0
 30
0.0
 40
30.99999999999995
100
AcDbArc
 50
232.6069961919
 51
240.0
  0
ARC
  5
3C6
330
3B3
100
AcDbEntity
  8
0
  6
Continuous
 62
     0
370
     0
100
AcDbCircle
 10
0.0
 20
-31.0
 30
0.0
 40
30.99999999999996
100
AcDbArc
 50
210.0
 51
217.3930038081
  0
ARC
  5
3C7
330
3B3
100
AcDbEntity
  8
0
  6
Continuous
 62
     0
370
     0
100
AcDbCircle
 10
0.0
 20
-31.0
 30
0.0
 40
30.99999999999996
100
AcDbArc
 50
202.6069961919
 51
210.0
  0
ARC
  5
3C8
330
3B3
100
AcDbEntity
  8
0
  6
Continuous
 62
     0
370
     0
100
AcDbCircle
 10
0.0
 20
-31.0
 30
0.0
 40
30.99999999999999
100
AcDbArc
 50
180.0
 51
187.3930038081
  0
ARC
  5
3C9
330
3B3
100
AcDbEntity
  8
0
  6
Continuous
 62
     0
370
     0
100
AcDbCircle
 10
0.0
 20
-31.0
 30
0.0
 40
30.99999999999999
100
AcDbArc
 50
172.6069961919
 51
180.0
  0
ARC
  5
3CA
330
3B3
100
AcDbEntity
  8
0
  6
CENTERX2
 62
     0
370
     0
100
AcDbCircle
 10
0.0
 20
-31.0
 30
0.0
 40
31.00000000000006
100
AcDbArc
 50
44.7860076163
 51
45.2139923837
  0
ARC
  5
3CB
330
3B3
100
AcDbEntity
  8
0
  6
CENTERX2
 62
     0
370
     0
100
AcDbCircle
 10
0.0
 20
-31.0
 30
0.0
 40
31.00000000000005
100
AcDbArc
 50
74.7860076163
 51
75.2139923837
  0
ARC
  5
3CC
330
3B3
100
AcDbEntity
  8
0
  6
CENTERX2
 62
     0
370
     0
100
AcDbCircle
 10
0.0
 20
-31.0
 30
0.0
 40
31.00000000000004
100
AcDbArc
 50
104.7860076163
 51
165.2139923837
  0
ARC
  5
3CD
330
3B3
100
AcDbEntity
  8
0
  6
CENTERX2
 62
     0
370
     0
100
AcDbCircle
 10
0.0
 20
-31.0
 30
0.0
 40
30.99999999999998
100
AcDbArc
 50
194.7860076163
 51
195.2139923837
  0
ARC
  5
3CE
330
3B3
100
AcDbEntity
  8
0
  6
CENTERX2
 62
     0
370
     0
100
AcDbCircle
 10
0.0
 20
-31.0
 30
0.0
 40
30.99999999999997
100
AcDbArc
 50
224.7860076163
 51
225.2139923837
  0
ARC
  5
3CF
330
3B3
100
AcDbEntity
  8
0
  6
CENTERX2
 62
     0
370
     0
100
AcDbCircle
 10
0.0
 20
-31.0
 30
0.0
 40
30.99999999999993
100
AcDbArc
 50
254.7860076163
 51
255.2139923837
  0
ARC
  5
3D0
330
3B3
100
AcDbEntity
  8
0
  6
CENTERX2
 62
     0
370
     0
100
AcDbCircle
 10
0.0
 20
-31.0
 30
0.0
 40
30.99999999999996
100
AcDbArc
 50
284.7860076163
 51
285.2139923837
  0
ARC
  5
3D1
330
3B3
100
AcDbEntity
  8
0
  6
CENTERX2
 62
     0
370
     0
100
AcDbCircle
 10
0.0
 20
-31.0
 30
0.0
 40
30.99999999999999
100
AcDbArc
 50
314.7860076163
 51
315.2139923837
  0
ARC
  5
3D2
330
3B3
100
AcDbEntity
  8
0
  6
CENTERX2
 62
     0
370
     0
100
AcDbCircle
 10
0.0
 20
-31.0
 30
0.0
 40
31.00000000000001
100
AcDbArc
 50
344.7860076163
 51
345.2139923837
  0
ARC
  5
3D3
330
3B3
100
AcDbEntity
  8
0
  6
CENTERX2
 62
     0
370
     0
100
AcDbCircle
 10
0.0
 20
-31.0
 30
0.0
 40
31.00000000000003
100
AcDbArc
 50
14.7860076163
 51
15.2139923837
  0
LINE
  5
3D4
330
3B3
100
AcDbEntity
  8
0
  6
Continuous
 62
     0
370
     0
100
AcDbLine
 10
0.0
 20
0.0
 30
0.0
 11
0.0
 21
4.0
 31
0.0
  0
LINE
  5
3D5
330
3B3
100
AcDbEntity
  8
0
  6
Continuous
 62
     0
370
     0
100
AcDbLine
 10
0.0
 20
0.0
 30
0.0
 11
0.0
 21
-4.0
 31
0.0
  0
LINE
  5
3D6
330
3B3
100
AcDbEntity
  8
0
  6
Continuous
 62
     0
370
     0
100
AcDbLine
 10
0.0
 20
4.0
 30
0.0
 11
0.0
 21
6.84
 31
0.0
  0
LINE
  5
3D7
330
3B3
100
AcDbEntity
  8
0
  6
Continuous
 62
     0
370
     0
100
AcDbLine
 10
0.0
 20
-4.0
 30
0.0
 11
0.0
 21
-6.84
 31
0.0
  0
LINE
  5
3D8
330
3B3
100
AcDbEntity
  8
0
  6
Continuous
 62
     0
370
     0
100
AcDbLine
 10
15.5
 20
-4.1532124827
 30
0.0
 11
17.5
 21
-0.6891108675
 31
0.0
  0
LINE
  5
3D9
330
3B3
100
AcDbEntity
  8
0
  6
Continuous
 62
     0
370
     0
100
AcDbLine
 10
15.5
 20
-4.1532124827
 30
0.0
 11
13.5
 21
-7.6173140978
 31
0.0
  0
LINE
  5
3DA
330
3B3
100
AcDbEntity
  8
0
  6
Continuous
 62
     0
370
     0
100
AcDbLine
 10
17.5
 20
-0.6891108675
 30
0.0
 11
18.92
 21
1.7704012792
 31
0.0
  0
LINE
  5
3DB
330
3B3
100
AcDbEntity
  8
0
  6
Continuous
 62
     0
370
     0
100
AcDbLine
 10
13.5
 20
-7.6173140978
 30
0.0
 11
12.08
 21
-10.0768262446
 31
0.0
  0
LINE
  5
3DC
330
3B3
100
AcDbEntity
  8
0
  6
Continuous
 62
     0
370
     0
100
AcDbLine
 10
26.8467875173
 20
-15.5
 30
0.0
 11
30.3108891325
 21
-13.5
 31
0.0
  0
LINE
  5
3DD
330
3B3
100
AcDbEntity
  8
0
  6
Continuous
 62
     0
370
     0
100
AcDbLine
 10
26.8467875173
 20
-15.5
 30
0.0
 11
23.3826859022
 21
-17.5
 31
0.0
  0
LINE
  5
3DE
330
3B3
100
AcDbEntity
  8
0
  6
Continuous
 62
     0
370
     0
100
AcDbLine
 10
30.3108891325
 20
-13.5
 30
0.0
 11
32.7704012792
 21
-12.08
 31
0.0
  0
LINE
  5
3DF
330
3B3
100
AcDbEntity
  8
0
  6
Continuous
 62
     0
370
     0
100
AcDbLine
 10
23.3826859022
 20
-17.5
 30
0.0
 11
20.9231737554
 21
-18.92
 31
0.0
  0
LINE
  5
3E0
330
3B3
100
AcDbEntity
  8
0
  6
Continuous
 62
     0
370
     0
100
AcDbLine
 10
31.0
 20
-31.0
 30
0.0
 11
35.0
 21
-31.0
 31
0.0
  0
LINE
  5
3E1
330
3B3
100
AcDbEntity
  8
0
  6
Continuous
 62
     0
370
     0
100
AcDbLine
 10
31.0
 20
-31.0
 30
0.0
 11
27.0
 21
-31.0
 31
0.0
  0
LINE
  5
3E2
330
3B3
100
AcDbEntity
  8
0
  6
Continuous
 62
     0
370
     0
100
AcDbLine
 10
35.0
 20
-31.0
 30
0.0
 11
37.84
 21
-31.0
 31
0.0
  0
LINE
  5
3E3
330
3B3
100
AcDbEntity
  8
0
  6
Continuous
 62
     0
370
     0
100
AcDbLine
 10
27.0
 20
-31.0
 30
0.0
 11
24.16
 21
-31.0
 31
0.0
  0
LINE
  5
3E4
330
3B3
100
AcDbEntity
  8
0
  6
Continuous
 62
     0
370
     0
100
AcDbLine
 10
26.8467875173
 20
-46.5
 30
0.0
 11
30.3108891325
 21
-48.5
 31
0.0
  0
LINE
  5
3E5
330
3B3
100
AcDbEntity
  8
0
  6
Continuous
 62
     0
370
     0
100
AcDbLine
 10
26.8467875173
 20
-46.5
 30
0.0
 11
23.3826859022
 21
-44.5
 31
0.0
  0
LINE
  5
3E6
330
3B3
100
AcDbEntity
  8
0
  6
Continuous
 62
     0
370
     0
100
AcDbLine
 10
30.3108891325
 20
-48.5
 30
0.0
 11
32.7704012792
 21
-49.92
 31
0.0
  0
LINE
  5
3E7
330
3B3
100
AcDbEntity
  8
0
  6
Continuous
 62
     0
370
     0
100
AcDbLine
 10
23.3826859022
 20
-44.5
 30
0.0
 11
20.9231737554
 21
-43.08
 31
0.0
  0
LINE
  5
3E8
330
3B3
100
AcDbEntity
  8
0
  6
Continuous
 62
     0
370
     0
100
AcDbLine
 10
15.5
 20
-57.8467875173
 30
0.0
 11
17.5
 21
-61.3108891325
 31
0.0
  0
LINE
  5
3E9
330
3B3
100
AcDbEntity
  8
0
  6
Continuous
 62
     0
370
     0
100
AcDbLine
 10
15.5
 20
-57.8467875173
 30
0.0
 11
13.5
 21
-54.3826859022
 31
0.0
  0
LINE
  5
3EA
330
3B3
100
AcDbEntity
  8
0
  6
Continuous
 62
     0
370
     0
100
AcDbLine
 10
17.5
 20
-61.3108891325
 30
0.0
 11
18.92
 21
-63.7704012792
 31
0.0
  0
LINE
  5
3EB
330
3B3
100
AcDbEntity
  8
0
  6
Continuous
 62
     0
370
     0
100
AcDbLine
 10
13.5
 20
-54.3826859022
 30
0.0
 11
12.08
 21
-51.9231737554
 31
0.0
  0
LINE
  5
3EC
330
3B3
100
AcDbEntity
  8
0
  6
Continuous
 62
     0
370
     0
100
AcDbLine
 10
0.0
 20
-62.0
 30
0.0
 11
0.0
 21
-66.0
 31
0.0
  0
LINE
  5
3ED
330
3B3
100
AcDbEntity
  8
0
  6
Continuous
 62
     0
370
     0
100
AcDbLine
 10
0.0
 20
-62.0
 30
0.0
 11
0.0
 21
-58.0
 31
0.0
  0
LINE
  5
3EE
330
3B3
100
AcDbEntity
  8
0
  6
Continuous
 62
     0
370
     0
100
AcDbLine
 10
0.0
 20
-66.0
 30
0.0
 11
0.0
 21
-68.84
 31
0.0
  0
LINE
  5
3EF
330
3B3
100
AcDbEntity
  8
0
  6
Continuous
 62
     0
370
     0
100
AcDbLine
 10
0.0
 20
-58.0
 30
0.0
 11
0.0
 21
-55.16
 31
0.0
  0
LINE
  5
3F0
330
3B3
100
AcDbEntity
  8
0
  6
Continuous
 62
     0
370
     0
100
AcDbLine
 10
-15.5
 20
-57.8467875173
 30
0.0
 11
-17.5
 21
-61.3108891325
 31
0.0
  0
LINE
  5
3F1
330
3B3
100
AcDbEntity
  8
0
  6
Continuous
 62
     0
370
     0
100
AcDbLine
 10
-15.5
 20
-57.8467875173
 30
0.0
 11
-13.5
 21
-54.3826859022
 31
0.0
  0
LINE
  5
3F2
330
3B3
100
AcDbEntity
  8
0
  6
Continuous
 62
     0
370
     0
100
AcDbLine
 10
-17.5
 20
-61.3108891325
 30
0.0
 11
-18.92
 21
-63.7704012792
 31
0.0
  0
LINE
  5
3F3
330
3B3
100
AcDbEntity
  8
0
  6
Continuous
 62
     0
370
     0
100
AcDbLine
 10
-13.5
 20
-54.3826859022
 30
0.0
 11
-12.08
 21
-51.9231737554
 31
0.0
  0
LINE
  5
3F4
330
3B3
100
AcDbEntity
  8
0
  6
Continuous
 62
     0
370
     0
100
AcDbLine
 10
-26.8467875173
 20
-46.5
 30
0.0
 11
-30.3108891325
 21
-48.5
 31
0.0
  0
LINE
  5
3F5
330
3B3
100
AcDbEntity
  8
0
  6
Continuous
 62
     0
370
     0
100
AcDbLine
 10
-26.8467875173
 20
-46.5
 30
0.0
 11
-23.3826859022
 21
-44.5
 31
0.0
  0
LINE
  5
3F6
330
3B3
100
AcDbEntity
  8
0
  6
Continuous
 62
     0
370
     0
100
AcDbLine
 10
-30.3108891325
 20
-48.5
 30
0.0
 11
-32.7704012792
 21
-49.92
 31
0.0
  0
LINE
  5
3F7
330
3B3
100
AcDbEntity
  8
0
  6
Continuous
 62
     0
370
     0
100
AcDbLine
 10
-23.3826859022
 20
-44.5
 30
0.0
 11
-20.9231737554
 21
-43.08
 31
0.0
  0
LINE
  5
3F8
330
3B3
100
AcDbEntity
  8
0
  6
Continuous
 62
     0
370
     0
100
AcDbLine
 10
-31.0
 20
-31.0
 30
0.0
 11
-35.0
 21
-31.0
 31
0.0
  0
LINE
  5
3F9
330
3B3
100
AcDbEntity
  8
0
  6
Continuous
 62
     0
370
     0
100
AcDbLine
 10
-31.0
 20
-31.0
 30
0.0
 11
-27.0
 21
-31.0
 31
0.0
  0
LINE
  5
3FA
330
3B3
100
AcDbEntity
  8
0
  6
Continuous
 62
     0
370
     0
100
AcDbLine
 10
-35.0
 20
-31.0
 30
0.0
 11
-37.84
 21
-31.0
 31
0.0
  0
LINE
  5
3FB
330
3B3
100
AcDbEntity
  8
0
  6
Continuous
 62
     0
370
     0
100
AcDbLine
 10
-27.0
 20
-31.0
 30
0.0
 11
-24.16
 21
-31.0
 31
0.0
  0
ENDBLK
  5
3B5
330
3B3
100
AcDbEntity
  8
0
100
AcDbBlockEnd
  0
BLOCK
  5
3FE
330
3FD
100
AcDbEntity
  8
0
100
AcDbBlockBegin
  2
SW_CENTERMARKSYMBOL_5
 70
     0
 10
0.0
 20
0.0
 30
0.0
  3
SW_CENTERMARKSYMBOL_5
  1

  0
LINE
  5
400
330
3FD
100
AcDbEntity
  8
0
  6
Continuous
 62
     0
370
     0
100
AcDbLine
 10
0.0
 20
0.0
 30
0.0
 11
0.0
 21
4.0
 31
0.0
  0
LINE
  5
401
330
3FD
100
AcDbEntity
  8
0
  6
Continuous
 62
     0
370
     0
100
AcDbLine
 10
0.0
 20
0.0
 30
0.0
 11
-4.0
 21
0.0
 31
0.0
  0
LINE
  5
402
330
3FD
100
AcDbEntity
  8
0
  6
Continuous
 62
     0
370
     0
100
AcDbLine
 10
0.0
 20
0.0
 30
0.0
 11
0.0
 21
-4.0
 31
0.0
  0
LINE
  5
403
330
3FD
100
AcDbEntity
  8
0
  6
Continuous
 62
     0
370
     0
100
AcDbLine
 10
0.0
 20
0.0
 30
0.0
 11
4.0
 21
0.0
 31
0.0
  0
LINE
  5
404
330
3FD
100
AcDbEntity
  8
0
  6
Continuous
 62
     0
370
     0
100
AcDbLine
 10
0.0
 20
8.0
 30
0.0
 11
0.0
 21
60.5
 31
0.0
  0
LINE
  5
405
330
3FD
100
AcDbEntity
  8
0
  6
Continuous
 62
     0
370
     0
100
AcDbLine
 10
-8.0
 20
0.0
 30
0.0
 11
-60.5
 21
0.0
 31
0.0
  0
LINE
  5
406
330
3FD
100
AcDbEntity
  8
0
  6
Continuous
 62
     0
370
     0
100
AcDbLine
 10
0.0
 20
-8.0
 30
0.0
 11
0.0
 21
-60.5
 31
0.0
  0
LINE
  5
407
330
3FD
100
AcDbEntity
  8
0
  6
Continuous
 62
     0
370
     0
100
AcDbLine
 10
8.0
 20
0.0
 30
0.0
 11
60.5
 21
0.0
 31
0.0
  0
ENDBLK
  5
3FF
330
3FD
100
AcDbEntity
  8
0
100
AcDbBlockEnd
  0
BLOCK
  5
40A
330
409
100
AcDbEntity
  8
0
100
AcDbBlockBegin
  2
SW_CENTERMARKSYMBOL_6
 70
     0
 10
0.0
 20
0.0
 30
0.0
  3
SW_CENTERMARKSYMBOL_6
  1

  0
ARC
  5
40C
330
409
100
AcDbEntity
  8
0
  6
Continuous
 62
     0
370
     0
100
AcDbCircle
 10
0.0
 20
-51.0
 30
0.0
 40
51.00000000000004
100
AcDbArc
 50
90.0
 51
94.4937866285
  0
ARC
  5
40D
330
409
100
AcDbEntity
  8
0
  6
Continuous
 62
     0
370
     0
100
AcDbCircle
 10
0.0
 20
-51.0
 30
0.0
 40
51.00000000000004
100
AcDbArc
 50
85.5062133715
 51
90.0
  0
ARC
  5
40E
330
409
100
AcDbEntity
  8
0
  6
Continuous
 62
     0
370
     0
100
AcDbCircle
 10
0.0
 20
-51.0
 30
0.0
 40
51.00000000000002
100
AcDbArc
 50
60.0
 51
64.4937866285
  0
ARC
  5
40F
330
409
100
AcDbEntity
  8
0
  6
Continuous
 62
     0
370
     0
100
AcDbCircle
 10
0.0
 20
-51.0
 30
0.0
 40
51.00000000000002
100
AcDbArc
 50
55.5062133715
 51
60.0
  0
ARC
  5
410
330
409
100
AcDbEntity
  8
0
  6
Continuous
 62
     0
370
     0
100
AcDbCircle
 10
0.0
 20
-51.0
 30
0.0
 40
51.00000000000003
100
AcDbArc
 50
30.0
 51
34.4937866285
  0
ARC
  5
411
330
409
100
AcDbEntity
  8
0
  6
Continuous
 62
     0
370
     0
100
AcDbCircle
 10
0.0
 20
-51.0
 30
0.0
 40
51.00000000000003
100
AcDbArc
 50
25.5062133715
 51
30.0
  0
ARC
  5
412
330
409
100
AcDbEntity
  8
0
  6
Continuous
 62
     0
370
     0
100
AcDbCircle
 10
0.0
 20
-51.0
 30
0.0
 40
51.00000000000002
100
AcDbArc
 50
15.0
 51
19.4937866285
  0
ARC
  5
413
330
409
100
AcDbEntity
  8
0
  6
Continuous
 62
     0
370
     0
100
AcDbCircle
 10
0.0
 20
-51.0
 30
0.0
 40
51.00000000000002
100
AcDbArc
 50
10.5062133715
 51
15.0
  0
ARC
  5
414
330
409
100
AcDbEntity
  8
0
  6
Continuous
 62
     0
370
     0
100
AcDbCircle
 10
0.0
 20
-51.0
 30
0.0
 40
51.00000000000002
100
AcDbArc
 50
0.0
 51
4.4937866285
  0
ARC
  5
415
330
409
100
AcDbEntity
  8
0
  6
Continuous
 62
     0
370
     0
100
AcDbCircle
 10
0.0
 20
-51.0
 30
0.0
 40
51.00000000000002
100
AcDbArc
 50
355.5062133715
 51
0.0
  0
ARC
  5
416
330
409
100
AcDbEntity
  8
0
  6
Continuous
 62
     0
370
     0
100
AcDbCircle
 10
0.0
 20
-51.0
 30
0.0
 40
51.00000000000001
100
AcDbArc
 50
330.0
 51
334.4937866285
  0
ARC
  5
417
330
409
100
AcDbEntity
  8
0
  6
Continuous
 62
     0
370
     0
100
AcDbCircle
 10
0.0
 20
-51.0
 30
0.0
 40
51.00000000000001
100
AcDbArc
 50
325.5062133715
 51
330.0
  0
ARC
  5
418
330
409
100
AcDbEntity
  8
0
  6
Continuous
 62
     0
370
     0
100
AcDbCircle
 10
0.0
 20
-51.0
 30
0.0
 40
50.99999999999998
100
AcDbArc
 50
300.0
 51
304.4937866285
  0
ARC
  5
419
330
409
100
AcDbEntity
  8
0
  6
Continuous
 62
     0
370
     0
100
AcDbCircle
 10
0.0
 20
-51.0
 30
0.0
 40
50.99999999999999
100
AcDbArc
 50
295.5062133715
 51
300.0
  0
ARC
  5
41A
330
409
100
AcDbEntity
  8
0
  6
Continuous
 62
     0
370
     0
100
AcDbCircle
 10
0.0
 20
-51.0
 30
0.0
 40
50.99999999999997
100
AcDbArc
 50
285.0
 51
289.4937866285
  0
ARC
  5
41B
330
409
100
AcDbEntity
  8
0
  6
Continuous
 62
     0
370
     0
100
AcDbCircle
 10
0.0
 20
-51.0
 30
0.0
 40
50.99999999999999
100
AcDbArc
 50
280.5062133715
 51
285.0
  0
ARC
  5
41C
330
409
100
AcDbEntity
  8
0
  6
Continuous
 62
     0
370
     0
100
AcDbCircle
 10
0.0
 20
-51.0
 30
0.0
 40
50.99999999999997
100
AcDbArc
 50
270.0
 51
274.4937866285
  0
ARC
  5
41D
330
409
100
AcDbEntity
  8
0
  6
Continuous
 62
     0
370
     0
100
AcDbCircle
 10
0.0
 20
-51.0
 30
0.0
 40
50.99999999999997
100
AcDbArc
 50
265.5062133715
 51
270.0
  0
ARC
  5
41E
330
409
100
AcDbEntity
  8
0
  6
Continuous
 62
     0
370
     0
100
AcDbCircle
 10
0.0
 20
-51.0
 30
0.0
 40
50.99999999999997
100
AcDbArc
 50
240.0
 51
244.4937866285
  0
ARC
  5
41F
330
409
100
AcDbEntity
  8
0
  6
Continuous
 62
     0
370
     0
100
AcDbCircle
 10
0.0
 20
-51.0
 30
0.0
 40
50.99999999999997
100
AcDbArc
 50
235.5062133715
 51
240.0
  0
ARC
  5
420
330
409
100
AcDbEntity
  8
0
  6
Continuous
 62
     0
370
     0
100
AcDbCircle
 10
0.0
 20
-51.0
 30
0.0
 40
50.99999999999998
100
AcDbArc
 50
210.0
 51
214.4937866285
  0
ARC
  5
421
330
409
100
AcDbEntity
  8
0
  6
Continuous
 62
     0
370
     0
100
AcDbCircle
 10
0.0
 20
-51.0
 30
0.0
 40
50.99999999999998
100
AcDbArc
 50
205.5062133715
 51
210.0
  0
ARC
  5
422
330
409
100
AcDbEntity
  8
0
  6
Continuous
 62
     0
370
     0
100
AcDbCircle
 10
0.0
 20
-51.0
 30
0.0
 40
50.99999999999999
100
AcDbArc
 50
195.0
 51
199.4937866285
  0
ARC
  5
423
330
409
100
AcDbEntity
  8
0
  6
Continuous
 62
     0
370
     0
100
AcDbCircle
 10
0.0
 20
-51.0
 30
0.0
 40
50.99999999999999
100
AcDbArc
 50
190.5062133715
 51
195.0
  0
ARC
  5
424
330
409
100
AcDbEntity
  8
0
  6
Continuous
 62
     0
370
     0
100
AcDbCircle
 10
0.0
 20
-51.0
 30
0.0
 40
50.99999999999999
100
AcDbArc
 50
180.0
 51
184.4937866285
  0
ARC
  5
425
330
409
100
AcDbEntity
  8
0
  6
Continuous
 62
     0
370
     0
100
AcDbCircle
 10
0.0
 20
-51.0
 30
0.0
 40
50.99999999999999
100
AcDbArc
 50
175.5062133715
 51
180.0
  0
ARC
  5
426
330
409
100
AcDbEntity
  8
0
  6
Continuous
 62
     0
370
     0
100
AcDbCircle
 10
0.0
 20
-51.0
 30
0.0
 40
51.00000000000001
100
AcDbArc
 50
150.0
 51
154.4937866285
  0
ARC
  5
427
330
409
100
AcDbEntity
  8
0
  6
Continuous
 62
     0
370
     0
100
AcDbCircle
 10
0.0
 20
-51.0
 30
0.0
 40
51.00000000000002
100
AcDbArc
 50
145.5062133715
 51
150.0
  0
ARC
  5
428
330
409
100
AcDbEntity
  8
0
  6
Continuous
 62
     0
370
     0
100
AcDbCircle
 10
0.0
 20
-51.0
 30
0.0
 40
51.00000000000001
100
AcDbArc
 50
120.0
 51
124.4937866285
  0
ARC
  5
429
330
409
100
AcDbEntity
  8
0
  6
Continuous
 62
     0
370
     0
100
AcDbCircle
 10
0.0
 20
-51.0
 30
0.0
 40
51.00000000000002
100
AcDbArc
 50
115.5062133715
 51
120.0
  0
ARC
  5
42A
330
409
100
AcDbEntity
  8
0
  6
Continuous
 62
     0
370
     0
100
AcDbCircle
 10
0.0
 20
-51.0
 30
0.0
 40
51.00000000000002
100
AcDbArc
 50
105.0
 51
109.4937866285
  0
ARC
  5
42B
330
409
100
AcDbEntity
  8
0
  6
Continuous
 62
     0
370
     0
100
AcDbCircle
 10
0.0
 20
-51.0
 30
0.0
 40
51.00000000000001
100
AcDbArc
 50
100.5062133715
 51
105.0
  0
ARC
  5
42C
330
409
100
AcDbEntity
  8
0
  6
CENTERX2
 62
     0
370
     0
100
AcDbCircle
 10
0.0
 20
-51.0
 30
0.0
 40
51.00000000000003
100
AcDbArc
 50
38.987573257
 51
51.012426743
  0
ARC
  5
42D
330
409
100
AcDbEntity
  8
0
  6
CENTERX2
 62
     0
370
     0
100
AcDbCircle
 10
0.0
 20
-51.0
 30
0.0
 40
51.00000000000004
100
AcDbArc
 50
68.987573257
 51
81.012426743
  0
ARC
  5
42E
330
409
100
AcDbEntity
  8
0
  6
CENTERX2
 62
     0
370
     0
100
AcDbCircle
 10
0.0
 20
-51.0
 30
0.0
 40
51.00000000000003
100
AcDbArc
 50
338.987573257
 51
351.012426743
  0
ARC
  5
42F
330
409
100
AcDbEntity
  8
0
  6
CENTERX2
 62
     0
370
     0
100
AcDbCircle
 10
0.0
 20
-51.0
 30
0.0
 40
51.00000000000001
100
AcDbArc
 50
308.987573257
 51
321.012426743
  0
ARC
  5
430
330
409
100
AcDbEntity
  8
0
  6
CENTERX2
 62
     0
370
     0
100
AcDbCircle
 10
0.0
 20
-51.0
 30
0.0
 40
50.99999999999999
100
AcDbArc
 50
248.987573257
 51
261.012426743
  0
ARC
  5
431
330
409
100
AcDbEntity
  8
0
  6
CENTERX2
 62
     0
370
     0
100
AcDbCircle
 10
0.0
 20
-51.0
 30
0.0
 40
50.99999999999998
100
AcDbArc
 50
218.987573257
 51
231.012426743
  0
ARC
  5
432
330
409
100
AcDbEntity
  8
0
  6
CENTERX2
 62
     0
370
     0
100
AcDbCircle
 10
0.0
 20
-51.0
 30
0.0
 40
51.0
100
AcDbArc
 50
158.987573257
 51
171.012426743
  0
ARC
  5
433
330
409
100
AcDbEntity
  8
0
  6
CENTERX2
 62
     0
370
     0
100
AcDbCircle
 10
0.0
 20
-51.0
 30
0.0
 40
51.00000000000002
100
AcDbArc
 50
128.987573257
 51
141.012426743
  0
LINE
  5
434
330
409
100
AcDbEntity
  8
0
  6
Continuous
 62
     0
370
     0
100
AcDbLine
 10
0.0
 20
0.0
 30
0.0
 11
0.0
 21
4.0
 31
0.0
  0
LINE
  5
435
330
409
100
AcDbEntity
  8
0
  6
Continuous
 62
     0
370
     0
100
AcDbLine
 10
0.0
 20
0.0
 30
0.0
 11
0.0
 21
-4.0
 31
0.0
  0
LINE
  5
436
330
409
100
AcDbEntity
  8
0
  6
Continuous
 62
     0
370
     0
100
AcDbLine
 10
0.0
 20
4.0
 30
0.0
 11
0.0
 21
6.25
 31
0.0
  0
LINE
  5
437
330
409
100
AcDbEntity
  8
0
  6
Continuous
 62
     0
370
     0
100
AcDbLine
 10
0.0
 20
-4.0
 30
0.0
 11
0.0
 21
-6.25
 31
0.0
  0
LINE
  5
438
330
409
100
AcDbEntity
  8
0
  6
Continuous
 62
     0
370
     0
100
AcDbLine
 10
25.5
 20
-6.832704407
 30
0.0
 11
27.5
 21
-3.3686027919
 31
0.0
  0
LINE
  5
439
330
409
100
AcDbEntity
  8
0
  6
Continuous
 62
     0
370
     0
100
AcDbLine
 10
25.5
 20
-6.832704407
 30
0.0
 11
23.5
 21
-10.2968060221
 31
0.0
  0
LINE
  5
43A
330
409
100
AcDbEntity
  8
0
  6
Continuous
 62
     0
370
     0
100
AcDbLine
 10
27.5
 20
-3.3686027919
 30
0.0
 11
28.625
 21
-1.4200456333
 31
0.0
  0
LINE
  5
43B
330
409
100
AcDbEntity
  8
0
  6
Continuous
 62
     0
370
     0
100
AcDbLine
 10
23.5
 20
-10.2968060221
 30
0.0
 11
22.375
 21
-12.2453631806
 31
0.0
  0
LINE
  5
43C
330
409
100
AcDbEntity
  8
0
  6
Continuous
 62
     0
370
     0
100
AcDbLine
 10
44.167295593
 20
-25.5
 30
0.0
 11
47.6313972081
 21
-23.5
 31
0.0
  0
LINE
  5
43D
330
409
100
AcDbEntity
  8
0
  6
Continuous
 62
     0
370
     0
100
AcDbLine
 10
44.167295593
 20
-25.5
 30
0.0
 11
40.7031939779
 21
-27.5
 31
0.0
  0
LINE
  5
43E
330
409
100
AcDbEntity
  8
0
  6
Continuous
 62
     0
370
     0
100
AcDbLine
 10
47.6313972081
 20
-23.5
 30
0.0
 11
49.5799543667
 21
-22.375
 31
0.0
  0
LINE
  5
43F
330
409
100
AcDbEntity
  8
0
  6
Continuous
 62
     0
370
     0
100
AcDbLine
 10
40.7031939779
 20
-27.5
 30
0.0
 11
38.7546368194
 21
-28.625
 31
0.0
  0
LINE
  5
440
330
409
100
AcDbEntity
  8
0
  6
Continuous
 62
     0
370
     0
100
AcDbLine
 10
49.2622171407
 20
-37.8002286998
 30
0.0
 11
53.1259204459
 21
-36.7649525194
 31
0.0
  0
LINE
  5
441
330
409
100
AcDbEntity
  8
0
  6
Continuous
 62
     0
370
     0
100
AcDbLine
 10
49.2622171407
 20
-37.8002286998
 30
0.0
 11
45.3985138356
 21
-38.8355048802
 31
0.0
  0
LINE
  5
442
330
409
100
AcDbEntity
  8
0
  6
Continuous
 62
     0
370
     0
100
AcDbLine
 10
53.1259204459
 20
-36.7649525194
 30
0.0
 11
54.9128832245
 21
-36.2861372859
 31
0.0
  0
LINE
  5
443
330
409
100
AcDbEntity
  8
0
  6
Continuous
 62
     0
370
     0
100
AcDbLine
 10
45.3985138356
 20
-38.8355048802
 30
0.0
 11
43.611551057
 21
-39.3143201136
 31
0.0
  0
LINE
  5
444
330
409
100
AcDbEntity
  8
0
  6
Continuous
 62
     0
370
     0
100
AcDbLine
 10
51.0
 20
-51.0
 30
0.0
 11
55.0
 21
-51.0
 31
0.0
  0
LINE
  5
445
330
409
100
AcDbEntity
  8
0
  6
Continuous
 62
     0
370
     0
100
AcDbLine
 10
51.0
 20
-51.0
 30
0.0
 11
47.0
 21
-51.0
 31
0.0
  0
LINE
  5
446
330
409
100
AcDbEntity
  8
0
  6
Continuous
 62
     0
370
     0
100
AcDbLine
 10
55.0
 20
-51.0
 30
0.0
 11
57.6
 21
-51.0
 31
0.0
  0
LINE
  5
447
330
409
100
AcDbEntity
  8
0
  6
Continuous
 62
     0
370
     0
100
AcDbLine
 10
47.0
 20
-51.0
 30
0.0
 11
44.4
 21
-51.0
 31
0.0
  0
LINE
  5
448
330
409
100
AcDbEntity
  8
0
  6
Continuous
 62
     0
370
     0
100
AcDbLine
 10
44.167295593
 20
-76.5
 30
0.0
 11
47.6313972081
 21
-78.5
 31
0.0
  0
LINE
  5
449
330
409
100
AcDbEntity
  8
0
  6
Continuous
 62
     0
370
     0
100
AcDbLine
 10
44.167295593
 20
-76.5
 30
0.0
 11
40.7031939779
 21
-74.5
 31
0.0
  0
LINE
  5
44A
330
409
100
AcDbEntity
  8
0
  6
Continuous
 62
     0
370
     0
100
AcDbLine
 10
47.6313972081
 20
-78.5
 30
0.0
 11
49.883063258
 21
-79.8
 31
0.0
  0
LINE
  5
44B
330
409
100
AcDbEntity
  8
0
  6
Continuous
 62
     0
370
     0
100
AcDbLine
 10
40.7031939779
 20
-74.5
 30
0.0
 11
38.451527928
 21
-73.2
 31
0.0
  0
LINE
  5
44C
330
409
100
AcDbEntity
  8
0
  6
Continuous
 62
     0
370
     0
100
AcDbLine
 10
25.5
 20
-95.167295593
 30
0.0
 11
27.5
 21
-98.6313972081
 31
0.0
  0
LINE
  5
44D
330
409
100
AcDbEntity
  8
0
  6
Continuous
 62
     0
370
     0
100
AcDbLine
 10
25.5
 20
-95.167295593
 30
0.0
 11
23.5
 21
-91.7031939779
 31
0.0
  0
LINE
  5
44E
330
409
100
AcDbEntity
  8
0
  6
Continuous
 62
     0
370
     0
100
AcDbLine
 10
27.5
 20
-98.6313972081
 30
0.0
 11
28.8
 21
-100.883063258
 31
0.0
  0
LINE
  5
44F
330
409
100
AcDbEntity
  8
0
  6
Continuous
 62
     0
370
     0
100
AcDbLine
 10
23.5
 20
-91.7031939779
 30
0.0
 11
22.2
 21
-89.451527928
 31
0.0
  0
LINE
  5
450
330
409
100
AcDbEntity
  8
0
  6
Continuous
 62
     0
370
     0
100
AcDbLine
 10
13.1997713002
 20
-100.2622171407
 30
0.0
 11
14.2350474806
 21
-104.1259204459
 31
0.0
  0
LINE
  5
451
330
409
100
AcDbEntity
  8
0
  6
Continuous
 62
     0
370
     0
100
AcDbLine
 10
13.1997713002
 20
-100.2622171407
 30
0.0
 11
12.1644951198
 21
-96.3985138356
 31
0.0
  0
LINE
  5
452
330
409
100
AcDbEntity
  8
0
  6
Continuous
 62
     0
370
     0
100
AcDbLine
 10
14.2350474806
 20
-104.1259204459
 30
0.0
 11
14.7138627141
 21
-105.9128832245
 31
0.0
  0
LINE
  5
453
330
409
100
AcDbEntity
  8
0
  6
Continuous
 62
     0
370
     0
100
AcDbLine
 10
12.1644951198
 20
-96.3985138356
 30
0.0
 11
11.6856798864
 21
-94.611551057
 31
0.0
  0
LINE
  5
454
330
409
100
AcDbEntity
  8
0
  6
Continuous
 62
     0
370
     0
100
AcDbLine
 10
0.0
 20
-102.0
 30
0.0
 11
0.0
 21
-106.0
 31
0.0
  0
LINE
  5
455
330
409
100
AcDbEntity
  8
0
  6
Continuous
 62
     0
370
     0
100
AcDbLine
 10
0.0
 20
-102.0
 30
0.0
 11
0.0
 21
-98.0
 31
0.0
  0
LINE
  5
456
330
409
100
AcDbEntity
  8
0
  6
Continuous
 62
     0
370
     0
100
AcDbLine
 10
0.0
 20
-106.0
 30
0.0
 11
0.0
 21
-108.6
 31
0.0
  0
LINE
  5
457
330
409
100
AcDbEntity
  8
0
  6
Continuous
 62
     0
370
     0
100
AcDbLine
 10
0.0
 20
-98.0
 30
0.0
 11
0.0
 21
-95.4
 31
0.0
  0
LINE
  5
458
330
409
100
AcDbEntity
  8
0
  6
Continuous
 62
     0
370
     0
100
AcDbLine
 10
-25.5
 20
-95.167295593
 30
0.0
 11
-27.5
 21
-98.6313972081
 31
0.0
  0
LINE
  5
459
330
409
100
AcDbEntity
  8
0
  6
Continuous
 62
     0
370
     0
100
AcDbLine
 10
-25.5
 20
-95.167295593
 30
0.0
 11
-23.5
 21
-91.7031939779
 31
0.0
  0
LINE
  5
45A
330
409
100
AcDbEntity
  8
0
  6
Continuous
 62
     0
370
     0
100
AcDbLine
 10
-27.5
 20
-98.6313972081
 30
0.0
 11
-28.8
 21
-100.883063258
 31
0.0
  0
LINE
  5
45B
330
409
100
AcDbEntity
  8
0
  6
Continuous
 62
     0
370
     0
100
AcDbLine
 10
-23.5
 20
-91.7031939779
 30
0.0
 11
-22.2
 21
-89.451527928
 31
0.0
  0
LINE
  5
45C
330
409
100
AcDbEntity
  8
0
  6
Continuous
 62
     0
370
     0
100
AcDbLine
 10
-44.167295593
 20
-76.5
 30
0.0
 11
-47.6313972081
 21
-78.5
 31
0.0
  0
LINE
  5
45D
330
409
100
AcDbEntity
  8
0
  6
Continuous
 62
     0
370
     0
100
AcDbLine
 10
-44.167295593
 20
-76.5
 30
0.0
 11
-40.7031939779
 21
-74.5
 31
0.0
  0
LINE
  5
45E
330
409
100
AcDbEntity
  8
0
  6
Continuous
 62
     0
370
     0
100
AcDbLine
 10
-47.6313972081
 20
-78.5
 30
0.0
 11
-49.883063258
 21
-79.8
 31
0.0
  0
LINE
  5
45F
330
409
100
AcDbEntity
  8
0
  6
Continuous
 62
     0
370
     0
100
AcDbLine
 10
-40.7031939779
 20
-74.5
 30
0.0
 11
-38.451527928
 21
-73.2
 31
0.0
  0
LINE
  5
460
330
409
100
AcDbEntity
  8
0
  6
Continuous
 62
     0
370
     0
100
AcDbLine
 10
-49.2622171407
 20
-64.1997713002
 30
0.0
 11
-53.1259204459
 21
-65.2350474806
 31
0.0
  0
LINE
  5
461
330
409
100
AcDbEntity
  8
0
  6
Continuous
 62
     0
370
     0
100
AcDbLine
 10
-49.2622171407
 20
-64.1997713002
 30
0.0
 11
-45.3985138356
 21
-63.1644951198
 31
0.0
  0
LINE
  5
462
330
409
100
AcDbEntity
  8
0
  6
Continuous
 62
     0
370
     0
100
AcDbLine
 10
-53.1259204459
 20
-65.2350474806
 30
0.0
 11
-54.9128832245
 21
-65.7138627141
 31
0.0
  0
LINE
  5
463
330
409
100
AcDbEntity
  8
0
  6
Continuous
 62
     0
370
     0
100
AcDbLine
 10
-45.3985138356
 20
-63.1644951198
 30
0.0
 11
-43.611551057
 21
-62.6856798864
 31
0.0
  0
LINE
  5
464
330
409
100
AcDbEntity
  8
0
  6
Continuous
 62
     0
370
     0
100
AcDbLine
 10
-51.0
 20
-51.0
 30
0.0
 11
-55.0
 21
-51.0
 31
0.0
  0
LINE
  5
465
330
409
100
AcDbEntity
  8
0
  6
Continuous
 62
     0
370
     0
100
AcDbLine
 10
-51.0
 20
-51.0
 30
0.0
 11
-47.0
 21
-51.0
 31
0.0
  0
LINE
  5
466
330
409
100
AcDbEntity
  8
0
  6
Continuous
 62
     0
370
     0
100
AcDbLine
 10
-55.0
 20
-51.0
 30
0.0
 11
-57.6
 21
-51.0
 31
0.0
  0
LINE
  5
467
330
409
100
AcDbEntity
  8
0
  6
Continuous
 62
     0
370
     0
100
AcDbLine
 10
-47.0
 20
-51.0
 30
0.0
 11
-44.4
 21
-51.0
 31
0.0
  0
LINE
  5
468
330
409
100
AcDbEntity
  8
0
  6
Continuous
 62
     0
370
     0
100
AcDbLine
 10
-44.167295593
 20
-25.5
 30
0.0
 11
-47.6313972081
 21
-23.5
 31
0.0
  0
LINE
  5
469
330
409
100
AcDbEntity
  8
0
  6
Continuous
 62
     0
370
     0
100
AcDbLine
 10
-44.167295593
 20
-25.5
 30
0.0
 11
-40.7031939779
 21
-27.5
 31
0.0
  0
LINE
  5
46A
330
409
100
AcDbEntity
  8
0
  6
Continuous
 62
     0
370
     0
100
AcDbLine
 10
-47.6313972081
 20
-23.5
 30
0.0
 11
-49.883063258
 21
-22.2
 31
0.0
  0
LINE
  5
46B
330
409
100
AcDbEntity
  8
0
  6
Continuous
 62
     0
370
     0
100
AcDbLine
 10
-40.7031939779
 20
-27.5
 30
0.0
 11
-38.451527928
 21
-28.8
 31
0.0
  0
LINE
  5
46C
330
409
100
AcDbEntity
  8
0
  6
Continuous
 62
     0
370
     0
100
AcDbLine
 10
-25.5
 20
-6.832704407
 30
0.0
 11
-27.5
 21
-3.3686027919
 31
0.0
  0
LINE
  5
46D
330
409
100
AcDbEntity
  8
0
  6
Continuous
 62
     0
370
     0
100
AcDbLine
 10
-25.5
 20
-6.832704407
 30
0.0
 11
-23.5
 21
-10.2968060221
 31
0.0
  0
LINE
  5
46E
330
409
100
AcDbEntity
  8
0
  6
Continuous
 62
     0
370
     0
100
AcDbLine
 10
-27.5
 20
-3.3686027919
 30
0.0
 11
-28.8
 21
-1.116936742
 31
0.0
  0
LINE
  5
46F
330
409
100
AcDbEntity
  8
0
  6
Continuous
 62
     0
370
     0
100
AcDbLine
 10
-23.5
 20
-10.2968060221
 30
0.0
 11
-22.2
 21
-12.548472072
 31
0.0
  0
LINE
  5
470
330
409
100
AcDbEntity
  8
0
  6
Continuous
 62
     0
370
     0
100
AcDbLine
 10
-13.1997713002
 20
-1.7377828593
 30
0.0
 11
-14.2350474806
 21
2.1259204459
 31
0.0
  0
LINE
  5
471
330
409
100
AcDbEntity
  8
0
  6
Continuous
 62
     0
370
     0
100
AcDbLine
 10
-13.1997713002
 20
-1.7377828593
 30
0.0
 11
-12.1644951198
 21
-5.6014861644
 31
0.0
  0
LINE
  5
472
330
409
100
AcDbEntity
  8
0
  6
Continuous
 62
     0
370
     0
100
AcDbLine
 10
-14.2350474806
 20
2.1259204459
 30
0.0
 11
-14.7138627141
 21
3.9128832245
 31
0.0
  0
LINE
  5
473
330
409
100
AcDbEntity
  8
0
  6
Continuous
 62
     0
370
     0
100
AcDbLine
 10
-12.1644951198
 20
-5.6014861644
 30
0.0
 11
-11.6856798864
 21
-7.388448943
 31
0.0
  0
ENDBLK
  5
40B
330
409
100
AcDbEntity
  8
0
100
AcDbBlockEnd
  0
ENDSEC
  0
SECTION
  2
ENTITIES
  0
INSERT
  5
89
330
1F
100
AcDbEntity
  8
注記
100
AcDbBlockReference
  2
SW_NOTE_0
 10
38.2489860104
 20
93.6000518556
 30
0.0
  0
CIRCLE
  5
8A
330
1F
100
AcDbEntity
  8
0
  6
Continuous
 62
     7
370
    35
100
AcDbCircle
 10
341.8457113354
 20
169.9833026566
 30
0.0
 40
1.25
  0
CIRCLE
  5
8B
330
1F
100
AcDbEntity
  8
0
  6
Continuous
 62
     7
370
    35
100
AcDbCircle
 10
367.8264734489
 20
184.9833026566
 30
0.0
 40
1.25
  0
CIRCLE
  5
8C
330
1F
100
AcDbEntity
  8
0
  6
Continuous
 62
     7
370
    35
100
AcDbCircle
 10
367.8264734489
 20
214.9833026566
 30
0.0
 40
1.249999999999943
  0
CIRCLE
  5
8D
330
1F
100
AcDbEntity
  8
0
  6
Continuous
 62
     7
370
    35
100
AcDbCircle
 10
341.8457113354
 20
199.9833026566
 30
0.0
 40
27.90000000000003
  0
CIRCLE
  5
8E
330
1F
100
AcDbEntity
  8
0
  6
Continuous
 62
     7
370
    35
100
AcDbCircle
 10
341.8457113354
 20
199.9833026566
 30
0.0
 40
32.20000000000005
  0
CIRCLE
  5
8F
330
1F
100
AcDbEntity
  8
0
  6
Continuous
 62
     7
370
    35
100
AcDbCircle
 10
315.8649492219
 20
184.9833026566
 30
0.0
 40
1.250000000000057
  0
CIRCLE
  5
90
330
1F
100
AcDbEntity
  8
0
  6
Continuous
 62
     7
370
    35
100
AcDbCircle
 10
341.8457113354
 20
229.9833026566
 30
0.0
 40
1.25
  0
CIRCLE
  5
91
330
1F
100
AcDbEntity
  8
0
  6
Continuous
 62
     7
370
    35
100
AcDbCircle
 10
315.8649492219
 20
214.9833026566
 30
0.0
 40
1.25
  0
CIRCLE
  5
92
330
1F
100
AcDbEntity
  8
0
  6
Continuous
 62
     7
370
    35
100
AcDbCircle
 10
341.8457113354
 20
199.9833026566
 30
0.0
 40
27.60000000000002
  0
CIRCLE
  5
93
330
1F
100
AcDbEntity
  8
0
  6
Continuous
 62
     7
370
    35
100
AcDbCircle
 10
341.8457113354
 20
199.9833026566
 30
0.0
 40
32.49999999999994
  0
LINE
  5
94
330
1F
100
AcDbEntity
  8
0
  6
Continuous
 62
     7
370
    35
100
AcDbLine
 10
328.6459400352
 20
149.2430688267
 30
0.0
 11
329.9259400352
 21
149.9820771713
 31
0.0
  0
LINE
  5
95
330
1F
100
AcDbEntity
  8
0
  6
Continuous
 62
     7
370
    35
100
AcDbLine
 10
329.9259400352
 20
149.9820771713
 30
0.0
 11
329.9259400352
 21
151.4600938604
 31
0.0
  0
LINE
  5
96
330
1F
100
AcDbEntity
  8
0
  6
Continuous
 62
     7
370
    35
100
AcDbLine
 10
329.9259400352
 20
151.4600938604
 30
0.0
 11
328.6459400352
 21
152.1991022049
 31
0.0
  0
LINE
  5
97
330
1F
100
AcDbEntity
  8
0
  6
Continuous
 62
     7
370
    35
100
AcDbLine
 10
328.6459400352
 20
152.1991022049
 30
0.0
 11
327.3659400352
 21
151.4600938604
 31
0.0
  0
LINE
  5
98
330
1F
100
AcDbEntity
  8
0
  6
Continuous
 62
     7
370
    35
100
AcDbLine
 10
327.3659400352
 20
151.4600938604
 30
0.0
 11
327.3659400352
 21
149.9820771713
 31
0.0
  0
LINE
  5
99
330
1F
100
AcDbEntity
  8
0
  6
Continuous
 62
     7
370
    35
100
AcDbLine
 10
327.3659400352
 20
149.9820771713
 30
0.0
 11
328.6459400352
 21
149.2430688267
 31
0.0
  0
CIRCLE
  5
9A
330
1F
100
AcDbEntity
  8
0
  6
Continuous
 62
     7
370
    35
100
AcDbCircle
 10
328.6459400352
 20
150.7210855158
 30
0.0
 40
2.300000000000011
  0
CIRCLE
  5
9B
330
1F
100
AcDbEntity
  8
0
  6
Continuous
 62
     7
370
    35
100
AcDbCircle
 10
355.0454826356
 20
249.2455197973
 30
0.0
 40
2.300000000000011
  0
LINE
  5
9C
330
1F
100
AcDbEntity
  8
0
  6
Continuous
 62
     7
370
    35
100
AcDbLine
 10
355.0454826356
 20
250.7235364864
 30
0.0
 11
353.7654826356
 21
249.9845281419
 31
0.0
  0
LINE
  5
9D
330
1F
100
AcDbEntity
  8
0
  6
Continuous
 62
     7
370
    35
100
AcDbLine
 10
353.7654826356
 20
249.9845281419
 30
0.0
 11
353.7654826356
 21
248.5065114527
 31
0.0
  0
LINE
  5
9E
330
1F
100
AcDbEntity
  8
0
  6
Continuous
 62
     7
370
    35
100
AcDbLine
 10
353.7654826356
 20
248.5065114527
 30
0.0
 11
355.0454826356
 21
247.7675031082
 31
0.0
  0
LINE
  5
9F
330
1F
100
AcDbEntity
  8
0
  6
Continuous
 62
     7
370
    35
100
AcDbLine
 10
355.0454826356
 20
247.7675031082
 30
0.0
 11
356.3254826356
 21
248.5065114527
 31
0.0
  0
LINE
  5
A0
330
1F
100
AcDbEntity
  8
0
  6
Continuous
 62
     7
370
    35
100
AcDbLine
 10
356.3254826356
 20
248.5065114527
 30
0.0
 11
356.3254826356
 21
249.9845281419
 31
0.0
  0
LINE
  5
A1
330
1F
100
AcDbEntity
  8
0
  6
Continuous
 62
     7
370
    35
100
AcDbLine
 10
356.3254826356
 20
249.9845281419
 30
0.0
 11
355.0454826356
 21
250.7235364864
 31
0.0
  0
LINE
  5
A2
330
1F
100
AcDbEntity
  8
0
  6
Continuous
 62
     7
370
    35
100
AcDbLine
 10
392.5859451653
 20
186.7835313563
 30
0.0
 11
391.8469368207
 21
188.0635313563
 31
0.0
  0
LINE
  5
A3
330
1F
100
AcDbEntity
  8
0
  6
Continuous
 62
     7
370
    35
100
AcDbLine
 10
391.8469368207
 20
188.0635313563
 30
0.0
 11
390.3689201316
 21
188.0635313563
 31
0.0
  0
LINE
  5
A4
330
1F
100
AcDbEntity
  8
0
  6
Continuous
 62
     7
370
    35
100
AcDbLine
 10
389.629911787
 20
186.7835313563
 30
0.0
 11
390.3689201316
 21
185.5035313563
 31
0.0
  0
LINE
  5
A5
330
1F
100
AcDbEntity
  8
0
  6
Continuous
 62
     7
370
    35
100
AcDbLine
 10
390.3689201316
 20
185.5035313563
 30
0.0
 11
391.8469368207
 21
185.5035313563
 31
0.0
  0
LINE
  5
A6
330
1F
100
AcDbEntity
  8
0
  6
Continuous
 62
     7
370
    35
100
AcDbLine
 10
391.8469368207
 20
185.5035313563
 30
0.0
 11
392.5859451653
 21
186.7835313563
 31
0.0
  0
LINE
  5
A7
330
1F
100
AcDbEntity
  8
0
  6
Continuous
 62
     7
370
    35
100
AcDbLine
 10
390.3689201316
 20
188.0635313563
 30
0.0
 11
389.629911787
 21
186.7835313563
 31
0.0
  0
CIRCLE
  5
A8
330
1F
100
AcDbEntity
  8
0
  6
Continuous
 62
     7
370
    35
100
AcDbCircle
 10
391.1079284761
 20
186.7835313563
 30
0.0
 40
2.299999999999983
  0
LINE
  5
A9
330
1F
100
AcDbEntity
  8
0
  6
Continuous
 62
     7
370
    35
100
AcDbLine
 10
291.1054775055
 20
213.1830739568
 30
0.0
 11
291.8444858501
 21
211.9030739568
 31
0.0
  0
LINE
  5
AA
330
1F
100
AcDbEntity
  8
0
  6
Continuous
 62
     7
370
    35
100
AcDbLine
 10
291.8444858501
 20
211.9030739568
 30
0.0
 11
293.3225025392
 21
211.9030739568
 31
0.0
  0
LINE
  5
AB
330
1F
100
AcDbEntity
  8
0
  6
Continuous
 62
     7
370
    35
100
AcDbLine
 10
293.3225025392
 20
211.9030739568
 30
0.0
 11
294.0615108838
 21
213.1830739568
 31
0.0
  0
LINE
  5
AC
330
1F
100
AcDbEntity
  8
0
  6
Continuous
 62
     7
370
    35
100
AcDbLine
 10
294.0615108838
 20
213.1830739568
 30
0.0
 11
293.3225025392
 21
214.4630739568
 31
0.0
  0
LINE
  5
AD
330
1F
100
AcDbEntity
  8
0
  6
Continuous
 62
     7
370
    35
100
AcDbLine
 10
293.3225025392
 20
214.4630739568
 30
0.0
 11
291.8444858501
 21
214.4630739568
 31
0.0
  0
LINE
  5
AE
330
1F
100
AcDbEntity
  8
0
  6
Continuous
 62
     7
370
    35
100
AcDbLine
 10
291.8444858501
 20
214.4630739568
 30
0.0
 11
291.1054775055
 21
213.1830739568
 31
0.0
  0
CIRCLE
  5
AF
330
1F
100
AcDbEntity
  8
0
  6
Continuous
 62
     7
370
    35
100
AcDbCircle
 10
292.5834941946
 20
213.1830739568
 30
0.0
 40
2.299999999999983
  0
LINE
  5
B0
330
1F
100
AcDbEntity
  8
0
  6
Continuous
 62
     7
370
    35
100
AcDbLine
 10
305.2000296783
 20
215.1624410013
 30
0.0
 11
303.3476512156
 21
215.9297212832
 31
0.0
  0
LINE
  5
B1
330
1F
100
AcDbEntity
  8
0
  6
Continuous
 62
     7
370
    35
100
AcDbLine
 10
302.5808312037
 20
183.719256781
 30
0.0
 11
305.2000296783
 21
184.8041643118
 31
0.0
  0
ARC
  5
B2
330
1F
100
AcDbEntity
  8
0
  6
Continuous
 62
     7
370
    35
100
AcDbCircle
 10
276.7510261599
 20
238.8991608926
 30
0.0
 40
35.14221991172546
100
AcDbArc
 50
319.1853763026
 51
342.7481730121
  0
ARC
  5
B3
330
1F
100
AcDbEntity
  8
0
  6
Continuous
 62
     7
370
    35
100
AcDbCircle
 10
341.8457113354
 20
199.9833026566
 30
0.0
 40
39.66499999999998
100
AcDbArc
 50
202.5
 51
157.5
  0
CIRCLE
  5
B4
330
1F
100
AcDbEntity
  8
0
  6
Continuous
 62
     7
370
    35
100
AcDbCircle
 10
341.8457113354
 20
199.9833026566
 30
0.0
 40
39.64285714285717
  0
CIRCLE
  5
B5
330
1F
100
AcDbEntity
  8
0
  6
Continuous
 62
     7
370
    35
100
AcDbCircle
 10
341.8457113354
 20
199.9833026566
 30
0.0
 40
35.35714285714289
  0
CIRCLE
  5
B6
330
1F
100
AcDbEntity
  8
0
  6
Continuous
 62
     7
370
    35
100
AcDbCircle
 10
341.8457113354
 20
199.9833026566
 30
0.0
 40
27.55000000000001
  0
CIRCLE
  5
B7
330
1F
100
AcDbEntity
  8
0
  6
Continuous
 62
     7
370
    35
100
AcDbCircle
 10
341.8457113354
 20
199.9833026566
 30
0.0
 40
42.49999999999994
  0
CIRCLE
  5
B8
330
1F
100
AcDbEntity
  8
0
  6
Continuous
 62
     7
370
    35
100
AcDbCircle
 10
341.8457113354
 20
199.9833026566
 30
0.0
 40
46.74999999999994
  0
CIRCLE
  5
B9
330
1F
100
AcDbEntity
  8
0
  6
Continuous
 62
     7
370
    35
100
AcDbCircle
 10
341.8457113354
 20
199.9833026566
 30
0.0
 40
47.75
  0
CIRCLE
  5
BA
330
1F
100
AcDbEntity
  8
0
  6
Continuous
 62
     7
370
    35
100
AcDbCircle
 10
341.8457113354
 20
199.9833026566
 30
0.0
 40
48.0
  0
CIRCLE
  5
BB
330
1F
100
AcDbEntity
  8
0
  6
Continuous
 62
     7
370
    35
100
AcDbCircle
 10
341.8457113354
 20
199.9833026566
 30
0.0
 40
56.5
  0
CIRCLE
  5
BC
330
1F
100
AcDbEntity
  8
0
  6
Continuous
 62
     7
370
    35
100
AcDbCircle
 10
341.8457113354
 20
199.9833026566
 30
0.0
 40
56.0
  0
CIRCLE
  5
BD
330
1F
100
AcDbEntity
  8
0
  6
Continuous
 62
     7
370
    35
100
AcDbCircle
 10
341.8457113354
 20
250.9833026566
 30
0.0
 40
2.249999999999943
  0
CIRCLE
  5
BE
330
1F
100
AcDbEntity
  8
0
  6
Continuous
 62
     7
370
    35
100
AcDbCircle
 10
386.0130069284
 20
174.4833026566
 30
0.0
 40
2.25
  0
CIRCLE
  5
BF
330
1F
100
AcDbEntity
  8
0
  6
Continuous
 62
     7
370
    35
100
AcDbCircle
 10
367.3457113354
 20
244.1505982496
 30
0.0
 40
2.25
  0
CIRCLE
  5
C0
330
1F
100
AcDbEntity
  8
0
  6
Continuous
 62
     7
370
    35
100
AcDbCircle
 10
328.6459400352
 20
150.7210855158
 30
0.0
 40
2.5
  0
CIRCLE
  5
C1
330
1F
100
AcDbEntity
  8
0
  6
Continuous
 62
     7
370
    35
100
AcDbCircle
 10
316.3457113354
 20
244.1505982496
 30
0.0
 40
2.25
  0
CIRCLE
  5
C2
330
1F
100
AcDbEntity
  8
0
  6
Continuous
 62
     7
370
    35
100
AcDbCircle
 10
355.0454826356
 20
249.2455197973
 30
0.0
 40
2.5
  0
CIRCLE
  5
C3
330
1F
100
AcDbEntity
  8
0
  6
Continuous
 62
     7
370
    35
100
AcDbCircle
 10
297.6784157424
 20
225.4833026566
 30
0.0
 40
2.25
  0
CIRCLE
  5
C4
330
1F
100
AcDbEntity
  8
0
  6
Continuous
 62
     7
370
    35
100
AcDbCircle
 10
392.8457113354
 20
199.9833026566
 30
0.0
 40
2.249999999999943
  0
CIRCLE
  5
C5
330
1F
100
AcDbEntity
  8
0
  6
Continuous
 62
     7
370
    35
100
AcDbCircle
 10
292.5834941946
 20
213.1830739568
 30
0.0
 40
2.5
  0
CIRCLE
  5
C6
330
1F
100
AcDbEntity
  8
0
  6
Continuous
 62
     7
370
    35
100
AcDbCircle
 10
341.8457113354
 20
148.9833026566
 30
0.0
 40
2.249999999999943
  0
CIRCLE
  5
C7
330
1F
100
AcDbEntity
  8
0
  6
Continuous
 62
     7
370
    35
100
AcDbCircle
 10
386.0130069284
 20
225.4833026566
 30
0.0
 40
2.25
  0
CIRCLE
  5
C8
330
1F
100
AcDbEntity
  8
0
  6
Continuous
 62
     7
370
    35
100
AcDbCircle
 10
290.8457113354
 20
199.9833026566
 30
0.0
 40
2.25
  0
CIRCLE
  5
C9
330
1F
100
AcDbEntity
  8
0
  6
Continuous
 62
     7
370
    35
100
AcDbCircle
 10
391.1079284761
 20
186.7835313563
 30
0.0
 40
2.5
  0
CIRCLE
  5
CA
330
1F
100
AcDbEntity
  8
0
  6
Continuous
 62
     7
370
    35
100
AcDbCircle
 10
316.3457113354
 20
155.8160070636
 30
0.0
 40
2.25
  0
CIRCLE
  5
CB
330
1F
100
AcDbEntity
  8
0
  6
Continuous
 62
     7
370
    35
100
AcDbCircle
 10
367.3457113354
 20
155.8160070636
 30
0.0
 40
2.25
  0
CIRCLE
  5
CC
330
1F
100
AcDbEntity
  8
0
  6
Continuous
 62
     7
370
    35
100
AcDbCircle
 10
297.6784157424
 20
174.4833026566
 30
0.0
 40
2.249999999999943
  0
INSERT
  5
138
330
1F
100
AcDbEntity
  8
0
  6
Continuous
 62
     7
370
     0
100
AcDbBlockReference
  2
SW_CENTERMARKSYMBOL_0
 10
341.8457113354
 20
250.9833026566
 30
0.0
  0
INSERT
  5
166
330
1F
100
AcDbEntity
  8
0
  6
Continuous
 62
     7
370
     0
100
AcDbBlockReference
  2
SW_CENTERMARKSYMBOL_1
 10
341.8457113354
 20
229.9833026566
 30
0.0
  0
INSERT
  5
172
330
1F
100
AcDbEntity
  8
0
  6
Continuous
 62
     7
370
     0
100
AcDbBlockReference
  2
SW_CENTERMARKSYMBOL_2
 10
341.8457113354
 20
199.9833026566
 30
0.0
  0
CIRCLE
  5
173
330
1F
100
AcDbEntity
  8
0
  6
Continuous
 62
     7
370
     0
100
AcDbCircle
 10
341.8457113354
 20
229.9833026566
 30
0.0
 40
1.500000013038687
  0
CIRCLE
  5
174
330
1F
100
AcDbEntity
  8
0
  6
Continuous
 62
     7
370
     0
100
AcDbCircle
 10
315.8649492219
 20
214.9833026566
 30
0.0
 40
1.500000191300785
  0
CIRCLE
  5
175
330
1F
100
AcDbEntity
  8
0
  6
Continuous
 62
     7
370
     0
100
AcDbCircle
 10
315.8649492219
 20
184.9833026566
 30
0.0
 40
1.499999518100765
  0
CIRCLE
  5
176
330
1F
100
AcDbEntity
  8
0
  6
Continuous
 62
     7
370
     0
100
AcDbCircle
 10
341.8457113354
 20
169.9833026566
 30
0.0
 40
1.500000013038687
  0
CIRCLE
  5
177
330
1F
100
AcDbEntity
  8
0
  6
Continuous
 62
     7
370
     0
100
AcDbCircle
 10
367.8264734489
 20
184.9833026566
 30
0.0
 40
1.500000191300671
  0
CIRCLE
  5
178
330
1F
100
AcDbEntity
  8
0
  6
Continuous
 62
     7
370
     0
100
AcDbCircle
 10
367.8264734489
 20
214.9833026566
 30
0.0
 40
1.499999518100537
  0
LINE
  5
179
330
1F
100
AcDbEntity
  8
0
  6
Continuous
 62
     7
370
    35
100
AcDbLine
 10
188.2666996966
 20
144.9833026566
 30
0.0
 11
201.4611781807
 21
144.9833026566
 31
0.0
  0
ARC
  5
17A
330
1F
100
AcDbEntity
  8
0
  6
Continuous
 62
     7
370
    35
100
AcDbCircle
 10
189.1111781807
 20
146.2230026566
 30
0.0
 40
1.499999999999986
100
AcDbArc
 50
205.8419327632
 51
235.7374717277
  0
LINE
  5
17B
330
1F
100
AcDbEntity
  8
0
  6
Continuous
 62
     7
370
    35
100
AcDbLine
 10
201.4611781807
 20
143.4833026566
 30
0.0
 11
212.4611781807
 21
143.4833026566
 31
0.0
  0
LINE
  5
17C
330
1F
100
AcDbEntity
  8
0
  6
Continuous
 62
     7
370
    35
100
AcDbLine
 10
212.4611781807
 20
143.4833026566
 30
0.0
 11
212.9611781807
 21
143.9833026566
 31
0.0
  0
LINE
  5
17D
330
1F
100
AcDbEntity
  8
0
  6
Continuous
 62
     7
370
    35
100
AcDbLine
 10
213.1611781807
 20
151.9833026566
 30
0.0
 11
232.9611781807
 21
151.9833026566
 31
0.0
  0
LINE
  5
17E
330
1F
100
AcDbEntity
  8
0
  6
Continuous
 62
     7
370
    35
100
AcDbLine
 10
232.9611781807
 20
247.9833026566
 30
0.0
 11
213.1611781807
 21
247.9833026566
 31
0.0
  0
LINE
  5
17F
330
1F
100
AcDbEntity
  8
0
  6
Continuous
 62
     7
370
    35
100
AcDbLine
 10
232.9611781807
 20
152.2333026566
 30
0.0
 11
244.2611781807
 21
152.2333026566
 31
0.0
  0
LINE
  5
180
330
1F
100
AcDbEntity
  8
0
  6
Continuous
 62
     7
370
    35
100
AcDbLine
 10
244.2611781807
 20
247.7333026566
 30
0.0
 11
232.9611781807
 21
247.7333026566
 31
0.0
  0
LINE
  5
181
330
1F
100
AcDbEntity
  8
0
  6
Continuous
 62
     7
370
    35
100
AcDbLine
 10
244.2611781807
 20
152.2333026566
 30
0.0
 11
245.2611781807
 21
153.2333026566
 31
0.0
  0
LINE
  5
182
330
1F
100
AcDbEntity
  8
0
  6
Continuous
 62
     7
370
    35
100
AcDbLine
 10
245.2611781807
 20
246.7333026566
 30
0.0
 11
244.2611781807
 21
247.7333026566
 31
0.0
  0
ARC
  5
183
330
1F
100
AcDbEntity
  8
0
  6
Continuous
 62
     7
370
    35
100
AcDbCircle
 10
213.1611781807
 20
151.7833026566
 30
0.0
 40
0.2000000000000171
100
AcDbArc
 50
90.0
 51
180.0
  0
ARC
  5
184
330
1F
100
AcDbEntity
  8
0
  6
Continuous
 62
     7
370
    35
100
AcDbCircle
 10
213.1611781807
 20
248.1833026566
 30
0.0
 40
0.2000000000000171
100
AcDbArc
 50
180.0
 51
270.0
  0
LINE
  5
185
330
1F
100
AcDbEntity
  8
0
  6
Continuous
 62
     7
370
    35
100
AcDbLine
 10
245.2611781807
 20
167.4833026566
 30
0.0
 11
247.9611781807
 21
167.4833026566
 31
0.0
  0
LINE
  5
186
330
1F
100
AcDbEntity
  8
0
  6
Continuous
 62
     7
370
    35
100
AcDbLine
 10
247.9611781807
 20
167.4833026566
 30
0.0
 11
248.2611781807
 21
167.7833026566
 31
0.0
  0
LINE
  5
187
330
1F
100
AcDbEntity
  8
0
  6
Continuous
 62
     7
370
    35
100
AcDbLine
 10
193.2611781807
 20
171.8233026566
 30
0.0
 11
190.4111781807
 21
171.8233026566
 31
0.0
  0
LINE
  5
188
330
1F
100
AcDbEntity
  8
0
  6
Continuous
 62
     7
370
    35
100
AcDbLine
 10
190.4111781807
 20
166.1433026566
 30
0.0
 11
193.2611781807
 21
166.1433026566
 31
0.0
  0
ARC
  5
189
330
1F
100
AcDbEntity
  8
0
  6
Continuous
 62
     7
370
    35
100
AcDbCircle
 10
190.4111781807
 20
166.2933026566
 30
0.0
 40
0.1500000000000057
100
AcDbArc
 50
180.0
 51
270.0
  0
ARC
  5
18A
330
1F
100
AcDbEntity
  8
0
  6
Continuous
 62
     7
370
    35
100
AcDbCircle
 10
190.4111781807
 20
171.6733026566
 30
0.0
 40
0.1500000000000057
100
AcDbArc
 50
90.0
 51
180.0
  0
ARC
  5
18B
330
1F
100
AcDbEntity
  8
0
  6
Continuous
 62
     7
370
    35
100
AcDbCircle
 10
193.3611781807
 20
170.5833026566
 30
0.0
 40
0.0999999999999943
100
AcDbArc
 50
180.0
 51
270.0
  0
ARC
  5
18C
330
1F
100
AcDbEntity
  8
0
  6
Continuous
 62
     7
370
    35
100
AcDbCircle
 10
193.3611781807
 20
167.3833026566
 30
0.0
 40
0.0999999999999943
100
AcDbArc
 50
90.0
 51
180.0
  0
LINE
  5
18D
330
1F
100
AcDbEntity
  8
0
  6
Continuous
 62
     7
370
    35
100
AcDbLine
 10
201.4670991286
 20
170.4833026566
 30
0.0
 11
193.3611781807
 21
170.4833026566
 31
0.0
  0
LINE
  5
18E
330
1F
100
AcDbEntity
  8
0
  6
Continuous
 62
     7
370
    35
100
AcDbLine
 10
193.3611781807
 20
167.4833026566
 30
0.0
 11
199.47721661
 21
167.4833026566
 31
0.0
  0
ARC
  5
18F
330
1F
100
AcDbEntity
  8
0
  6
Continuous
 62
     7
370
    35
100
AcDbCircle
 10
190.4111781807
 20
228.2933026566
 30
0.0
 40
0.1500000000000341
100
AcDbArc
 50
180.0
 51
270.0
  0
ARC
  5
190
330
1F
100
AcDbEntity
  8
0
  6
Continuous
 62
     7
370
    35
100
AcDbCircle
 10
190.4111781807
 20
233.6733026566
 30
0.0
 40
0.1500000000000057
100
AcDbArc
 50
90.0
 51
180.0
  0
LINE
  5
191
330
1F
100
AcDbEntity
  8
0
  6
Continuous
 62
     7
370
    35
100
AcDbLine
 10
193.2611781807
 20
233.8233026566
 30
0.0
 11
190.4111781807
 21
233.8233026566
 31
0.0
  0
LINE
  5
192
330
1F
100
AcDbEntity
  8
0
  6
Continuous
 62
     7
370
    35
100
AcDbLine
 10
190.4111781807
 20
228.1433026566
 30
0.0
 11
193.2611781807
 21
228.1433026566
 31
0.0
  0
ARC
  5
193
330
1F
100
AcDbEntity
  8
0
  6
Continuous
 62
     7
370
    35
100
AcDbCircle
 10
193.3611781807
 20
232.5833026566
 30
0.0
 40
0.0999999999999943
100
AcDbArc
 50
180.0
 51
270.0
  0
ARC
  5
194
330
1F
100
AcDbEntity
  8
0
  6
Continuous
 62
     7
370
    35
100
AcDbCircle
 10
193.3611781807
 20
229.3833026566
 30
0.0
 40
0.0999999999999943
100
AcDbArc
 50
90.0
 51
180.0
  0
LINE
  5
195
330
1F
100
AcDbEntity
  8
0
  6
Continuous
 62
     7
370
    35
100
AcDbLine
 10
199.4721016973
 20
232.4833026566
 30
0.0
 11
193.3611781807
 21
232.4833026566
 31
0.0
  0
LINE
  5
196
330
1F
100
AcDbEntity
  8
0
  6
Continuous
 62
     7
370
    35
100
AcDbLine
 10
193.3611781807
 20
229.4833026566
 30
0.0
 11
201.4670298608
 21
229.4833026566
 31
0.0
  0
LINE
  5
197
330
1F
100
AcDbEntity
  8
0
  6
Continuous
 62
     7
370
    35
100
AcDbLine
 10
193.2611781807
 20
218.3233026566
 30
0.0
 11
190.4111781807
 21
218.3233026566
 31
0.0
  0
LINE
  5
198
330
1F
100
AcDbEntity
  8
0
  6
Continuous
 62
     7
370
    35
100
AcDbLine
 10
190.4111781807
 20
212.6433026566
 30
0.0
 11
193.2611781807
 21
212.6433026566
 31
0.0
  0
ARC
  5
199
330
1F
100
AcDbEntity
  8
0
  6
Continuous
 62
     7
370
    35
100
AcDbCircle
 10
190.4111781807
 20
212.7933026566
 30
0.0
 40
0.1500000000000057
100
AcDbArc
 50
180.0
 51
270.0
  0
ARC
  5
19A
330
1F
100
AcDbEntity
  8
0
  6
Continuous
 62
     7
370
    35
100
AcDbCircle
 10
190.4111781807
 20
218.1733026566
 30
0.0
 40
0.1500000000000057
100
AcDbArc
 50
90.0
 51
180.0
  0
LINE
  5
19B
330
1F
100
AcDbEntity
  8
0
  6
Continuous
 62
     7
370
    35
100
AcDbLine
 10
193.2611781807
 20
175.9765151392
 30
0.0
 11
190.4111781807
 21
175.9765151392
 31
0.0
  0
ARC
  5
19C
330
1F
100
AcDbEntity
  8
0
  6
Continuous
 62
     7
370
    35
100
AcDbCircle
 10
190.4111781807
 20
175.8265151392
 30
0.0
 40
0.1500000000000341
100
AcDbArc
 50
90.0
 51
180.0
  0
LINE
  5
19D
330
1F
100
AcDbEntity
  8
0
  6
Continuous
 62
     7
370
    35
100
AcDbLine
 10
190.4111781807
 20
223.9900901739
 30
0.0
 11
193.2611781807
 21
223.9900901739
 31
0.0
  0
ARC
  5
19E
330
1F
100
AcDbEntity
  8
0
  6
Continuous
 62
     7
370
    35
100
AcDbCircle
 10
190.4111781807
 20
224.1400901739
 30
0.0
 40
0.1500000000000057
100
AcDbArc
 50
180.0
 51
270.0
  0
LINE
  5
19F
330
1F
100
AcDbEntity
  8
0
  6
Continuous
 62
     7
370
    35
100
AcDbLine
 10
193.2611781807
 20
202.8233026566
 30
0.0
 11
190.4111781807
 21
202.8233026566
 31
0.0
  0
LINE
  5
1A0
330
1F
100
AcDbEntity
  8
0
  6
Continuous
 62
     7
370
    35
100
AcDbLine
 10
190.4111781807
 20
197.1433026566
 30
0.0
 11
193.2611781807
 21
197.1433026566
 31
0.0
  0
ARC
  5
1A1
330
1F
100
AcDbEntity
  8
0
  6
Continuous
 62
     7
370
    35
100
AcDbCircle
 10
190.4111781807
 20
197.2933026566
 30
0.0
 40
0.1500000000000057
100
AcDbArc
 50
180.0
 51
270.0
  0
ARC
  5
1A2
330
1F
100
AcDbEntity
  8
0
  6
Continuous
 62
     7
370
    35
100
AcDbCircle
 10
190.4111781807
 20
202.6733026566
 30
0.0
 40
0.1500000000000057
100
AcDbArc
 50
90.0
 51
180.0
  0
LINE
  5
1A3
330
1F
100
AcDbEntity
  8
0
  6
Continuous
 62
     7
370
    35
100
AcDbLine
 10
193.2611781807
 20
187.3233026566
 30
0.0
 11
190.4111781807
 21
187.3233026566
 31
0.0
  0
LINE
  5
1A4
330
1F
100
AcDbEntity
  8
0
  6
Continuous
 62
     7
370
    35
100
AcDbLine
 10
190.4111781807
 20
181.6433026566
 30
0.0
 11
193.2611781807
 21
181.6433026566
 31
0.0
  0
ARC
  5
1A5
330
1F
100
AcDbEntity
  8
0
  6
Continuous
 62
     7
370
    35
100
AcDbCircle
 10
190.4111781807
 20
181.7933026566
 30
0.0
 40
0.1500000000000057
100
AcDbArc
 50
180.0
 51
270.0
  0
ARC
  5
1A6
330
1F
100
AcDbEntity
  8
0
  6
Continuous
 62
     7
370
    35
100
AcDbCircle
 10
190.4111781807
 20
187.1733026566
 30
0.0
 40
0.1500000000000057
100
AcDbArc
 50
90.0
 51
180.0
  0
LINE
  5
1A7
330
1F
100
AcDbEntity
  8
0
  6
Continuous
 62
     7
370
    35
100
AcDbLine
 10
188.7611781807
 20
242.6538910293
 30
0.0
 11
188.7611781807
 21
241.9833026566
 31
0.0
  0
LINE
  5
1A8
330
1F
100
AcDbEntity
  8
0
  6
Continuous
 62
     7
370
    35
100
AcDbLine
 10
188.7611781807
 20
157.9833026566
 30
0.0
 11
188.7611781807
 21
157.3127142838
 31
0.0
  0
LINE
  5
1A9
330
1F
100
AcDbEntity
  8
0
  6
Continuous
 62
     7
370
    35
100
AcDbLine
 10
187.9278448473
 20
157.9833026566
 30
0.0
 11
188.7140988564
 21
157.2839009535
 31
0.0
  0
LINE
  5
1AA
330
1F
100
AcDbEntity
  8
0
  6
Continuous
 62
     7
370
    35
100
AcDbLine
 10
188.7140988564
 20
242.6827043596
 30
0.0
 11
187.9278448473
 21
241.9833026566
 31
0.0
  0
ARC
  5
1AB
330
1F
100
AcDbEntity
  8
0
  6
Continuous
 62
     7
370
    35
100
AcDbCircle
 10
187.8611781807
 20
156.9523422934
 30
0.0
 40
0.0999999999999943
100
AcDbArc
 50
90.0
 51
180.0
  0
ARC
  5
1AC
330
1F
100
AcDbEntity
  8
0
  6
Continuous
 62
     7
370
    35
100
AcDbCircle
 10
187.8611781807
 20
243.0142630197
 30
0.0
 40
0.0999999999999943
100
AcDbArc
 50
180.0
 51
270.0
  0
LINE
  5
1AD
330
1F
100
AcDbEntity
  8
0
  6
Continuous
 62
     7
370
    35
100
AcDbLine
 10
187.7611781807
 20
156.9523422934
 30
0.0
 11
187.7611781807
 21
157.8166359899
 31
0.0
  0
LINE
  5
1AE
330
1F
100
AcDbEntity
  8
0
  6
Continuous
 62
     7
370
    35
100
AcDbLine
 10
187.7611781807
 20
242.1499693232
 30
0.0
 11
187.7611781807
 21
243.0142630197
 31
0.0
  0
ARC
  5
1AF
330
1F
100
AcDbEntity
  8
0
  6
Continuous
 62
     7
370
    18
100
AcDbCircle
 10
188.1611781807
 20
157.1523422934
 30
0.0
 40
0.1000000000000227
100
AcDbArc
 50
270.0
 51
0.0
  0
ARC
  5
1B0
330
1F
100
AcDbEntity
  8
0
  6
Continuous
 62
     7
370
    35
100
AcDbCircle
 10
188.1611781807
 20
242.8142630197
 30
0.0
 40
0.1000000000000227
100
AcDbArc
 50
0.0
 51
90.0
  0
LINE
  5
1B1
330
1F
100
AcDbEntity
  8
0
  6
Continuous
 62
     7
370
    18
100
AcDbLine
 10
187.8611781807
 20
157.0523422934
 30
0.0
 11
188.1611781807
 21
157.0523422934
 31
0.0
  0
LINE
  5
1B2
330
1F
100
AcDbEntity
  8
0
  6
Continuous
 62
     7
370
    35
100
AcDbLine
 10
188.1611781807
 20
242.9142630197
 30
0.0
 11
187.8611781807
 21
242.9142630197
 31
0.0
  0
ARC
  5
1B3
330
1F
100
AcDbEntity
  8
0
  6
Continuous
 62
     7
370
    18
100
AcDbCircle
 10
188.1611781807
 20
157.318387961
 30
0.0
 40
0.1000000000000227
100
AcDbArc
 50
360.0
 51
47.7622112206
  0
ARC
  5
1B4
330
1F
100
AcDbEntity
  8
0
  6
Continuous
 62
     7
370
    35
100
AcDbCircle
 10
188.1611781807
 20
242.6482173521
 30
0.0
 40
0.1000000000000227
100
AcDbArc
 50
312.2377887794
 51
0.0
  0
LINE
  5
1B5
330
1F
100
AcDbEntity
  8
0
  6
Continuous
 62
     7
370
    35
100
AcDbLine
 10
187.7611781807
 20
242.1499693232
 30
0.0
 11
188.2283990839
 21
242.5741812112
 31
0.0
  0
LINE
  5
1B6
330
1F
100
AcDbEntity
  8
0
  6
Continuous
 62
     7
370
    35
100
AcDbLine
 10
187.7611781807
 20
242.1499693232
 30
0.0
 11
187.7611781807
 21
241.9833026566
 31
0.0
  0
LINE
  5
1B7
330
1F
100
AcDbEntity
  8
0
  6
Continuous
 62
     7
370
    35
100
AcDbLine
 10
187.7611781807
 20
157.9833026566
 30
0.0
 11
187.7611781807
 21
157.8166359899
 31
0.0
  0
LINE
  5
1B8
330
1F
100
AcDbEntity
  8
0
  6
Continuous
 62
     7
370
    18
100
AcDbLine
 10
188.2283990839
 20
157.3924241019
 30
0.0
 11
187.7611781807
 21
157.8166359899
 31
0.0
  0
LINE
  5
1B9
330
1F
100
AcDbEntity
  8
0
  6
Continuous
 62
     7
370
    35
100
AcDbLine
 10
187.7611781807
 20
157.8166359899
 30
0.0
 11
187.9278448473
 21
157.9833026566
 31
0.0
  0
LINE
  5
1BA
330
1F
100
AcDbEntity
  8
0
  6
Continuous
 62
     7
370
    35
100
AcDbLine
 10
187.9278448473
 20
241.9833026566
 30
0.0
 11
187.7611781807
 21
242.1499693232
 31
0.0
  0
LINE
  5
1BB
330
1F
100
AcDbEntity
  8
0
  6
Continuous
 62
     7
370
    18
100
AcDbLine
 10
188.2611781807
 20
157.1523422934
 30
0.0
 11
188.2611781807
 21
157.318387961
 31
0.0
  0
LINE
  5
1BC
330
1F
100
AcDbEntity
  8
0
  6
Continuous
 62
     7
370
    35
100
AcDbLine
 10
187.7611781807
 20
156.7242194668
 30
0.0
 11
187.7611781807
 21
156.9523422934
 31
0.0
  0
LINE
  5
1BD
330
1F
100
AcDbEntity
  8
0
  6
Continuous
 62
     7
370
    35
100
AcDbLine
 10
188.2611781807
 20
242.6482173521
 30
0.0
 11
188.2611781807
 21
242.8142630197
 31
0.0
  0
LINE
  5
1BE
330
1F
100
AcDbEntity
  8
0
  6
Continuous
 62
     7
370
    35
100
AcDbLine
 10
187.7611781807
 20
243.0142630197
 30
0.0
 11
187.7611781807
 21
243.2423858463
 31
0.0
  0
LINE
  5
1BF
330
1F
100
AcDbEntity
  8
0
  6
Continuous
 62
     7
370
    18
100
AcDbLine
 10
190.2611781807
 20
158.2917231644
 30
0.0
 11
188.2611781807
 21
157.0174519401
 31
0.0
  0
LINE
  5
1C0
330
1F
100
AcDbEntity
  8
0
  6
Continuous
 62
     7
370
    35
100
AcDbLine
 10
188.2666996966
 20
157.0155841998
 30
0.0
 11
188.2666996966
 21
144.9833026566
 31
0.0
  0
SPLINE
  5
1C1
330
1F
100
AcDbEntity
  8
0
  6
Continuous
 62
     7
370
    18
100
AcDbSpline
210
0.0
220
0.0
230
1.0
 70
     8
 71
     3
 72
    17
 73
    13
 74
     0
 42
0.000000001
 43
0.00000001
 40
0.0
 40
0.0
 40
0.0
 40
0.0
 40
0.0224410843318461
 40
0.1189598419447522
 40
0.2147635597550383
 40
0.3105679098704587
 40
0.4069867652292904
 40
0.5034056621588204
 40
0.6268146851378951
 40
0.7502201396447192
 40
0.8751176732248487
 40
1.0
 40
1.0
 40
1.0
 40
1.0
 10
201.4285174875554
 20
170.412502608434
 30
0.0
 10
201.3531076195694
 20
170.2848425809972
 30
0.0
 10
200.9533610723869
 20
169.6081187443955
 30
0.0
 10
200.1786610428848
 20
168.4452212897208
 30
0.0
 10
199.1037671558962
 20
166.9278237376333
 30
0.0
 10
197.9732792667444
 20
165.477787066858
 30
0.0
 10
196.7900570558668
 20
164.0868408006468
 30
0.0
 10
195.4359363837868
 20
162.6344642259923
 30
0.0
 10
193.8952069401614
 20
161.1469618189082
 30
0.0
 10
192.1325613412607
 20
159.6506713184687
 30
0.0
 10
190.2741901617084
 20
158.2560346747865
 30
0.0
 10
188.9358360249517
 20
157.4290509089883
 30
0.0
 10
188.2666996966281
 20
157.0155841998178
 30
0.0
  0
LINE
  5
1C2
330
1F
100
AcDbEntity
  8
0
  6
Continuous
 62
     7
370
    35
100
AcDbLine
 10
203.9556566647
 20
254.9833026566
 30
0.0
 11
188.2666996966
 21
254.9833026566
 31
0.0
  0
ARC
  5
1C3
330
1F
100
AcDbEntity
  8
0
  6
Continuous
 62
     7
370
    35
100
AcDbCircle
 10
189.1111781807
 20
253.7436026566
 30
0.0
 40
1.49999999999996
100
AcDbArc
 50
124.2625282723
 51
154.1580672368
  0
SPLINE
  5
1C4
330
1F
100
AcDbEntity
  8
0
  6
Continuous
 62
     7
370
    18
100
AcDbSpline
210
0.0
220
0.0
230
1.0
 70
     8
 71
     3
 72
     9
 73
     5
 74
     0
 42
0.000000001
 43
0.00000001
 40
0.0
 40
0.0
 40
0.0
 40
0.0
 40
0.4946994457964866
 40
1.0
 40
1.0
 40
1.0
 40
1.0
 10
187.7611781806642
 20
156.7242194668223
 30
0.0
 10
187.8239882784532
 20
156.7596745923027
 30
0.0
 10
187.950954456246
 20
156.8313446250501
 30
0.0
 10
188.1607100691702
 20
156.9537385046333
 30
0.0
 10
188.2666996966281
 20
157.0155841998178
 30
0.0
  0
LINE
  5
1C5
330
1F
100
AcDbEntity
  8
0
  6
Continuous
 62
     7
370
    35
100
AcDbLine
 10
187.7611781807
 20
145.569167815
 30
0.0
 11
187.7611781807
 21
156.7242194668
 31
0.0
  0
ARC
  5
1C6
330
1F
100
AcDbEntity
  8
0
  6
Continuous
 62
     7
370
    35
100
AcDbCircle
 10
203.1111781807
 20
253.7436026566
 30
0.0
 40
1.500000000000011
100
AcDbArc
 50
25.8419327632
 51
55.7374717277
  0
SPLINE
  5
1C7
330
1F
100
AcDbEntity
  8
0
  6
Continuous
 62
     7
370
    18
100
AcDbSpline
210
0.0
220
0.0
230
1.0
 70
     8
 71
     3
 72
    17
 73
    13
 74
     0
 42
0.000000001
 43
0.00000001
 40
0.0
 40
0.0
 40
0.0
 40
0.0
 40
0.0933604073715974
 40
0.1867263426189639
 40
0.2808152422467978
 40
0.3749062594627173
 40
0.4682280850950924
 40
0.5615504311035936
 40
0.6554363935271614
 40
0.7493221039827248
 40
0.8771871567617978
 40
1.0
 40
1.0
 40
1.0
 40
1.0
 10
188.2666996966282
 20
242.9510211132959
 30
0.0
 10
188.7697302775866
 20
242.64390729848
 30
0.0
 10
189.7758212239767
 20
242.0296614846195
 30
0.0
 10
191.2077194637511
 20
241.0150783374101
 30
0.0
 10
192.590018589741
 20
239.934818067916
 30
0.0
 10
193.9152175683942
 20
238.7867402410766
 30
0.0
 10
195.1849573088397
 20
237.577795858584
 30
0.0
 10
196.4029690344002
 20
236.306814109815
 30
0.0
 10
197.5742421323272
 20
234.9717654588846
 30
0.0
 10
198.8325605711242
 20
233.4027292447377
 30
0.0
 10
200.1418304336642
 20
231.6104555303904
 30
0.0
 10
201.0168469892614
 20
230.2171020176062
 30
0.0
 10
201.4455376428082
 20
229.5344662158075
 30
0.0
  0
LINE
  5
1C8
330
1F
100
AcDbEntity
  8
0
  6
Continuous
 62
     7
370
    35
100
AcDbLine
 10
188.2666996966
 20
247.8109063621
 30
0.0
 11
188.2666996966
 21
242.9510211133
 31
0.0
  0
SPLINE
  5
1C9
330
1F
100
AcDbEntity
  8
0
  6
Continuous
 62
     7
370
    18
100
AcDbSpline
210
0.0
220
0.0
230
1.0
 70
     8
 71
     3
 72
    13
 73
     9
 74
     0
 42
0.000000001
 43
0.00000001
 40
0.0
 40
0.0
 40
0.0
 40
0.0
 40
0.1361034921003323
 40
0.298614926919598
 40
0.4611259906734086
 40
0.730014884425232
 40
0.8650094259775989
 40
1.0
 40
1.0
 40
1.0
 40
1.0
 10
201.461178180664
 20
247.460715963572
 30
0.0
 10
200.8612152699193
 20
247.4453888930793
 30
0.0
 10
199.5448796051852
 20
247.4117608651394
 30
0.0
 10
197.5091222787878
 20
247.405464763952
 30
0.0
 10
194.8884533272994
 20
247.438212058059
 30
0.0
 10
192.3937364864778
 20
247.5302499473979
 30
0.0
 10
190.0311922049675
 20
247.6693347076772
 30
0.0
 10
188.8548581038548
 20
247.7637162729195
 30
0.0
 10
188.2666996966282
 20
247.8109063620548
 30
0.0
  0
SPLINE
  5
1CA
330
1F
100
AcDbEntity
  8
0
  6
Continuous
 62
     7
370
    18
100
AcDbSpline
210
0.0
220
0.0
230
1.0
 70
     8
 71
     3
 72
     9
 73
     5
 74
     0
 42
0.000000001
 43
0.00000001
 40
0.0
 40
0.0
 40
0.0
 40
0.0
 40
0.4931552660527502
 40
0.9999999999999999
 40
0.9999999999999999
 40
0.9999999999999999
 40
0.9999999999999999
 10
187.7611781806644
 20
247.8553821314673
 30
0.0
 10
187.8163458165819
 20
247.8503743447742
 30
0.0
 10
187.928212483563
 20
247.8402197605332
 30
0.0
 10
188.1528455897083
 20
247.8207662642187
 30
0.0
 10
188.2666996966282
 20
247.8109063620548
 30
0.0
  0
SPLINE
  5
1CB
330
1F
100
AcDbEntity
  8
0
  6
Continuous
 62
     7
370
    18
100
AcDbSpline
210
0.0
220
0.0
230
1.0
 70
     8
 71
     3
 72
     9
 73
     5
 74
     0
 42
0.000000001
 43
0.00000001
 40
0.0
 40
0.0
 40
0.0
 40
0.0
 40
0.4944603009090696
 40
1.0
 40
1.0
 40
1.0
 40
1.0
 10
188.2666996966282
 20
242.9510211132959
 30
0.0
 10
188.1628433183895
 20
243.0116319443137
 30
0.0
 10
187.9528034465377
 20
243.134211716454
 30
0.0
 10
187.8255233316466
 20
243.2060624487215
 30
0.0
 10
187.7611781806642
 20
243.2423858462915
 30
0.0
  0
LINE
  5
1CC
330
1F
100
AcDbEntity
  8
0
  6
Continuous
 62
     7
370
    35
100
AcDbLine
 10
187.7611781807
 20
243.2423858463
 30
0.0
 11
187.7611781807
 21
247.8553821315
 31
0.0
  0
LINE
  5
1CD
330
1F
100
AcDbEntity
  8
0
  6
Continuous
 62
     7
370
    35
100
AcDbLine
 10
204.4611781807
 20
253.5833026566
 30
0.0
 11
204.1111781807
 21
253.2333026566
 31
0.0
  0
LINE
  5
1CE
330
1F
100
AcDbEntity
  8
0
  6
Continuous
 62
     7
370
    35
100
AcDbLine
 10
204.1111781807
 20
248.7333026566
 30
0.0
 11
204.4611781807
 21
248.3833026566
 31
0.0
  0
LINE
  5
1CF
330
1F
100
AcDbEntity
  8
0
  6
Continuous
 62
     7
370
    35
100
AcDbLine
 10
204.1111781807
 20
248.7333026566
 30
0.0
 11
204.1111781807
 21
253.2333026566
 31
0.0
  0
LINE
  5
1D0
330
1F
100
AcDbEntity
  8
0
  6
Continuous
 62
     7
370
    35
100
AcDbLine
 10
187.7611781807
 20
248.3833026566
 30
0.0
 11
188.1111781807
 21
248.7333026566
 31
0.0
  0
LINE
  5
1D1
330
1F
100
AcDbEntity
  8
0
  6
Continuous
 62
     7
370
    35
100
AcDbLine
 10
188.1111781807
 20
253.2333026566
 30
0.0
 11
187.7611781807
 21
253.5833026566
 31
0.0
  0
LINE
  5
1D2
330
1F
100
AcDbEntity
  8
0
  6
Continuous
 62
     7
370
    35
100
AcDbLine
 10
188.1111781807
 20
253.2333026566
 30
0.0
 11
188.1111781807
 21
248.7333026566
 31
0.0
  0
LINE
  5
1D3
330
1F
100
AcDbEntity
  8
0
  6
Continuous
 62
     7
370
    35
100
AcDbLine
 10
187.7611781807
 20
248.3833026566
 30
0.0
 11
187.7611781807
 21
253.5833026566
 31
0.0
  0
LINE
  5
1D4
330
1F
100
AcDbEntity
  8
0
  6
Continuous
 62
     7
370
    35
100
AcDbLine
 10
188.1111781807
 20
253.2333026566
 30
0.0
 11
204.1111781807
 21
253.2333026566
 31
0.0
  0
LINE
  5
1D5
330
1F
100
AcDbEntity
  8
0
  6
Continuous
 62
     7
370
    35
100
AcDbLine
 10
204.1111781807
 20
248.7333026566
 30
0.0
 11
188.1111781807
 21
248.7333026566
 31
0.0
  0
LINE
  5
1D6
330
1F
100
AcDbEntity
  8
0
  6
Continuous
 62
     7
370
    35
100
AcDbLine
 10
204.4611781807
 20
253.5833026566
 30
0.0
 11
204.4611781807
 21
254.3974374981
 31
0.0
  0
LINE
  5
1D7
330
1F
100
AcDbEntity
  8
0
  6
Continuous
 62
     7
370
    35
100
AcDbLine
 10
187.7611781807
 20
254.3974374981
 30
0.0
 11
187.7611781807
 21
253.5833026566
 31
0.0
  0
LINE
  5
1D8
330
1F
100
AcDbEntity
  8
0
  6
Continuous
 62
     7
370
    35
100
AcDbLine
 10
204.4611781807
 20
247.6833026566
 30
0.0
 11
204.4611781807
 21
248.3833026566
 31
0.0
  0
LINE
  5
1D9
330
1F
100
AcDbEntity
  8
0
  6
Continuous
 62
     7
370
    35
100
AcDbLine
 10
187.7611781807
 20
248.3833026566
 30
0.0
 11
187.7611781807
 21
247.8553821315
 31
0.0
  0
LINE
  5
1DA
330
1F
100
AcDbEntity
  8
0
  6
Continuous
 62
     7
370
    35
100
AcDbLine
 10
186.0611781807
 20
241.9833026566
 30
0.0
 11
189.8092074997
 21
241.9833026566
 31
0.0
  0
LINE
  5
1DB
330
1F
100
AcDbEntity
  8
0
  6
Continuous
 62
     7
370
    35
100
AcDbLine
 10
189.7771046146
 20
157.9833026566
 30
0.0
 11
186.0611781807
 21
157.9833026566
 31
0.0
  0
LINE
  5
1DC
330
1F
100
AcDbEntity
  8
0
  6
Continuous
 62
     7
370
    35
100
AcDbLine
 10
185.7611781807
 20
241.6833026566
 30
0.0
 11
186.0611781807
 21
241.9833026566
 31
0.0
  0
LINE
  5
1DD
330
1F
100
AcDbEntity
  8
0
  6
Continuous
 62
     7
370
    35
100
AcDbLine
 10
186.0611781807
 20
157.9833026566
 30
0.0
 11
185.7611781807
 21
158.2833026566
 31
0.0
  0
LINE
  5
1DE
330
1F
100
AcDbEntity
  8
0
  6
Continuous
 62
     7
370
    35
100
AcDbLine
 10
185.7611781807
 20
165.1833026566
 30
0.0
 11
186.0611781807
 21
165.4833026566
 31
0.0
  0
LINE
  5
1DF
330
1F
100
AcDbEntity
  8
0
  6
Continuous
 62
     7
370
    35
100
AcDbLine
 10
186.0611781807
 20
234.4833026566
 30
0.0
 11
185.7611781807
 21
234.7833026566
 31
0.0
  0
LINE
  5
1E0
330
1F
100
AcDbEntity
  8
0
  6
Continuous
 62
     7
370
    35
100
AcDbLine
 10
185.7611781807
 20
234.7833026566
 30
0.0
 11
185.7611781807
 21
165.1833026566
 31
0.0
  0
LINE
  5
1E1
330
1F
100
AcDbEntity
  8
0
  6
Continuous
 62
     7
370
    35
100
AcDbLine
 10
186.0611781807
 20
165.4833026566
 30
0.0
 11
193.2611781807
 21
165.4833026566
 31
0.0
  0
LINE
  5
1E2
330
1F
100
AcDbEntity
  8
0
  6
Continuous
 62
     7
370
    35
100
AcDbLine
 10
193.2611781807
 20
234.4833026566
 30
0.0
 11
186.0611781807
 21
234.4833026566
 31
0.0
  0
LINE
  5
1E3
330
1F
100
AcDbEntity
  8
0
  6
Continuous
 62
     7
370
    35
100
AcDbLine
 10
203.1611781807
 20
227.5333026566
 30
0.0
 11
203.1611781807
 21
172.4333026566
 31
0.0
  0
LINE
  5
1E4
330
1F
100
AcDbEntity
  8
0
  6
Continuous
 62
     7
370
    35
100
AcDbLine
 10
203.4611781807
 20
227.5300451605
 30
0.0
 11
203.4611781807
 21
172.4365601526
 31
0.0
  0
LINE
  5
1E5
330
1F
100
AcDbEntity
  8
0
  6
Continuous
 62
     7
370
    35
100
AcDbLine
 10
193.5611781807
 20
172.4333026566
 30
0.0
 11
202.6020377984
 21
172.4333026566
 31
0.0
  0
LINE
  5
1E6
330
1F
100
AcDbEntity
  8
0
  6
Continuous
 62
     7
370
    35
100
AcDbLine
 10
202.6020377984
 20
227.5333026566
 30
0.0
 11
193.5611781807
 21
227.5333026566
 31
0.0
  0
LINE
  5
1E7
330
1F
100
AcDbEntity
  8
0
  6
Continuous
 62
     7
370
    35
100
AcDbLine
 10
193.2611781807
 20
172.1333026566
 30
0.0
 11
193.5611781807
 21
172.4333026566
 31
0.0
  0
LINE
  5
1E8
330
1F
100
AcDbEntity
  8
0
  6
Continuous
 62
     7
370
    35
100
AcDbLine
 10
193.5611781807
 20
227.5333026566
 30
0.0
 11
193.2611781807
 21
227.8333026566
 31
0.0
  0
LINE
  5
1E9
330
1F
100
AcDbEntity
  8
0
  6
Continuous
 62
     7
370
    35
100
AcDbLine
 10
193.2611781807
 20
227.8333026566
 30
0.0
 11
193.2611781807
 21
172.1333026566
 31
0.0
  0
LINE
  5
1EA
330
1F
100
AcDbEntity
  8
0
  6
Continuous
 62
     7
370
    35
100
AcDbLine
 10
193.6111781807
 20
232.7333026566
 30
0.0
 11
199.3117756313
 21
232.7333026566
 31
0.0
  0
LINE
  5
1EB
330
1F
100
AcDbEntity
  8
0
  6
Continuous
 62
     7
370
    35
100
AcDbLine
 10
193.2611781807
 20
233.0833026566
 30
0.0
 11
193.6111781807
 21
232.7333026566
 31
0.0
  0
LINE
  5
1EC
330
1F
100
AcDbEntity
  8
0
  6
Continuous
 62
     7
370
    35
100
AcDbLine
 10
186.4611781807
 20
236.8333026566
 30
0.0
 11
185.7611781807
 21
236.1333026566
 31
0.0
  0
LINE
  5
1ED
330
1F
100
AcDbEntity
  8
0
  6
Continuous
 62
     7
370
    35
100
AcDbLine
 10
193.1111781807
 20
236.8333026566
 30
0.0
 11
186.4611781807
 21
236.8333026566
 31
0.0
  0
LINE
  5
1EE
330
1F
100
AcDbEntity
  8
0
  6
Continuous
 62
     7
370
    35
100
AcDbLine
 10
194.1025982021
 20
238.4833026566
 30
0.0
 11
193.1111781807
 21
236.8333026566
 31
0.0
  0
LINE
  5
1EF
330
1F
100
AcDbEntity
  8
0
  6
Continuous
 62
     7
370
    35
100
AcDbLine
 10
193.9509540721
 20
238.7356808706
 30
0.0
 11
194.1025982021
 21
238.4833026566
 31
0.0
  0
LINE
  5
1F0
330
1F
100
AcDbEntity
  8
0
  6
Continuous
 62
     7
370
    35
100
AcDbLine
 10
193.2611781807
 20
233.8233026566
 30
0.0
 11
193.2611781807
 21
234.4833026566
 31
0.0
  0
LINE
  5
1F1
330
1F
100
AcDbEntity
  8
0
  6
Continuous
 62
     7
370
    35
100
AcDbLine
 10
185.7611781807
 20
234.7833026566
 30
0.0
 11
185.7611781807
 21
236.1333026566
 31
0.0
  0
LINE
  5
1F2
330
1F
100
AcDbEntity
  8
0
  6
Continuous
 62
     7
370
    35
100
AcDbLine
 10
193.1111781807
 20
163.1333026566
 30
0.0
 11
194.1025982021
 21
161.4833026566
 31
0.0
  0
LINE
  5
1F3
330
1F
100
AcDbEntity
  8
0
  6
Continuous
 62
     7
370
    35
100
AcDbLine
 10
186.4611781807
 20
163.1333026566
 30
0.0
 11
193.1111781807
 21
163.1333026566
 31
0.0
  0
LINE
  5
1F4
330
1F
100
AcDbEntity
  8
0
  6
Continuous
 62
     7
370
    35
100
AcDbLine
 10
185.7611781807
 20
163.8333026566
 30
0.0
 11
186.4611781807
 21
163.1333026566
 31
0.0
  0
LINE
  5
1F5
330
1F
100
AcDbEntity
  8
0
  6
Continuous
 62
     7
370
    35
100
AcDbLine
 10
193.6111781807
 20
167.2333026566
 30
0.0
 11
193.2611781807
 21
166.8833026566
 31
0.0
  0
LINE
  5
1F6
330
1F
100
AcDbEntity
  8
0
  6
Continuous
 62
     7
370
    35
100
AcDbLine
 10
199.3117756313
 20
167.2333026566
 30
0.0
 11
193.6111781807
 21
167.2333026566
 31
0.0
  0
LINE
  5
1F7
330
1F
100
AcDbEntity
  8
0
  6
Continuous
 62
     7
370
    35
100
AcDbLine
 10
194.1025982021
 20
161.4833026566
 30
0.0
 11
193.9509540721
 21
161.2309244425
 31
0.0
  0
LINE
  5
1F8
330
1F
100
AcDbEntity
  8
0
  6
Continuous
 62
     7
370
    35
100
AcDbLine
 10
193.2611781807
 20
165.4833026566
 30
0.0
 11
193.2611781807
 21
166.1433026566
 31
0.0
  0
LINE
  5
1F9
330
1F
100
AcDbEntity
  8
0
  6
Continuous
 62
     7
370
    35
100
AcDbLine
 10
185.7611781807
 20
163.8333026566
 30
0.0
 11
185.7611781807
 21
165.1833026566
 31
0.0
  0
LINE
  5
1FA
330
1F
100
AcDbEntity
  8
0
  6
Continuous
 62
     7
370
    35
100
AcDbLine
 10
201.6304532034
 20
229.2333026566
 30
0.0
 11
193.6111781807
 21
229.2333026566
 31
0.0
  0
LINE
  5
1FB
330
1F
100
AcDbEntity
  8
0
  6
Continuous
 62
     7
370
    35
100
AcDbLine
 10
193.6111781807
 20
232.7333026566
 30
0.0
 11
193.6111781807
 21
232.4833026566
 31
0.0
  0
LINE
  5
1FC
330
1F
100
AcDbEntity
  8
0
  6
Continuous
 62
     7
370
    35
100
AcDbLine
 10
193.6111781807
 20
229.4833026566
 30
0.0
 11
193.6111781807
 21
229.2333026566
 31
0.0
  0
LINE
  5
1FD
330
1F
100
AcDbEntity
  8
0
  6
Continuous
 62
     7
370
    35
100
AcDbLine
 10
193.6111781807
 20
170.7333026566
 30
0.0
 11
193.6111781807
 21
170.4833026566
 31
0.0
  0
LINE
  5
1FE
330
1F
100
AcDbEntity
  8
0
  6
Continuous
 62
     7
370
    35
100
AcDbLine
 10
193.6111781807
 20
167.4833026566
 30
0.0
 11
193.6111781807
 21
167.2333026566
 31
0.0
  0
LINE
  5
1FF
330
1F
100
AcDbEntity
  8
0
  6
Continuous
 62
     7
370
    35
100
AcDbLine
 10
193.6111781807
 20
170.7333026566
 30
0.0
 11
201.6304532034
 21
170.7333026566
 31
0.0
  0
LINE
  5
200
330
1F
100
AcDbEntity
  8
0
  6
Continuous
 62
     7
370
    18
100
AcDbLine
 10
186.4611781807
 20
240.1333026566
 30
0.0
 11
186.4611781807
 21
236.8333026566
 31
0.0
  0
LINE
  5
201
330
1F
100
AcDbEntity
  8
0
  6
Continuous
 62
     7
370
    35
100
AcDbLine
 10
186.4611781807
 20
240.1333026566
 30
0.0
 11
192.3232260679
 21
240.1333026566
 31
0.0
  0
LINE
  5
202
330
1F
100
AcDbEntity
  8
0
  6
Continuous
 62
     7
370
    18
100
AcDbLine
 10
193.1111781807
 20
239.4505905695
 30
0.0
 11
193.1111781807
 21
236.8333026566
 31
0.0
  0
LINE
  5
203
330
1F
100
AcDbEntity
  8
0
  6
Continuous
 62
     7
370
    35
100
AcDbLine
 10
185.7611781807
 20
240.8333026566
 30
0.0
 11
186.4611781807
 21
240.1333026566
 31
0.0
  0
LINE
  5
204
330
1F
100
AcDbEntity
  8
0
  6
Continuous
 62
     7
370
    35
100
AcDbLine
 10
185.7611781807
 20
236.1333026566
 30
0.0
 11
185.7611781807
 21
240.8333026566
 31
0.0
  0
LINE
  5
205
330
1F
100
AcDbEntity
  8
0
  6
Continuous
 62
     7
370
    35
100
AcDbLine
 10
186.4611781807
 20
163.1333026566
 30
0.0
 11
186.4611781807
 21
159.8333026566
 31
0.0
  0
LINE
  5
206
330
1F
100
AcDbEntity
  8
0
  6
Continuous
 62
     7
370
    35
100
AcDbLine
 10
186.4611781807
 20
159.8333026566
 30
0.0
 11
185.7611781807
 21
159.1333026566
 31
0.0
  0
LINE
  5
207
330
1F
100
AcDbEntity
  8
0
  6
Continuous
 62
     7
370
    35
100
AcDbLine
 10
185.7611781807
 20
159.1333026566
 30
0.0
 11
185.7611781807
 21
163.8333026566
 31
0.0
  0
LINE
  5
208
330
1F
100
AcDbEntity
  8
0
  6
Continuous
 62
     7
370
    35
100
AcDbLine
 10
193.2611781807
 20
171.0833026566
 30
0.0
 11
193.6111781807
 21
170.7333026566
 31
0.0
  0
LINE
  5
209
330
1F
100
AcDbEntity
  8
0
  6
Continuous
 62
     7
370
    35
100
AcDbLine
 10
193.6111781807
 20
229.2333026566
 30
0.0
 11
193.2611781807
 21
228.8833026566
 31
0.0
  0
LINE
  5
20A
330
1F
100
AcDbEntity
  8
0
  6
Continuous
 62
     7
370
    35
100
AcDbLine
 10
193.1111781807
 20
163.1333026566
 30
0.0
 11
193.1111781807
 21
160.4951661863
 31
0.0
  0
LINE
  5
20B
330
1F
100
AcDbEntity
  8
0
  6
Continuous
 62
     7
370
    35
100
AcDbLine
 10
192.3232260679
 20
159.8333026566
 30
0.0
 11
186.4611781807
 21
159.8333026566
 31
0.0
  0
LINE
  5
20C
330
1F
100
AcDbEntity
  8
0
  6
Continuous
 62
     7
370
    35
100
AcDbLine
 10
185.7611781807
 20
240.8333026566
 30
0.0
 11
185.7611781807
 21
241.6833026566
 31
0.0
  0
LINE
  5
20D
330
1F
100
AcDbEntity
  8
0
  6
Continuous
 62
     7
370
    35
100
AcDbLine
 10
185.7611781807
 20
158.2833026566
 30
0.0
 11
185.7611781807
 21
159.1333026566
 31
0.0
  0
LINE
  5
20E
330
1F
100
AcDbEntity
  8
0
  6
Continuous
 62
     7
370
    35
100
AcDbLine
 10
193.2611781807
 20
171.8233026566
 30
0.0
 11
193.2611781807
 21
172.1333026566
 31
0.0
  0
LINE
  5
20F
330
1F
100
AcDbEntity
  8
0
  6
Continuous
 62
     7
370
    35
100
AcDbLine
 10
193.2611781807
 20
227.8333026566
 30
0.0
 11
193.2611781807
 21
228.1433026566
 31
0.0
  0
SPLINE
  5
210
330
1F
100
AcDbEntity
  8
0
  6
Continuous
 62
     7
370
    18
100
AcDbSpline
210
0.0
220
0.0
230
1.0
 70
     8
 71
     3
 72
     8
 73
     4
 74
     0
 42
0.000000001
 43
0.00000001
 40
0.0
 40
0.0
 40
0.0
 40
0.0
 40
1.0
 40
1.0
 40
1.0
 40
1.0
 10
202.6695953156502
 20
227.4089237396719
 30
0.0
 10
205.9136107729204
 20
227.9161812260309
 30
0.0
 10
209.1777930291518
 20
228.2931752246983
 30
0.0
 10
212.4611781806642
 20
228.5507494401628
 30
0.0
  0
SPLINE
  5
211
330
1F
100
AcDbEntity
  8
0
  6
Continuous
 62
     7
370
    18
100
AcDbSpline
210
0.0
220
0.0
230
1.0
 70
     8
 71
     3
 72
     8
 73
     4
 74
     0
 42
0.000000001
 43
0.00000001
 40
0.0
 40
0.0
 40
0.0
 40
0.0
 40
1.0
 40
1.0
 40
1.0
 40
1.0
 10
201.4611781806642
 20
229.5137197188516
 30
0.0
 10
201.8800476843883
 20
228.8252396712937
 30
0.0
 10
202.2827026084891
 20
228.1236795040101
 30
0.0
 10
202.6695953156502
 20
227.4089237396719
 30
0.0
  0
LINE
  5
212
330
1F
100
AcDbEntity
  8
0
  6
Continuous
 62
     7
370
    18
100
AcDbLine
 10
201.4611781807
 20
229.5137197189
 30
0.0
 11
201.4611781807
 21
247.4581312361
 31
0.0
  0
SPLINE
  5
213
330
1F
100
AcDbEntity
  8
0
  6
Continuous
 62
     7
370
    18
100
AcDbSpline
210
0.0
220
0.0
230
1.0
 70
     8
 71
     3
 72
    10
 73
     6
 74
     0
 42
0.000000001
 43
0.00000001
 40
0.0
 40
0.0
 40
0.0
 40
0.0
 40
0.5
 40
0.5
 40
1.0
 40
1.0
 40
1.0
 40
1.0
 10
212.4611781806642
 20
248.3327645838592
 30
0.0
 10
210.6665397549313
 20
248.0803406963388
 30
0.0
 10
208.8451882916445
 20
247.8904156006474
 30
0.0
 10
205.1660337232091
 20
247.6048033221131
 30
0.0
 10
203.3173956063529
 20
247.5103559651843
 30
0.0
 10
201.4611781806641
 20
247.458131236118
 30
0.0
  0
LINE
  5
214
330
1F
100
AcDbEntity
  8
0
  6
Continuous
 62
     7
370
    35
100
AcDbLine
 10
212.4611781807
 20
228.5507494402
 30
0.0
 11
212.4611781807
 21
248.3327645839
 31
0.0
  0
LINE
  5
215
330
1F
100
AcDbEntity
  8
0
  6
Continuous
 62
     7
370
    35
100
AcDbLine
 10
201.4611781807
 20
143.4833026566
 30
0.0
 11
201.4611781807
 21
170.4528855943
 31
0.0
  0
SPLINE
  5
216
330
1F
100
AcDbEntity
  8
0
  6
Continuous
 62
     7
370
    18
100
AcDbSpline
210
0.0
220
0.0
230
1.0
 70
     8
 71
     3
 72
     8
 73
     4
 74
     0
 42
0.000000001
 43
0.00000001
 40
0.0
 40
0.0
 40
0.0
 40
0.0
 40
1.0
 40
1.0
 40
1.0
 40
1.0
 10
202.6695953156502
 20
172.557681573442
 30
0.0
 10
202.2828346674322
 20
171.8431697782689
 30
0.0
 10
201.8801904058273
 20
171.141600227681
 30
0.0
 10
201.4611781806642
 20
170.4528855942622
 30
0.0
  0
SPLINE
  5
217
330
1F
100
AcDbEntity
  8
0
  6
Continuous
 62
     7
370
    18
100
AcDbSpline
210
0.0
220
0.0
230
1.0
 70
     8
 71
     3
 72
     8
 73
     4
 74
     0
 42
0.000000001
 43
0.00000001
 40
0.0
 40
0.0
 40
0.0
 40
0.0
 40
1.0
 40
1.0
 40
1.0
 40
1.0
 10
212.4611781806642
 20
171.4158558729511
 30
0.0
 10
209.1777930291519
 20
171.6734300884155
 30
0.0
 10
205.9136107729205
 20
172.0504240870829
 30
0.0
 10
202.6695953156504
 20
172.5576815734419
 30
0.0
  0
LINE
  5
218
330
1F
100
AcDbEntity
  8
0
  6
Continuous
 62
     7
370
    35
100
AcDbLine
 10
212.4611781807
 20
143.4833026566
 30
0.0
 11
212.4611781807
 21
171.415855873
 31
0.0
  0
LINE
  5
219
330
1F
100
AcDbEntity
  8
0
  6
Continuous
 62
     7
370
    35
100
AcDbLine
 10
212.4611781807
 20
256.4833026566
 30
0.0
 11
201.4611781807
 21
256.4833026566
 31
0.0
  0
LINE
  5
21A
330
1F
100
AcDbEntity
  8
0
  6
Continuous
 62
     7
370
    35
100
AcDbLine
 10
212.9611781807
 20
171.3775725814
 30
0.0
 11
212.9611781807
 21
143.9833026566
 31
0.0
  0
LINE
  5
21B
330
1F
100
AcDbEntity
  8
0
  6
Continuous
 62
     7
370
    35
100
AcDbLine
 10
212.4611781807
 20
256.4833026566
 30
0.0
 11
212.9611781807
 21
255.9833026566
 31
0.0
  0
SPLINE
  5
21C
330
1F
100
AcDbEntity
  8
0
  6
Continuous
 62
     7
370
    18
100
AcDbSpline
210
0.0
220
0.0
230
1.0
 70
     8
 71
     3
 72
     8
 73
     4
 74
     0
 42
0.000000001
 43
0.00000001
 40
0.0
 40
0.0
 40
0.0
 40
0.0
 40
0.000784386526136
 40
0.000784386526136
 40
0.000784386526136
 40
0.000784386526136
 10
212.4611781806642
 20
171.4158558729511
 30
0.0
 10
212.627938102398
 20
171.4027739303737
 30
0.0
 10
212.7946062633708
 20
171.3900134917993
 30
0.0
 10
212.9611781806642
 20
171.3775725813772
 30
0.0
  0
LINE
  5
21D
330
1F
100
AcDbEntity
  8
0
  6
Continuous
 62
     7
370
    35
100
AcDbLine
 10
212.9611781807
 20
248.4048746732
 30
0.0
 11
212.9611781807
 21
228.5890327317
 31
0.0
  0
SPLINE
  5
21E
330
1F
100
AcDbEntity
  8
0
  6
Continuous
 62
     7
370
    18
100
AcDbSpline
210
0.0
220
0.0
230
1.0
 70
     8
 71
     3
 72
     8
 73
     4
 74
     0
 42
0.000000001
 43
0.00000001
 40
0.0
 40
0.0
 40
0.0
 40
0.0
 40
0.0012124760350151
 40
0.0012124760350151
 40
0.0012124760350151
 40
0.0012124760350151
 10
212.4611781806642
 20
248.3327645838592
 30
0.0
 10
212.6303341426287
 20
248.3565571232945
 30
0.0
 10
212.7970357014689
 20
248.3806074108532
 30
0.0
 10
212.9611781806642
 20
248.4048746732497
 30
0.0
  0
SPLINE
  5
21F
330
1F
100
AcDbEntity
  8
0
  6
Continuous
 62
     7
370
    18
100
AcDbSpline
210
0.0
220
0.0
230
1.0
 70
     8
 71
     3
 72
     8
 73
     4
 74
     0
 42
0.000000001
 43
0.00000001
 40
0.0
 40
0.0
 40
0.0
 40
0.0
 40
0.000784386526136
 40
0.000784386526136
 40
0.000784386526136
 40
0.000784386526136
 10
212.9611781806642
 20
228.5890327317366
 30
0.0
 10
212.7946062633708
 20
228.5765918213145
 30
0.0
 10
212.627938102398
 20
228.5638313827402
 30
0.0
 10
212.4611781806642
 20
228.5507494401628
 30
0.0
  0
LINE
  5
220
330
1F
100
AcDbEntity
  8
0
  6
Continuous
 62
     7
370
    35
100
AcDbLine
 10
204.0343832614
 20
254.9833026566
 30
0.0
 11
204.0343832614
 21
254.9258430631
 31
0.0
  0
LINE
  5
221
330
1F
100
AcDbEntity
  8
0
  6
Continuous
 62
     7
370
    35
100
AcDbLine
 10
201.9611781807
 20
254.9833026566
 30
0.0
 11
204.0343832614
 21
254.9833026566
 31
0.0
  0
ARC
  5
222
330
1F
100
AcDbEntity
  8
0
  6
Continuous
 62
     7
370
    35
100
AcDbCircle
 10
204.2611781807
 20
254.8833026566
 30
0.0
 40
0.2000000000000229
100
AcDbArc
 50
0.0
 51
120.0
  0
LINE
  5
223
330
1F
100
AcDbEntity
  8
0
  6
Continuous
 62
     7
370
    35
100
AcDbLine
 10
204.0343832614
 20
254.9833026566
 30
0.0
 11
204.1611781807
 21
255.0565077373
 31
0.0
  0
LINE
  5
224
330
1F
100
AcDbEntity
  8
0
  6
Continuous
 62
     7
370
    35
100
AcDbLine
 10
201.9611781807
 20
254.9833026566
 30
0.0
 11
201.4611781807
 21
255.4833026566
 31
0.0
  0
LINE
  5
225
330
1F
100
AcDbEntity
  8
0
  6
Continuous
 62
     7
370
    35
100
AcDbLine
 10
201.4611781807
 20
254.9833026566
 30
0.0
 11
201.4611781807
 21
255.4833026566
 31
0.0
  0
LINE
  5
226
330
1F
100
AcDbEntity
  8
0
  6
Continuous
 62
     7
370
    35
100
AcDbLine
 10
232.9611781807
 20
228.620832737
 30
0.0
 11
232.9611781807
 21
247.9833026566
 31
0.0
  0
LINE
  5
227
330
1F
100
AcDbEntity
  8
0
  6
Continuous
 62
     7
370
    35
100
AcDbLine
 10
232.9611781807
 20
151.9833026566
 30
0.0
 11
232.9611781807
 21
171.3457725761
 31
0.0
  0
SPLINE
  5
228
330
1F
100
AcDbEntity
  8
0
  6
Continuous
 62
     7
370
    18
100
AcDbSpline
210
0.0
220
0.0
230
1.0
 70
     8
 71
     3
 72
    10
 73
     6
 74
     0
 42
0.000000001
 43
0.00000001
 40
0.0
 40
0.0
 40
0.0
 40
0.0
 40
0.5
 40
0.5
 40
1.0
 40
1.0
 40
1.0
 40
1.0
 10
232.9611781806642
 20
171.3457725761436
 30
0.0
 10
229.6608599670613
 20
171.1100415668882
 30
0.0
 10
226.3607021566333
 20
170.9957552528053
 30
0.0
 10
219.7607021460405
 20
171.0013791360883
 30
0.0
 10
216.4608599437487
 20
171.1212874179885
 30
0.0
 10
213.1611781806642
 20
171.3627850131609
 30
0.0
  0
SPLINE
  5
229
330
1F
100
AcDbEntity
  8
0
  6
Continuous
 62
     7
370
    18
100
AcDbSpline
210
0.0
220
0.0
230
1.0
 70
     8
 71
     3
 72
    10
 73
     6
 74
     0
 42
0.000000001
 43
0.00000001
 40
0.0
 40
0.0
 40
0.0
 40
0.0
 40
0.5
 40
0.5
 40
1.0
 40
1.0
 40
1.0
 40
1.0
 10
213.1611781806642
 20
228.6038202999529
 30
0.0
 10
216.4541920385748
 20
228.8448298834988
 30
0.0
 10
219.7541771899847
 20
228.9652225194834
 30
0.0
 10
226.3673866156967
 20
228.9708538537179
 30
0.0
 10
229.6675276371184
 20
228.8560874962127
 30
0.0
 10
232.9611781806643
 20
228.6208327369703
 30
0.0
  0
LINE
  5
22A
330
1F
100
AcDbEntity
  8
0
  6
Continuous
 62
     7
370
    35
100
AcDbLine
 10
244.2611781807
 20
233.7346301294
 30
0.0
 11
244.2611781807
 21
247.7333026566
 31
0.0
  0
LINE
  5
22B
330
1F
100
AcDbEntity
  8
0
  6
Continuous
 62
     7
370
    35
100
AcDbLine
 10
244.2611781807
 20
152.2333026566
 30
0.0
 11
244.2611781807
 21
172.6487046725
 31
0.0
  0
SPLINE
  5
22C
330
1F
100
AcDbEntity
  8
0
  6
Continuous
 62
     7
370
    18
100
AcDbSpline
210
0.0
220
0.0
230
1.0
 70
     8
 71
     3
 72
    22
 73
    18
 74
     0
 42
0.000000001
 43
0.00000001
 40
0.0
 40
0.0
 40
0.0
 40
0.0
 40
0.1249999999999991
 40
0.1249999999999991
 40
0.2499999999999982
 40
0.2499999999999982
 40
0.3749999999999973
 40
0.3749999999999973
 40
0.4999999999999964
 40
0.4999999999999964
 40
0.6249999999999973
 40
0.6249999999999973
 40
0.7499999999999982
 40
0.7499999999999982
 40
0.8749999999999991
 40
0.8749999999999991
 40
1.0
 40
1.0
 40
1.0
 40
1.0
 10
241.4232756189833
 20
227.7414893489793
 30
0.0
 10
241.3669762093047
 20
228.0327779964112
 30
0.0
 10
241.3340914735825
 20
228.3283713517225
 30
0.0
 10
241.3148728286023
 20
228.9131820427588
 30
0.0
 10
241.3281797522378
 20
229.2014370203286
 30
0.0
 10
241.3977844892639
 20
229.7700020627158
 30
0.0
 10
241.4540879061866
 20
230.0503110751964
 30
0.0
 10
241.6100906995129
 20
230.6031054827796
 30
0.0
 10
241.7089609540516
 20
230.872173200527
 30
0.0
 10
241.9459541392112
 20
231.3913348672827
 30
0.0
 10
242.0842937140796
 20
231.6422782936192
 30
0.0
 10
242.4030841721665
 20
232.1268386753236
 30
0.0
 10
242.5847048101533
 20
232.3617947839576
 30
0.0
 10
242.991313493522
 20
232.8068500458073
 30
0.0
 10
243.2138600588367
 20
233.0147255419291
 30
0.0
 10
243.7023073644757
 20
233.3993817962587
 30
0.0
 10
243.9680593894109
 20
233.5762506999696
 30
0.0
 10
244.2611781806641
 20
233.7346301294244
 30
0.0
  0
SPLINE
  5
22D
330
1F
100
AcDbEntity
  8
0
  6
Continuous
 62
     7
370
    18
100
AcDbSpline
210
0.0
220
0.0
230
1.0
 70
     8
 71
     3
 72
     8
 73
     4
 74
     0
 42
0.000000001
 43
0.00000001
 40
0.0
 40
0.0
 40
0.0
 40
0.0
 40
1.0
 40
1.0
 40
1.0
 40
1.0
 10
244.2611781806642
 20
172.6487046725142
 30
0.0
 10
240.522849261618
 20
172.0458163648896
 30
0.0
 10
236.7559367191355
 20
171.616819851666
 30
0.0
 10
232.9611781806642
 20
171.3457725761436
 30
0.0
  0
SPLINE
  5
22E
330
1F
100
AcDbEntity
  8
0
  6
Continuous
 62
     7
370
    18
100
AcDbSpline
210
0.0
220
0.0
230
1.0
 70
     8
 71
     3
 72
     8
 73
     4
 74
     0
 42
0.000000001
 43
0.00000001
 40
0.0
 40
0.0
 40
0.0
 40
0.0
 40
1.0
 40
1.0
 40
1.0
 40
1.0
 10
232.9611781806642
 20
228.6208327369703
 30
0.0
 10
235.7975427369093
 20
228.4182404303545
 30
0.0
 10
238.6183096557741
 20
228.1269857011534
 30
0.0
 10
241.4232756189832
 20
227.7414893489793
 30
0.0
  0
LINE
  5
22F
330
1F
100
AcDbEntity
  8
0
  6
Continuous
 62
     7
370
    35
100
AcDbLine
 10
245.2611781807
 20
172.8143032405
 30
0.0
 11
245.2611781807
 21
153.2333026566
 31
0.0
  0
LINE
  5
230
330
1F
100
AcDbEntity
  8
0
  6
Continuous
 62
     7
370
    35
100
AcDbLine
 10
245.2611781807
 20
246.7333026566
 30
0.0
 11
245.2611781807
 21
234.1555608122
 31
0.0
  0
SPLINE
  5
231
330
1F
100
AcDbEntity
  8
0
  6
Continuous
 62
     7
370
    18
100
AcDbSpline
210
0.0
220
0.0
230
1.0
 70
     8
 71
     3
 72
     8
 73
     4
 74
     0
 42
0.000000001
 43
0.00000001
 40
0.0
 40
0.0
 40
0.0
 40
0.0
 40
1.0
 40
1.0
 40
1.0
 40
1.0
 10
245.2611781806642
 20
234.1555608121509
 30
0.0
 10
244.9139058918419
 20
234.0475838586805
 30
0.0
 10
244.5809198702815
 20
233.9073945781246
 30
0.0
 10
244.2611781806641
 20
233.7346301294244
 30
0.0
  0
SPLINE
  5
232
330
1F
100
AcDbEntity
  8
0
  6
Continuous
 62
     7
370
    18
100
AcDbSpline
210
0.0
220
0.0
230
1.0
 70
     8
 71
     3
 72
     8
 73
     4
 74
     0
 42
0.000000001
 43
0.00000001
 40
0.0
 40
0.0
 40
0.0
 40
0.0
 40
0.0015011228842358
 40
0.0015011228842358
 40
0.0015011228842358
 40
0.0015011228842358
 10
244.2611781806642
 20
172.6487046725142
 30
0.0
 10
244.5946514362303
 20
172.7024846183242
 30
0.0
 10
244.9279890523138
 20
172.7576772932316
 30
0.0
 10
245.2611781806642
 20
172.8143032405432
 30
0.0
  0
SPLINE
  5
233
330
1F
100
AcDbEntity
  8
0
  6
Continuous
 62
     7
370
    18
100
AcDbSpline
210
0.0
220
0.0
230
1.0
 70
     8
 71
     3
 72
    10
 73
     6
 74
     0
 42
0.000000001
 43
0.00000001
 40
0.0
 40
0.0
 40
0.0
 40
0.0
 40
0.5
 40
0.5
 40
1.0
 40
1.0
 40
1.0
 40
1.0
 10
213.1611781806642
 20
171.3627850131609
 30
0.0
 10
213.1007449555925
 20
171.3672080089439
 30
0.0
 10
213.0471898983711
 20
171.3711718514106
 30
0.0
 10
212.9783199150743
 20
171.3762889553575
 30
0.0
 10
212.9611781806641
 20
171.3775725813772
 30
0.0
 10
212.9611781806642
 20
171.3775725813772
 30
0.0
  0
SPLINE
  5
234
330
1F
100
AcDbEntity
  8
0
  6
Continuous
 62
     7
370
    18
100
AcDbSpline
210
0.0
220
0.0
230
1.0
 70
     8
 71
     3
 72
    10
 73
     6
 74
     0
 42
0.000000001
 43
0.00000001
 40
0.0
 40
0.0
 40
0.0
 40
0.0
 40
0.5
 40
0.5
 40
1.0
 40
1.0
 40
1.0
 40
1.0
 10
212.9611781806642
 20
228.5890327317366
 30
0.0
 10
212.9611781806642
 20
228.5890327317366
 30
0.0
 10
212.9784198279388
 20
228.590323701417
 30
0.0
 10
213.046466289699
 20
228.5953797761333
 30
0.0
 10
213.1005995035344
 20
228.5993866588032
 30
0.0
 10
213.1611781806642
 20
228.6038202999529
 30
0.0
  0
LINE
  5
235
330
1F
100
AcDbEntity
  8
0
  6
Continuous
 62
     7
370
    35
100
AcDbLine
 10
245.2611781807
 20
234.1555608122
 30
0.0
 11
245.2611781807
 21
232.4833026566
 31
0.0
  0
LINE
  5
236
330
1F
100
AcDbEntity
  8
0
  6
Continuous
 62
     7
370
    35
100
AcDbLine
 10
204.4611781807
 20
253.2333026566
 30
0.0
 11
212.9611781807
 21
253.2333026566
 31
0.0
  0
LINE
  5
237
330
1F
100
AcDbEntity
  8
0
  6
Continuous
 62
     7
370
    35
100
AcDbLine
 10
204.4611781807
 20
254.8833026566
 30
0.0
 11
204.4611781807
 21
253.2333026566
 31
0.0
  0
LINE
  5
238
330
1F
100
AcDbEntity
  8
0
  6
Continuous
 62
     7
370
    35
100
AcDbLine
 10
212.9611781807
 20
253.2333026566
 30
0.0
 11
212.9611781807
 21
255.9833026566
 31
0.0
  0
LINE
  5
239
330
1F
100
AcDbEntity
  8
0
  6
Continuous
 62
     7
370
    35
100
AcDbLine
 10
201.4611781807
 20
256.4833026566
 30
0.0
 11
201.4611781807
 21
255.4833026566
 31
0.0
  0
LINE
  5
23A
330
1F
100
AcDbEntity
  8
0
  6
Continuous
 62
     7
370
    35
100
AcDbLine
 10
212.9611781807
 20
248.7333026566
 30
0.0
 11
204.4611781807
 21
248.7333026566
 31
0.0
  0
LINE
  5
23B
330
1F
100
AcDbEntity
  8
0
  6
Continuous
 62
     7
370
    35
100
AcDbLine
 10
204.4611781807
 20
248.7333026566
 30
0.0
 11
204.4611781807
 21
247.580749792
 31
0.0
  0
LINE
  5
23C
330
1F
100
AcDbEntity
  8
0
  6
Continuous
 62
     7
370
    35
100
AcDbLine
 10
212.9611781807
 20
248.4048746732
 30
0.0
 11
212.9611781807
 21
248.7333026566
 31
0.0
  0
LINE
  5
23D
330
1F
100
AcDbEntity
  8
0
  6
Continuous
 62
     7
370
    18
100
AcDbLine
 10
204.4611781807
 20
253.2333026566
 30
0.0
 11
204.4611781807
 21
248.7333026566
 31
0.0
  0
LINE
  5
23E
330
1F
100
AcDbEntity
  8
0
  6
Continuous
 62
     7
370
    18
100
AcDbLine
 10
212.9611781807
 20
253.2333026566
 30
0.0
 11
212.9611781807
 21
248.7333026566
 31
0.0
  0
LINE
  5
23F
330
1F
100
AcDbEntity
  8
0
  6
Continuous
 62
     7
370
    35
100
AcDbLine
 10
243.0511781807
 20
232.4833026566
 30
0.0
 11
243.0511781807
 21
232.8450876438
 31
0.0
  0
LINE
  5
240
330
1F
100
AcDbEntity
  8
0
  6
Continuous
 62
     7
370
    35
100
AcDbLine
 10
247.9611781807
 20
167.4833026566
 30
0.0
 11
247.9611781807
 21
173.3056680468
 31
0.0
  0
LINE
  5
241
330
1F
100
AcDbEntity
  8
0
  6
Continuous
 62
     7
370
    35
100
AcDbLine
 10
247.9611781807
 20
232.4833026566
 30
0.0
 11
242.6979302336
 21
232.4833026566
 31
0.0
  0
LINE
  5
242
330
1F
100
AcDbEntity
  8
0
  6
Continuous
 62
     7
370
    18
100
AcDbLine
 10
247.9611781807
 20
173.3056680468
 30
0.0
 11
245.2286892864
 21
172.8093920434
 31
0.0
  0
LINE
  5
243
330
1F
100
AcDbEntity
  8
0
  6
Continuous
 62
     7
370
    35
100
AcDbLine
 10
248.2611781807
 20
173.3643585895
 30
0.0
 11
248.2611781807
 21
167.7833026566
 31
0.0
  0
LINE
  5
244
330
1F
100
AcDbEntity
  8
0
  6
Continuous
 62
     7
370
    35
100
AcDbLine
 10
247.9611781807
 20
232.4833026566
 30
0.0
 11
248.2611781807
 21
232.1833026566
 31
0.0
  0
LINE
  5
245
330
1F
100
AcDbEntity
  8
0
  6
Continuous
 62
     7
370
    18
100
AcDbLine
 10
247.9611781807
 20
173.3056680468
 30
0.0
 11
248.2611781807
 21
173.3643585895
 31
0.0
  0
LINE
  5
246
330
1F
100
AcDbEntity
  8
0
  6
Continuous
 62
     7
370
    35
100
AcDbLine
 10
248.2611781807
 20
227.8833026566
 30
0.0
 11
247.9611781807
 21
227.5833026566
 31
0.0
  0
LINE
  5
247
330
1F
100
AcDbEntity
  8
0
  6
Continuous
 62
     7
370
    35
100
AcDbLine
 10
248.2611781807
 20
227.8833026566
 30
0.0
 11
248.2611781807
 21
173.3643585895
 31
0.0
  0
LINE
  5
248
330
1F
100
AcDbEntity
  8
0
  6
Continuous
 62
     7
370
    35
100
AcDbLine
 10
216.2311781807
 20
172.3833026566
 30
0.0
 11
242.5370072954
 21
172.3833026566
 31
0.0
  0
LINE
  5
249
330
1F
100
AcDbEntity
  8
0
  6
Continuous
 62
     7
370
    35
100
AcDbLine
 10
216.2311781807
 20
227.5833026566
 30
0.0
 11
216.2311781807
 21
172.3833026566
 31
0.0
  0
LINE
  5
24A
330
1F
100
AcDbEntity
  8
0
  6
Continuous
 62
     7
370
    35
100
AcDbLine
 10
241.4562222862
 20
227.5833026566
 30
0.0
 11
216.2311781807
 21
227.5833026566
 31
0.0
  0
LINE
  5
24B
330
1F
100
AcDbEntity
  8
0
  6
Continuous
 62
     7
370
    35
100
AcDbLine
 10
242.5370072954
 20
227.5833026566
 30
0.0
 11
241.4562222862
 21
227.5833026566
 31
0.0
  0
LINE
  5
24C
330
1F
100
AcDbEntity
  8
0
  6
Continuous
 62
     7
370
    35
100
AcDbLine
 10
247.9611781807
 20
227.5833026566
 30
0.0
 11
242.5370072954
 21
227.5833026566
 31
0.0
  0
LINE
  5
24D
330
1F
100
AcDbEntity
  8
0
  6
Continuous
 62
     7
370
    35
100
AcDbLine
 10
241.8750473426
 20
231.2333026566
 30
0.0
 11
248.2611781807
 21
231.2333026566
 31
0.0
  0
LINE
  5
24E
330
1F
100
AcDbEntity
  8
0
  6
Continuous
 62
     7
370
    35
100
AcDbLine
 10
248.2611781807
 20
228.7333026566
 30
0.0
 11
241.3219152608
 21
228.7333026566
 31
0.0
  0
LINE
  5
24F
330
1F
100
AcDbEntity
  8
0
  6
Continuous
 62
     7
370
    35
100
AcDbLine
 10
248.2611781807
 20
228.7333026566
 30
0.0
 11
248.2611781807
 21
231.2333026566
 31
0.0
  0
LINE
  5
250
330
1F
100
AcDbEntity
  8
0
  6
Continuous
 62
     7
370
    35
100
AcDbLine
 10
216.2311781807
 20
228.4833026566
 30
0.0
 11
215.9311781807
 21
228.1833026566
 31
0.0
  0
LINE
  5
251
330
1F
100
AcDbEntity
  8
0
  6
Continuous
 62
     7
370
    35
100
AcDbLine
 10
215.9311781807
 20
171.7833026566
 30
0.0
 11
216.2311781807
 21
171.4833026566
 31
0.0
  0
LINE
  5
252
330
1F
100
AcDbEntity
  8
0
  6
Continuous
 62
     7
370
    35
100
AcDbLine
 10
219.9311781807
 20
228.4833026566
 30
0.0
 11
216.2311781807
 21
228.4833026566
 31
0.0
  0
LINE
  5
253
330
1F
100
AcDbEntity
  8
0
  6
Continuous
 62
     7
370
    35
100
AcDbLine
 10
216.2311781807
 20
171.4833026566
 30
0.0
 11
219.9311781807
 21
171.4833026566
 31
0.0
  0
LINE
  5
254
330
1F
100
AcDbEntity
  8
0
  6
Continuous
 62
     7
370
    35
100
AcDbLine
 10
248.2611781807
 20
232.1833026566
 30
0.0
 11
248.2611781807
 21
231.2333026566
 31
0.0
  0
LINE
  5
255
330
1F
100
AcDbEntity
  8
0
  6
Continuous
 62
     7
370
    35
100
AcDbLine
 10
248.2611781807
 20
228.7333026566
 30
0.0
 11
248.2611781807
 21
227.8833026566
 31
0.0
  0
LINE
  5
256
330
1F
100
AcDbEntity
  8
0
  6
Continuous
 62
     7
370
    35
100
AcDbLine
 10
215.9311781807
 20
172.0833026566
 30
0.0
 11
216.2311781807
 21
172.3833026566
 31
0.0
  0
LINE
  5
257
330
1F
100
AcDbEntity
  8
0
  6
Continuous
 62
     7
370
    35
100
AcDbLine
 10
215.9311781807
 20
172.0833026566
 30
0.0
 11
215.9311781807
 21
227.8833026566
 31
0.0
  0
LINE
  5
258
330
1F
100
AcDbEntity
  8
0
  6
Continuous
 62
     7
370
    35
100
AcDbLine
 10
216.2311781807
 20
227.5833026566
 30
0.0
 11
215.9311781807
 21
227.8833026566
 31
0.0
  0
LINE
  5
259
330
1F
100
AcDbEntity
  8
0
  6
Continuous
 62
     7
370
    35
100
AcDbLine
 10
215.9311781807
 20
227.8833026566
 30
0.0
 11
215.9311781807
 21
228.1833026566
 31
0.0
  0
LINE
  5
25A
330
1F
100
AcDbEntity
  8
0
  6
Continuous
 62
     7
370
    35
100
AcDbLine
 10
219.9311781807
 20
228.4833026566
 30
0.0
 11
219.9311781807
 21
228.9300192385
 31
0.0
  0
LINE
  5
25B
330
1F
100
AcDbEntity
  8
0
  6
Continuous
 62
     7
370
    35
100
AcDbLine
 10
215.9311781807
 20
171.7833026566
 30
0.0
 11
215.9311781807
 21
172.0833026566
 31
0.0
  0
LINE
  5
25C
330
1F
100
AcDbEntity
  8
0
  6
Continuous
 62
     7
370
    35
100
AcDbLine
 10
219.9311781807
 20
171.0365860747
 30
0.0
 11
219.9311781807
 21
171.4833026566
 31
0.0
  0
LINE
  5
25D
330
1F
100
AcDbEntity
  8
0
  6
Continuous
 62
     7
370
    35
100
AcDbLine
 10
193.2611781807
 20
168.9833026566
 30
0.0
 11
193.2611781807
 21
166.1433026566
 31
0.0
  0
LINE
  5
25E
330
1F
100
AcDbEntity
  8
0
  6
Continuous
 62
     7
370
    35
100
AcDbLine
 10
193.2611781807
 20
171.8233026566
 30
0.0
 11
193.2611781807
 21
168.9833026566
 31
0.0
  0
LINE
  5
25F
330
1F
100
AcDbEntity
  8
0
  6
Continuous
 62
     7
370
    35
100
AcDbLine
 10
190.2611781807
 20
166.2933026566
 30
0.0
 11
190.2611781807
 21
171.6733026566
 31
0.0
  0
LINE
  5
260
330
1F
100
AcDbEntity
  8
0
  6
Continuous
 62
     7
370
    35
100
AcDbLine
 10
190.2611781807
 20
230.9833026566
 30
0.0
 11
190.2611781807
 21
233.6733026566
 31
0.0
  0
LINE
  5
261
330
1F
100
AcDbEntity
  8
0
  6
Continuous
 62
     7
370
    35
100
AcDbLine
 10
190.2611781807
 20
228.2933026566
 30
0.0
 11
190.2611781807
 21
230.9833026566
 31
0.0
  0
LINE
  5
262
330
1F
100
AcDbEntity
  8
0
  6
Continuous
 62
     7
370
    35
100
AcDbLine
 10
193.2611781807
 20
233.8233026566
 30
0.0
 11
193.2611781807
 21
228.1433026566
 31
0.0
  0
LINE
  5
263
330
1F
100
AcDbEntity
  8
0
  6
Continuous
 62
     7
370
    35
100
AcDbLine
 10
208.2911781807
 20
172.1333026566
 30
0.0
 11
208.5911781807
 21
172.4333026566
 31
0.0
  0
LINE
  5
264
330
1F
100
AcDbEntity
  8
0
  6
Continuous
 62
     7
370
    35
100
AcDbLine
 10
208.5911781807
 20
227.5333026566
 30
0.0
 11
208.2911781807
 21
227.8333026566
 31
0.0
  0
LINE
  5
265
330
1F
100
AcDbEntity
  8
0
  6
Continuous
 62
     7
370
    35
100
AcDbLine
 10
208.2911781807
 20
172.1333026566
 30
0.0
 11
208.2911781807
 21
227.8333026566
 31
0.0
  0
LINE
  5
266
330
1F
100
AcDbEntity
  8
0
  6
Continuous
 62
     7
370
    35
100
AcDbLine
 10
219.6911781807
 20
228.7833026566
 30
0.0
 11
219.3911781807
 21
228.4833026566
 31
0.0
  0
LINE
  5
267
330
1F
100
AcDbEntity
  8
0
  6
Continuous
 62
     7
370
    35
100
AcDbLine
 10
219.3911781807
 20
171.4833026566
 30
0.0
 11
219.6911781807
 21
171.1833026566
 31
0.0
  0
LINE
  5
268
330
1F
100
AcDbEntity
  8
0
  6
Continuous
 62
     7
370
    35
100
AcDbLine
 10
219.6911781807
 20
228.7833026566
 30
0.0
 11
219.6911781807
 21
228.4833026566
 31
0.0
  0
LINE
  5
269
330
1F
100
AcDbEntity
  8
0
  6
Continuous
 62
     7
370
    35
100
AcDbLine
 10
219.6911781807
 20
171.4833026566
 30
0.0
 11
219.6911781807
 21
171.1833026566
 31
0.0
  0
ARC
  5
26A
330
1F
100
AcDbEntity
  8
0
  6
Continuous
 62
     7
370
    35
100
AcDbCircle
 10
215.6911781807
 20
171.8833026566
 30
0.0
 40
0.4000000000000057
100
AcDbArc
 50
180.0
 51
270.0
  0
ARC
  5
26B
330
1F
100
AcDbEntity
  8
0
  6
Continuous
 62
     7
370
    35
100
AcDbCircle
 10
215.6911781807
 20
228.0833026566
 30
0.0
 40
0.4000000000000341
100
AcDbArc
 50
90.0
 51
180.0
  0
LINE
  5
26C
330
1F
100
AcDbEntity
  8
0
  6
Continuous
 62
     7
370
    35
100
AcDbLine
 10
215.2911781807
 20
227.5333026566
 30
0.0
 11
215.2911781807
 21
172.4333026566
 31
0.0
  0
LINE
  5
26D
330
1F
100
AcDbEntity
  8
0
  6
Continuous
 62
     7
370
    35
100
AcDbLine
 10
215.2911781807
 20
172.4333026566
 30
0.0
 11
208.5911781807
 21
172.4333026566
 31
0.0
  0
LINE
  5
26E
330
1F
100
AcDbEntity
  8
0
  6
Continuous
 62
     7
370
    35
100
AcDbLine
 10
208.5911781807
 20
227.5333026566
 30
0.0
 11
215.2911781807
 21
227.5333026566
 31
0.0
  0
LINE
  5
26F
330
1F
100
AcDbEntity
  8
0
  6
Continuous
 62
     7
370
    35
100
AcDbLine
 10
219.3911781807
 20
171.4833026566
 30
0.0
 11
215.6911781807
 21
171.4833026566
 31
0.0
  0
LINE
  5
270
330
1F
100
AcDbEntity
  8
0
  6
Continuous
 62
     7
370
    35
100
AcDbLine
 10
215.6911781807
 20
228.4833026566
 30
0.0
 11
219.3911781807
 21
228.4833026566
 31
0.0
  0
LINE
  5
271
330
1F
100
AcDbEntity
  8
0
  6
Continuous
 62
     7
370
    35
100
AcDbLine
 10
215.2911781807
 20
227.5333026566
 30
0.0
 11
215.2911781807
 21
228.0833026566
 31
0.0
  0
LINE
  5
272
330
1F
100
AcDbEntity
  8
0
  6
Continuous
 62
     7
370
    35
100
AcDbLine
 10
208.2911781807
 20
228.1572734652
 30
0.0
 11
208.2911781807
 21
227.8333026566
 31
0.0
  0
LINE
  5
273
330
1F
100
AcDbEntity
  8
0
  6
Continuous
 62
     7
370
    35
100
AcDbLine
 10
219.6911781807
 20
228.7833026566
 30
0.0
 11
219.6911781807
 21
228.9241802957
 31
0.0
  0
LINE
  5
274
330
1F
100
AcDbEntity
  8
0
  6
Continuous
 62
     7
370
    35
100
AcDbLine
 10
215.2911781807
 20
171.8833026566
 30
0.0
 11
215.2911781807
 21
172.4333026566
 31
0.0
  0
LINE
  5
275
330
1F
100
AcDbEntity
  8
0
  6
Continuous
 62
     7
370
    35
100
AcDbLine
 10
208.2911781807
 20
172.1333026566
 30
0.0
 11
208.2911781807
 21
171.8093318479
 31
0.0
  0
LINE
  5
276
330
1F
100
AcDbEntity
  8
0
  6
Continuous
 62
     7
370
    35
100
AcDbLine
 10
219.6911781807
 20
171.0424250174
 30
0.0
 11
219.6911781807
 21
171.1833026566
 31
0.0
  0
LINE
  5
277
330
1F
100
AcDbEntity
  8
0
  6
Continuous
 62
     7
370
    35
100
AcDbLine
 10
203.9611781807
 20
227.5333026566
 30
0.0
 11
203.9224175591
 21
227.5720632781
 31
0.0
  0
LINE
  5
278
330
1F
100
AcDbEntity
  8
0
  6
Continuous
 62
     7
370
    35
100
AcDbLine
 10
203.9611781807
 20
227.5333026566
 30
0.0
 11
203.9611781807
 21
172.4333026566
 31
0.0
  0
LINE
  5
279
330
1F
100
AcDbEntity
  8
0
  6
Continuous
 62
     7
370
    35
100
AcDbLine
 10
203.922395622
 20
172.3945200979
 30
0.0
 11
203.9611781807
 21
172.4333026566
 31
0.0
  0
LINE
  5
27A
330
1F
100
AcDbEntity
  8
0
  6
Continuous
 62
     7
370
    35
100
AcDbLine
 10
206.9611781807
 20
172.4333026566
 30
0.0
 11
203.9611781807
 21
172.4333026566
 31
0.0
  0
LINE
  5
27B
330
1F
100
AcDbEntity
  8
0
  6
Continuous
 62
     7
370
    35
100
AcDbLine
 10
203.9611781807
 20
227.5333026566
 30
0.0
 11
206.9611781807
 21
227.5333026566
 31
0.0
  0
LINE
  5
27C
330
1F
100
AcDbEntity
  8
0
  6
Continuous
 62
     7
370
    35
100
AcDbLine
 10
207.4611781807
 20
228.0333026566
 30
0.0
 11
206.9611781807
 21
227.5333026566
 31
0.0
  0
LINE
  5
27D
330
1F
100
AcDbEntity
  8
0
  6
Continuous
 62
     7
370
    35
100
AcDbLine
 10
206.9611781807
 20
172.4333026566
 30
0.0
 11
207.4611781807
 21
171.9333026566
 31
0.0
  0
LINE
  5
27E
330
1F
100
AcDbEntity
  8
0
  6
Continuous
 62
     7
370
    35
100
AcDbLine
 10
207.4611781807
 20
228.0333026566
 30
0.0
 11
207.4611781807
 21
171.9333026566
 31
0.0
  0
LINE
  5
27F
330
1F
100
AcDbEntity
  8
0
  6
Continuous
 62
     7
370
    35
100
AcDbLine
 10
190.2611781807
 20
217.8129109927
 30
0.0
 11
190.2611781807
 21
218.1733026566
 31
0.0
  0
LINE
  5
280
330
1F
100
AcDbEntity
  8
0
  6
Continuous
 62
     7
370
    35
100
AcDbLine
 10
190.2611781807
 20
212.7933026566
 30
0.0
 11
190.2611781807
 21
217.8129109927
 31
0.0
  0
LINE
  5
281
330
1F
100
AcDbEntity
  8
0
  6
Continuous
 62
     7
370
    35
100
AcDbLine
 10
190.2611781807
 20
171.6733026566
 30
0.0
 11
190.2611781807
 21
175.8265151392
 31
0.0
  0
LINE
  5
282
330
1F
100
AcDbEntity
  8
0
  6
Continuous
 62
     7
370
    35
100
AcDbLine
 10
190.2611781807
 20
228.1750901739
 30
0.0
 11
190.2611781807
 21
228.2933026566
 31
0.0
  0
LINE
  5
283
330
1F
100
AcDbEntity
  8
0
  6
Continuous
 62
     7
370
    35
100
AcDbLine
 10
190.2611781807
 20
224.1400901739
 30
0.0
 11
190.2611781807
 21
228.1750901739
 31
0.0
  0
LINE
  5
284
330
1F
100
AcDbEntity
  8
0
  6
Continuous
 62
     7
370
    35
100
AcDbLine
 10
190.2611781807
 20
202.6733026566
 30
0.0
 11
190.2611781807
 21
197.2933026566
 31
0.0
  0
LINE
  5
285
330
1F
100
AcDbEntity
  8
0
  6
Continuous
 62
     7
370
    35
100
AcDbLine
 10
190.2611781807
 20
181.7933026566
 30
0.0
 11
190.2611781807
 21
187.1733026566
 31
0.0
  0
HATCH
  5
286
330
1F
100
AcDbEntity
  8
0
  6
Continuous
 62
     7
370
    18
100
AcDbHatch
 10
0.0
 20
0.0
 30
0.0
210
0.0
220
0.0
230
1.0
  2
ANSI32
 70
     0
 71
     0
 91
        1
 92
        0
 93
        1
 72
     4
 94
        3
 73
     1
 74
     0
 95
       32
 96
       28
 40
0.0065117613258536
 40
0.0065117613258536
 40
0.0065117613258536
 40
0.0065117613258536
 40
0.0066881945821353
 40
0.0066881945821353
 40
0.0066881945821353
 40
0.0073197820672402
 40
0.0073197820672402
 40
0.0073197820672402
 40
0.0078905265445544
 40
0.0078905265445544
 40
0.0078905265445544
 40
0.0083806032032444
 40
0.0083806032032444
 40
0.0083806032032444
 40
0.008822606392526
 40
0.008822606392526
 40
0.008822606392526
 40
0.0092640173895161
 40
0.0092640173895161
 40
0.0092640173895161
 40
0.0097419344222945
 40
0.0097419344222945
 40
0.0097419344222945
 40
0.0099734858463561
 40
0.0099734858463561
 40
0.0099734858463561
 40
0.0101846267684074
 40
0.0101846267684074
 40
0.0101846267684074
 40
0.0101846267684074
 10
202.6695953156504
 20
227.4089237396719
 42
1.0
 10
202.6430948194812
 20
227.4578814533847
 42
1.0
 10
202.6169473894091
 20
227.505987234539
 42
1.0
 10
202.5913618793599
 20
227.5528798698655
 42
1.0
 10
202.5006488030616
 20
227.7191370677097
 42
1.0
 10
202.4150375513988
 20
227.8736207456978
 42
1.0
 10
202.3454100258658
 20
227.998127719204
 42
1.0
 10
202.2824901201315
 20
228.1106402202059
 42
1.0
 10
202.2307081197125
 20
228.2021700168054
 42
1.0
 10
202.1984065954366
 20
228.2591022063786
 42
1.0
 10
202.1705818831114
 20
228.308143910522
 42
1.0
 10
202.1564411771187
 20
228.3329162950578
 42
1.0
 10
202.1582035583008
 20
228.3298222099433
 42
1.0
 10
202.1597983786646
 20
228.3270222992327
 42
1.0
 10
202.1743531765032
 20
228.3015037065517
 42
1.0
 10
202.1999933006218
 20
228.2563053847533
 42
1.0
 10
202.2256368376899
 20
228.2111010466191
 42
1.0
 10
202.2628730281735
 20
228.1452966061604
 42
1.0
 10
202.3078401652881
 20
228.0651849877248
 42
1.0
 10
202.356525858389
 20
227.9784485415278
 42
1.0
 10
202.4153264536741
 20
227.8730381184305
 42
1.0
 10
202.4791608323062
 20
227.7573593095639
 42
1.0
 10
202.5103522226323
 20
227.7008351770019
 42
1.0
 10
202.5429755044082
 20
227.6414486255821
 42
1.0
 10
202.5765042475351
 20
227.5800901738745
 42
1.0
 10
202.606801750811
 20
227.5246449731826
 42
1.0
 10
202.6379514082992
 20
227.4673835264986
 42
1.0
 10
202.6695953156504
 20
227.408923739672
 42
1.0
 97
        0
 75
     0
 76
     1
 52
0.0
 41
1.0
 77
     0
 78
     2
 53
45.0
 43
0.0
 44
0.0
 45
-6.735192090801866
 46
6.735192090801866
 79
     0
 53
45.0
 43
4.49013
 44
0.0
 45
-6.735192090801866
 46
6.735192090801866
 79
     0
 98
        1
 10
0.0
 20
0.0
  0
HATCH
  5
287
330
1F
100
AcDbEntity
  8
0
  6
Continuous
 62
     7
370
    18
100
AcDbHatch
 10
0.0
 20
0.0
 30
0.0
210
0.0
220
0.0
230
1.0
  2
ANSI32
 70
     0
 71
     0
 91
        1
 92
        0
 93
        1
 72
     4
 94
        3
 73
     1
 74
     0
 95
       29
 96
       25
 40
0.0047712586784786
 40
0.0047712586784786
 40
0.0047712586784786
 40
0.0047712586784786
 40
0.0053323076503489
 40
0.0053323076503489
 40
0.0053323076503489
 40
0.0059345497183639
 40
0.0059345497183639
 40
0.0059345497183639
 40
0.0064568404869055
 40
0.0064568404869055
 40
0.0064568404869055
 40
0.0069134800767997
 40
0.0069134800767997
 40
0.0069134800767997
 40
0.0073509950964156
 40
0.0073509950964156
 40
0.0073509950964156
 40
0.0078117730206798
 40
0.0078117730206798
 40
0.0078117730206798
 40
0.0083248900195645
 40
0.0083248900195645
 40
0.0083248900195645
 40
0.0084548784260082
 40
0.0084548784260082
 40
0.0084548784260082
 40
0.0084548784260082
 10
202.6695953156504
 20
172.557681573442
 42
1.0
 10
202.5862586043238
 20
172.4037231407831
 42
1.0
 10
202.5056488885207
 20
172.2568565204058
 42
1.0
 10
202.4347914312209
 20
172.1290193639926
 42
1.0
 10
202.3588353895687
 20
171.9919836200181
 42
1.0
 10
202.2918201809582
 20
171.8727018267934
 42
1.0
 10
202.2438393650347
 20
171.7877576139311
 42
1.0
 10
202.2021422674683
 20
171.7139379619879
 42
1.0
 10
202.173648120447
 20
171.6639087305485
 42
1.0
 10
202.1630163369953
 20
171.6452345300923
 42
1.0
 10
202.153686280539
 20
171.6288467485573
 42
1.0
 10
202.1577953269428
 20
171.636041759719
 42
1.0
 10
202.1747654586352
 20
171.6658830931312
 42
1.0
 10
202.1910614162434
 20
171.6945389169677
 42
1.0
 10
202.2195002996417
 20
171.744598325257
 42
1.0
 10
202.2568734573209
 20
171.8108476545354
 42
1.0
 10
202.2962537752528
 20
171.8806549657648
 42
1.0
 10
202.3463825065612
 20
171.9699346142283
 42
1.0
 10
202.402623248717
 20
172.0710762747498
 42
1.0
 10
202.4652127821574
 20
172.1836354107208
 42
1.0
 10
202.5367771543941
 20
172.3134395256577
 42
1.0
 10
202.6116240418921
 20
172.4508997279295
 42
1.0
 10
202.6306956278089
 20
172.4859256875304
 42
1.0
 10
202.6500470920459
 20
172.5215676709433
 42
1.0
 10
202.6695953156504
 20
172.557681573442
 42
1.0
 97
        0
 75
     0
 76
     1
 52
0.0
 41
1.0
 77
     0
 78
     2
 53
45.0
 43
0.0
 44
0.0
 45
-6.735192090801866
 46
6.735192090801866
 79
     0
 53
45.0
 43
4.49013
 44
0.0
 45
-6.735192090801866
 46
6.735192090801866
 79
     0
 98
        1
 10
0.0
 20
0.0
  0
HATCH
  5
288
330
1F
100
AcDbEntity
  8
0
  6
Continuous
 62
     7
370
    18
100
AcDbHatch
 10
0.0
 20
0.0
 30
0.0
210
0.0
220
0.0
230
1.0
  2
ANSI31
 70
     0
 71
     0
 91
        1
 92
        0
 93
        4
 72
     4
 94
        3
 73
     1
 74
     0
 95
       44
 96
       40
 40
0.0000039823588739
 40
0.0000039823588739
 40
0.0000039823588739
 40
0.0000039823588739
 40
0.0012002856171718
 40
0.0012002856171718
 40
0.0012002856171718
 40
0.0036034332814038
 40
0.0036034332814038
 40
0.0036034332814038
 40
0.0038366075028532
 40
0.0038366075028532
 40
0.0038366075028532
 40
0.0040387170869977
 40
0.0040387170869977
 40
0.0040387170869977
 40
0.0041399813553054
 40
0.0041399813553054
 40
0.0041399813553054
 40
0.004183176425063
 40
0.004183176425063
 40
0.004183176425063
 40
0.0042272537735716
 40
0.0042272537735716
 40
0.0042272537735716
 40
0.0042526366909154
 40
0.0042526366909154
 40
0.0042526366909154
 40
0.0042780328079898
 40
0.0042780328079898
 40
0.0042780328079898
 40
0.0043132249661376
 40
0.0043132249661376
 40
0.0043132249661376
 40
0.0043781374842329
 40
0.0043781374842329
 40
0.0043781374842329
 40
0.004597361997478
 40
0.004597361997478
 40
0.004597361997478
 40
0.0047752422552092
 40
0.0047752422552092
 40
0.0047752422552092
 40
0.0047752422552092
 10
241.3611781806642
 20
229.4708186526765
 42
1.0
 10
241.3812233555002
 20
229.6382750599612
 42
1.0
 10
241.4081425128819
 20
229.7997869145799
 42
1.0
 10
241.4413277352858
 20
229.9576377158163
 42
1.0
 10
241.5079536061118
 20
230.2745542928689
 42
1.0
 10
241.588555259393
 20
230.5570530065784
 42
1.0
 10
241.7335240783592
 20
230.9138863452057
 42
1.0
 10
241.7476323638569
 20
230.9486131688936
 42
1.0
 10
241.7626257618229
 20
230.9845515238097
 42
1.0
 10
241.7792384880921
 20
231.0230875335409
 42
1.0
 10
241.7936223985449
 20
231.0564534305162
 42
1.0
 10
241.8091416751863
 20
231.0916331975535
 42
1.0
 10
241.8275068075556
 20
231.1318619427752
 42
1.0
 10
241.8367078095777
 20
231.1520166990105
 42
1.0
 10
241.8466923352502
 20
231.1735906317001
 42
1.0
 10
241.8582039173211
 20
231.1979625534188
 42
1.0
 10
241.863130821353
 20
231.2083936235046
 42
1.0
 10
241.8683888998181
 20
231.2194432516802
 42
1.0
 10
241.874032100008
 20
231.2311904101747
 42
1.0
 10
241.879738383371
 20
231.2430688856539
 42
1.0
 10
241.8860386041656
 20
231.2560703969136
 42
1.0
 10
241.8924601426686
 20
231.2691836768732
 42
1.0
 10
241.89619562455
 20
231.276811820763
 42
1.0
 10
241.9000432264473
 20
231.2846225006647
 42
1.0
 10
241.9036780236588
 20
231.2919606694596
 42
1.0
 10
241.9073162660934
 20
231.2993057936987
 42
1.0
 10
241.9108218904591
 20
231.3063412428307
 42
1.0
 10
241.913962050019
 20
231.3126157123974
 42
1.0
 10
241.9183039765914
 20
231.3212914773133
 42
1.0
 10
241.9220869325635
 20
231.3287951750228
 42
1.0
 10
241.92531473059
 20
231.3351727809384
 42
1.0
 10
241.9312507692027
 20
231.3469014314491
 42
1.0
 10
241.9356217919884
 20
231.3554475841585
 42
1.0
 10
241.9391696762074
 20
231.3623638796803
 42
1.0
 10
241.9510533359125
 20
231.3855300534695
 42
1.0
 10
241.9553194194338
 20
231.3936116304306
 42
1.0
 10
241.9581080917853
 20
231.3989508769292
 42
1.0
 10
241.9603702059391
 20
231.403281964828
 42
1.0
 10
241.9611781806642
 20
231.4048204719018
 42
1.0
 10
241.9611781806642
 20
231.4048204719018
 42
1.0
 72
     4
 94
        3
 73
     1
 74
     0
 95
       11
 96
        7
 40
0.0
 40
0.0
 40
0.0
 40
0.0
 40
0.0035756661287331
 40
0.0035756661287331
 40
0.0035756661287331
 40
0.0068377553741642
 40
0.0068377553741642
 40
0.0068377553741642
 40
0.0068377553741642
 10
241.9611781806642
 20
231.4048204719017
 42
1.0
 10
241.6828388936494
 20
230.8734383794969
 42
1.0
 10
241.4795732108302
 20
230.2796731232676
 42
1.0
 10
241.3829183638463
 20
229.6324636758787
 42
1.0
 10
241.295191946911
 20
229.0450397897743
 42
1.0
 10
241.294687751145
 20
228.4067927031824
 42
1.0
 10
241.4232756189834
 20
227.7414893489793
 42
1.0
 72
     4
 94
        3
 73
     1
 74
     0
 95
        8
 96
        4
 40
-0.0036907634334406
 40
-0.0036907634334406
 40
-0.0036907634334406
 40
-0.0036907634334406
 40
-0.0028987480769994
 40
-0.0028987480769994
 40
-0.0028987480769994
 40
-0.0028987480769994
 10
241.4232756189836
 20
227.7414893489787
 42
1.0
 10
241.3974654704465
 20
227.8750289953142
 42
1.0
 10
241.3768378033521
 20
228.008006773455
 42
1.0
 10
241.3611781806648
 20
228.138826493217
 42
1.0
 72
     4
 94
        3
 73
     1
 74
     0
 95
        8
 96
        4
 40
0.0000000000000004
 40
0.0000000000000004
 40
0.0000000000000004
 40
0.0000000000000004
 40
0.0028929261048825
 40
0.0028929261048825
 40
0.0028929261048825
 40
0.0028929261048825
 10
241.3611781806642
 20
228.1388264932222
 42
1.0
 10
241.3036249365375
 20
228.6196234714412
 42
1.0
 10
241.3127045106261
 20
229.0658719910043
 42
1.0
 10
241.3611781806642
 20
229.4708186526765
 42
1.0
 97
        0
 75
     0
 76
     1
 52
0.0
 41
1.0
 77
     0
 78
     1
 53
45.0
 43
0.0
 44
0.0
 45
-2.245064030267288
 46
2.245064030267288
 79
     0
 98
        1
 10
0.0
 20
0.0
  0
HATCH
  5
289
330
1F
100
AcDbEntity
  8
0
  6
Continuous
 62
     7
370
    18
100
AcDbHatch
 10
0.0
 20
0.0
 30
0.0
210
0.0
220
0.0
230
1.0
  2
ANSI31
 70
     0
 71
     0
 91
        1
 92
        0
 93
        4
 72
     4
 94
        3
 73
     1
 74
     0
 95
       17
 96
       13
 40
0.0027680363432454
 40
0.0027680363432454
 40
0.0027680363432454
 40
0.0027680363432454
 40
0.0028440756277628
 40
0.0028440756277628
 40
0.0028440756277628
 40
0.0033417282565359
 40
0.0033417282565359
 40
0.0033417282565359
 40
0.004802392057886
 40
0.004802392057886
 40
0.004802392057886
 40
0.0064214563996134
 40
0.0064214563996134
 40
0.0064214563996134
 40
0.0064214563996134
 10
241.9611781806643
 20
231.4048204719019
 42
1.0
 10
241.9611781806643
 20
231.4048204719019
 42
1.0
 10
241.9604842401281
 20
231.4034964976877
 42
1.0
 10
241.9592940803626
 20
231.4012203299847
 42
1.0
 10
241.9515972892411
 20
231.3865003000567
 42
1.0
 10
241.9257710549116
 20
231.3369158374454
 42
1.0
 10
241.896954455094
 20
231.2783403021702
 42
1.0
 10
241.8130275456346
 20
231.107741977708
 42
1.0
 10
241.6954883666577
 20
230.8411937082711
 42
1.0
 10
241.5995810692526
 20
230.5482440556883
 42
1.0
 10
241.49286517552
 20
230.2222794540378
 42
1.0
 10
241.4067454294866
 20
229.8514852140841
 42
1.0
 10
241.3611781806642
 20
229.4708186526765
 42
1.0
 72
     4
 94
        3
 73
     1
 74
     0
 95
        8
 96
        4
 40
0.0
 40
0.0
 40
0.0
 40
0.0
 40
0.0018127818089025
 40
0.0018127818089025
 40
0.0018127818089025
 40
0.0018127818089025
 10
241.3611781806639
 20
229.4708186526765
 42
1.0
 10
241.3092809192687
 20
229.0372714767473
 42
1.0
 10
241.3072122214483
 20
228.5896554692671
 42
1.0
 10
241.3611781806642
 20
228.1388264932222
 42
1.0
 72
     4
 94
        3
 73
     1
 74
     0
 95
        8
 96
        4
 40
0.0000022409001047
 40
0.0000022409001047
 40
0.0000022409001047
 40
0.0000022409001047
 40
0.0005306571929448
 40
0.0005306571929448
 40
0.0005306571929448
 40
0.0005306571929448
 10
241.3611781806638
 20
228.1388264932223
 42
1.0
 10
241.3769091454694
 20
228.007410784902
 42
1.0
 10
241.397439991193
 20
227.8751608229362
 42
1.0
 10
241.4232756189834
 20
227.7414893489793
 42
1.0
 72
     4
 94
        3
 73
     1
 74
     0
 95
       11
 96
        7
 40
0.0012531598795186
 40
0.0012531598795186
 40
0.0012531598795186
 40
0.0012531598795186
 40
0.0028321750880357
 40
0.0028321750880357
 40
0.0028321750880357
 40
0.0068465780270865
 40
0.0068465780270865
 40
0.0068465780270865
 40
0.0068465780270865
 10
241.4232756189834
 20
227.7414893489793
 42
1.0
 10
241.351188628116
 20
228.1144616800765
 42
1.0
 10
241.3189285615768
 20
228.4849371102388
 42
1.0
 10
241.3216133435835
 20
228.846436826378
 42
1.0
 10
241.3283963814679
 20
229.7597572611945
 42
1.0
 10
241.5558238683593
 20
230.6309519140418
 42
1.0
 10
241.9611781806643
 20
231.4048204719018
 42
1.0
 97
        0
 75
     0
 76
     1
 52
0.0
 41
1.0
 77
     0
 78
     1
 53
45.0
 43
0.0
 44
0.0
 45
-2.245064030267288
 46
2.245064030267288
 79
     0
 98
        1
 10
0.0
 20
0.0
  0
HATCH
  5
28A
330
1F
100
AcDbEntity
  8
0
  6
Continuous
 62
     7
370
    18
100
AcDbHatch
 10
0.0
 20
0.0
 30
0.0
210
0.0
220
0.0
230
1.0
  2
ANSI31
 70
     0
 71
     0
 91
        1
 92
        0
 93
        3
 72
     4
 94
        3
 73
     1
 74
     0
 95
        8
 96
        4
 40
0.0
 40
0.0
 40
0.0
 40
0.0
 40
0.002700153684756
 40
0.002700153684756
 40
0.002700153684756
 40
0.002700153684756
 10
201.4611781806644
 20
170.4528855942622
 42
1.0
 10
201.8786872203945
 20
171.139129498327
 42
1.0
 10
202.2817101822264
 20
171.8410923747201
 42
1.0
 10
202.6695953156504
 20
172.557681573442
 42
1.0
 72
     4
 94
        3
 73
     1
 74
     0
 95
        8
 96
        4
 40
0.0033723775498293
 40
0.0033723775498293
 40
0.0033723775498293
 40
0.0033723775498293
 40
0.0050024409065857
 40
0.0050024409065857
 40
0.0050024409065857
 40
0.0050024409065857
 10
202.6695953156504
 20
172.557681573442
 42
1.0
 10
202.4386672206174
 20
172.1310589361645
 42
1.0
 10
202.2024755393701
 20
171.709806596941
 42
1.0
 10
201.9611781806643
 20
171.2941568025713
 42
1.0
 72
     4
 94
        3
 73
     1
 74
     0
 95
        8
 96
        4
 40
0.0
 40
0.0
 40
0.0
 40
0.0
 40
0.0009809161888251
 40
0.0009809161888251
 40
0.0009809161888251
 40
0.0009809161888251
 10
201.9611781806643
 20
171.2941568025714
 42
1.0
 10
201.7973100563757
 20
171.0118837079564
 42
1.0
 10
201.6306238853106
 20
170.7313971253145
 42
1.0
 10
201.4611781806644
 20
170.4528855942622
 42
1.0
 97
        0
 75
     0
 76
     1
 52
0.0
 41
1.0
 77
     0
 78
     1
 53
45.0
 43
0.0
 44
0.0
 45
-2.245064030267288
 46
2.245064030267288
 79
     0
 98
        1
 10
0.0
 20
0.0
  0
HATCH
  5
28B
330
1F
100
AcDbEntity
  8
0
  6
Continuous
 62
     7
370
    18
100
AcDbHatch
 10
0.0
 20
0.0
 30
0.0
210
0.0
220
0.0
230
1.0
  2
ANSI31
 70
     0
 71
     0
 91
        1
 92
        0
 93
        3
 72
     4
 94
        3
 73
     1
 74
     0
 95
        8
 96
        4
 40
0.0
 40
0.0
 40
0.0
 40
0.0
 40
0.0016300633567564
 40
0.0016300633567564
 40
0.0016300633567564
 40
0.0016300633567564
 10
201.9611781806643
 20
228.6724485105425
 42
1.0
 10
202.2024755393701
 20
228.2567987161729
 42
1.0
 10
202.4386672206174
 20
227.8355463769493
 42
1.0
 10
202.6695953156504
 20
227.4089237396719
 42
1.0
 72
     4
 94
        3
 73
     1
 74
     0
 95
        8
 96
        4
 40
0.0616520403216073
 40
0.0616520403216073
 40
0.0616520403216073
 40
0.0616520403216073
 40
0.0643513673315926
 40
0.0643513673315926
 40
0.0643513673315926
 40
0.0643513673315926
 10
202.6695953156504
 20
227.4089237396718
 42
1.0
 10
202.2817101822264
 20
228.1255129383937
 42
1.0
 10
201.8786872203945
 20
228.8274758147868
 42
1.0
 10
201.4611781806644
 20
229.5137197188516
 42
1.0
 72
     4
 94
        3
 73
     1
 74
     0
 95
        8
 96
        4
 40
0.0
 40
0.0
 40
0.0
 40
0.0
 40
0.000980916188825
 40
0.000980916188825
 40
0.000980916188825
 40
0.000980916188825
 10
201.4611781806644
 20
229.5137197188516
 42
1.0
 10
201.6306238853106
 20
229.2352081877993
 42
1.0
 10
201.7973100563757
 20
228.9547216051575
 42
1.0
 10
201.9611781806643
 20
228.6724485105425
 42
1.0
 97
        0
 75
     0
 76
     1
 52
0.0
 41
1.0
 77
     0
 78
     1
 53
45.0
 43
0.0
 44
0.0
 45
-2.245064030267288
 46
2.245064030267288
 79
     0
 98
        1
 10
0.0
 20
0.0
  0
HATCH
  5
28C
330
1F
100
AcDbEntity
  8
0
  6
Continuous
 62
     7
370
    18
100
AcDbHatch
 10
0.0
 20
0.0
 30
0.0
210
0.0
220
0.0
230
1.0
  2
ANSI31
 70
     0
 71
     0
 91
        1
 92
        0
 93
        5
 72
     4
 94
        3
 73
     1
 74
     0
 95
        8
 96
        4
 40
0.0002074388299191
 40
0.0002074388299191
 40
0.0002074388299191
 40
0.0002074388299191
 40
0.0023729357323395
 40
0.0023729357323395
 40
0.0023729357323395
 40
0.0023729357323395
 10
245.2611781806642
 20
234.1555608121509
 42
1.0
 10
244.9143257623764
 20
234.0477144085188
 42
1.0
 10
244.580547563075
 20
233.9071934112096
 42
1.0
 10
244.2611781806642
 20
233.7346301294244
 42
1.0
 72
     4
 94
        3
 73
     1
 74
     0
 95
       17
 96
       13
 40
0.0
 40
0.0
 40
0.0
 40
0.0
 40
0.0023490718387004
 40
0.0023490718387004
 40
0.0023490718387004
 40
0.0053339953840445
 40
0.0053339953840445
 40
0.0053339953840445
 40
0.0078917423899192
 40
0.0078917423899192
 40
0.0078917423899192
 40
0.0086977891928036
 40
0.0086977891928036
 40
0.0086977891928036
 40
0.0086977891928036
 10
244.2611781806642
 20
233.7346301294244
 42
1.0
 10
243.6389172481771
 20
233.3984069516541
 42
1.0
 10
243.111507511224
 20
232.9602280245137
 42
1.0
 10
242.6915472855901
 20
232.4759551262004
 42
1.0
 10
242.1588473755252
 20
231.8616775979202
 42
1.0
 10
241.7769101828512
 20
231.1506440610255
 42
1.0
 10
241.5546481391142
 20
230.4044904196295
 42
1.0
 10
241.3634446116929
 20
229.7626030067612
 42
1.0
 10
241.2860951659321
 20
229.0786240040618
 42
1.0
 10
241.3366073955563
 20
228.3930724420591
 42
1.0
 10
241.3525755489964
 20
228.1763527958536
 42
1.0
 10
241.3813129480438
 20
227.9586008556616
 42
1.0
 10
241.4232756189834
 20
227.7414893489793
 42
1.0
 72
     4
 94
        3
 73
     1
 74
     0
 95
       11
 96
        7
 40
0.0013631973335111
 40
0.0013631973335111
 40
0.0013631973335111
 40
0.0013631973335111
 40
0.0027817186785678
 40
0.0027817186785678
 40
0.0027817186785678
 40
0.0064566190255371
 40
0.0064566190255371
 40
0.0064566190255371
 40
0.0064566190255371
 10
241.4232756189834
 20
227.7414893489793
 42
1.0
 10
241.354606092435
 20
228.0967799927406
 42
1.0
 10
241.3217398043655
 20
228.451797049752
 42
1.0
 10
241.3214606133255
 20
228.8003340289068
 42
1.0
 10
241.3207422772897
 20
229.6970915753604
 42
1.0
 10
241.5348136062105
 20
230.5680461227345
 42
1.0
 10
241.9311781806642
 20
231.3467248448197
 42
1.0
 72
     4
 94
        3
 73
     1
 74
     0
 95
        8
 96
        4
 40
0.0
 40
0.0
 40
0.0
 40
0.0
 40
0.0024905152301291
 40
0.0024905152301291
 40
0.0024905152301291
 40
0.0024905152301291
 10
241.9311781806641
 20
231.3467248448194
 42
1.0
 10
242.2083823078092
 20
231.8913067005003
 42
1.0
 10
242.5805238069139
 20
232.4033188908992
 42
1.0
 10
243.0511781806642
 20
232.8536189347812
 42
1.0
 72
     4
 94
        3
 73
     1
 74
     0
 95
       11
 96
        7
 40
0.0
 40
0.0
 40
0.0
 40
0.0
 40
0.0010271172371958
 40
0.0010271172371958
 40
0.0010271172371958
 40
0.0031068696634919
 40
0.0031068696634919
 40
0.0031068696634919
 40
0.0031068696634919
 10
243.0511781806641
 20
232.8536189347811
 42
1.0
 10
243.240277633218
 20
233.0345404273503
 42
1.0
 10
243.4466083921084
 20
233.2066288926051
 42
1.0
 10
243.6709820619191
 20
233.3666710971895
 42
1.0
 10
244.1196833609449
 20
233.6867226663267
 42
1.0
 10
244.6544597274352
 20
233.9669145760341
 42
1.0
 10
245.2611781806642
 20
234.1555608121509
 42
1.0
 97
        0
 75
     0
 76
     1
 52
0.0
 41
1.0
 77
     0
 78
     1
 53
45.0
 43
0.0
 44
0.0
 45
-2.245064030267288
 46
2.245064030267288
 79
     0
 98
        1
 10
0.0
 20
0.0
  0
HATCH
  5
28D
330
1F
100
AcDbEntity
  8
0
  6
Continuous
 62
     7
370
    18
100
AcDbHatch
 10
0.0
 20
0.0
 30
0.0
210
0.0
220
0.0
230
1.0
  2
ANSI31
 70
     0
 71
     0
 91
        1
 92
        0
 93
       10
 72
     2
 10
204.2611781806643
 20
254.8833026565569
 40
0.2000000000000011
 50
240.0000000000041
 51
360.0000000000008
 73
     0
 72
     1
 10
204.4611781806643
 20
254.8833026565569
 11
204.4611781806643
 21
253.2333026565569
 72
     1
 10
204.4611781806643
 20
253.2333026565569
 11
212.9611781806642
 21
253.2333026565569
 72
     1
 10
212.9611781806642
 20
253.2333026565569
 11
212.9611781806642
 21
255.9833026565569
 72
     1
 10
212.9611781806642
 20
255.9833026565569
 11
212.4611781806642
 21
256.4833026565569
 72
     1
 10
212.4611781806642
 20
256.4833026565569
 11
201.4611781806642
 21
256.4833026565569
 72
     1
 10
201.4611781806642
 20
256.4833026565569
 11
201.4611781806642
 21
255.4833026565569
 72
     1
 10
201.4611781806642
 20
255.4833026565569
 11
201.9611781806642
 21
254.9833026565569
 72
     1
 10
201.9611781806642
 20
254.9833026565569
 11
204.0343832614212
 21
254.9833026565569
 72
     1
 10
204.0343832614212
 20
254.9833026565569
 11
204.1611781806643
 21
255.0565077373138
 97
        0
 75
     0
 76
     1
 52
0.0
 41
0.25
 77
     0
 78
     1
 53
45.0
 43
0.0
 44
0.0
 45
-0.5612660075668221
 46
0.5612660075668221
 79
     0
 98
        1
 10
0.0
 20
0.0
  0
HATCH
  5
28E
330
1F
100
AcDbEntity
  8
0
  6
Continuous
 62
     7
370
    18
100
AcDbHatch
 10
0.0
 20
0.0
 30
0.0
210
0.0
220
0.0
230
1.0
  2
ANSI31
 70
     0
 71
     0
 91
        1
 92
        0
 93
        7
 72
     4
 94
        3
 73
     1
 74
     0
 95
       29
 96
       25
 40
0.0
 40
0.0
 40
0.0
 40
0.0
 40
0.0001205604224074
 40
0.0001205604224074
 40
0.0001205604224074
 40
0.0003000785335329
 40
0.0003000785335329
 40
0.0003000785335329
 40
0.0003943023227462
 40
0.0003943023227462
 40
0.0003943023227462
 40
0.0004492340440099
 40
0.0004492340440099
 40
0.0004492340440099
 40
0.0004831990305549
 40
0.0004831990305549
 40
0.0004831990305549
 40
0.000522318750599
 40
0.000522318750599
 40
0.000522318750599
 40
0.0005657832180331
 40
0.0005657832180331
 40
0.0005657832180331
 40
0.0006085927856009
 40
0.0006085927856009
 40
0.0006085927856009
 40
0.0006085927856009
 10
204.4611781806649
 20
247.5807497920025
 42
1.0
 10
204.4611781806649
 20
247.5807497920025
 42
1.0
 10
204.458205264785
 20
247.5805894177057
 42
1.0
 10
204.452096504642
 20
247.5802606353845
 42
1.0
 10
204.4430590524976
 20
247.5797742266167
 42
1.0
 10
204.4272771761262
 20
247.5789245261872
 42
1.0
 10
204.4011364083522
 20
247.577529458554
 42
1.0
 10
204.387350751526
 20
247.5767937524032
 42
1.0
 10
204.3703530981501
 20
247.5758887904813
 42
1.0
 10
204.3488474166206
 20
247.5747510872879
 42
1.0
 10
204.3362669639828
 20
247.5740855505496
 42
1.0
 10
204.321826262611
 20
247.5733236954376
 42
1.0
 10
204.3057283502321
 20
247.5724782413406
 42
1.0
 10
204.2957217853826
 20
247.57195270169
 42
1.0
 10
204.2848960444492
 20
247.5713855153554
 42
1.0
 10
204.2737632796534
 20
247.5708039853327
 42
1.0
 10
204.2610333174489
 20
247.5701390242612
 42
1.0
 10
204.2475366294167
 20
247.5694363332213
 42
1.0
 10
204.2347138156454
 20
247.5687709596215
 42
1.0
 10
204.220477641039
 20
247.5680322469713
 42
1.0
 10
204.2066235316965
 20
247.5673161824752
 42
1.0
 10
204.1943104197663
 20
247.5666816611475
 42
1.0
 10
204.1821041554654
 20
247.5660526459097
 42
1.0
 10
204.1710245800653
 20
247.5654836609387
 42
1.0
 10
204.1611781806644
 20
247.5649791394987
 42
1.0
 72
     4
 94
        3
 73
     1
 74
     0
 95
        8
 96
        4
 40
0.0
 40
0.0
 40
0.0
 40
0.0
 40
0.0001850178019372
 40
0.0001850178019372
 40
0.0001850178019372
 40
0.0001850178019372
 10
204.1611781806644
 20
247.5649791394987
 42
1.0
 10
204.1188551618828
 20
247.5628105426838
 42
1.0
 10
204.0765900091673
 20
247.5606686590464
 42
1.0
 10
204.0343832614213
 20
247.5585532359662
 42
1.0
 72
     4
 94
        3
 73
     1
 74
     0
 95
        8
 96
        4
 40
0.0
 40
0.0
 40
0.0
 40
0.0
 40
0.0020801282152932
 40
0.0020801282152932
 40
0.0020801282152932
 40
0.0020801282152932
 10
204.0343832614213
 20
247.5585532359662
 42
1.0
 10
203.3444406762777
 20
247.5239729722282
 42
1.0
 10
202.6531355743412
 20
247.4956053690769
 42
1.0
 10
201.9611781806643
 20
247.4732429532672
 42
1.0
 72
     4
 94
        3
 73
     1
 74
     0
 95
        8
 96
        4
 40
0.0
 40
0.0
 40
0.0
 40
0.0
 40
0.0011212164707969
 40
0.0011212164707969
 40
0.0011212164707969
 40
0.0011212164707969
 10
201.9611781806643
 20
247.4732429532672
 42
1.0
 10
201.7965453422382
 20
247.4679224118257
 42
1.0
 10
201.6298490529379
 20
247.4628767958159
 42
1.0
 10
201.4611781806643
 20
247.458131236118
 42
1.0
 72
     4
 94
        3
 73
     1
 74
     0
 95
       11
 96
        7
 40
0.0
 40
0.0
 40
0.0
 40
0.0
 40
0.005603219713584
 40
0.005603219713584
 40
0.005603219713584
 40
0.0111409260303044
 40
0.0111409260303044
 40
0.0111409260303044
 40
0.0111409260303044
 10
201.4611781806641
 20
247.458131236118
 42
1.0
 10
203.3264084054948
 20
247.5106095405396
 42
1.0
 10
205.1899024041169
 20
247.6060728833999
 42
1.0
 10
207.0380625468297
 20
247.7501338357224
 42
1.0
 10
208.8637794268611
 20
247.892445373738
 42
1.0
 10
210.6807352061706
 20
248.0823373497792
 42
1.0
 10
212.4611781806643
 20
248.3327645838592
 42
1.0
 72
     4
 94
        3
 73
     1
 74
     0
 95
        8
 96
        4
 40
0.0
 40
0.0
 40
0.0
 40
0.0
 40
0.0012124760350151
 40
0.0012124760350151
 40
0.0012124760350151
 40
0.0012124760350151
 10
212.4611781806643
 20
248.3327645838592
 42
1.0
 10
212.6303341426288
 20
248.3565571232945
 42
1.0
 10
212.797035701469
 20
248.3806074108532
 42
1.0
 10
212.9611781806643
 20
248.4048746732497
 42
1.0
 72
     3
 10
198.0245547941419
 20
252.9344062932483
 11
26.09068225693382
 21
0.0
 40
0.2117387433154942
 50
16.86992912401012
 51
39.75196439587777
 73
     0
 97
        0
 75
     0
 76
     1
 52
0.0
 41
0.25
 77
     0
 78
     1
 53
45.0
 43
0.0
 44
0.0
 45
-0.5612660075668221
 46
0.5612660075668221
 79
     0
 98
        1
 10
0.0
 20
0.0
  0
HATCH
  5
28F
330
1F
100
AcDbEntity
  8
0
  6
Continuous
 62
     7
370
    18
100
AcDbHatch
 10
0.0
 20
0.0
 30
0.0
210
0.0
220
0.0
230
1.0
  2
ANSI31
 70
     0
 71
     0
 91
        1
 92
        0
 93
        4
 72
     1
 10
212.9611781806642
 20
248.4048746732497
 11
212.9611781806642
 21
248.7333026565569
 72
     1
 10
212.9611781806642
 20
248.7333026565569
 11
204.4611781806643
 21
248.7333026565569
 72
     1
 10
204.4611781806643
 20
248.7333026565569
 11
204.4611781806643
 21
247.5807497920025
 72
     3
 10
198.0245547941419
 20
252.9344062932483
 11
26.09068225693382
 21
0.0
 40
0.2117387433154942
 50
320.2480356041231
 51
343.1300708759907
 73
     1
 97
        0
 75
     0
 76
     1
 52
0.0
 41
0.25
 77
     0
 78
     1
 53
45.0
 43
0.0
 44
0.0
 45
-0.5612660075668221
 46
0.5612660075668221
 79
     0
 98
        1
 10
0.0
 20
0.0
  0
HATCH
  5
290
330
1F
100
AcDbEntity
  8
0
  6
Continuous
 62
     7
370
    18
100
AcDbHatch
 10
0.0
 20
0.0
 30
0.0
210
0.0
220
0.0
230
1.0
  2
ANSI31
 70
     0
 71
     0
 91
        1
 92
        0
 93
        8
 72
     1
 10
203.9556566647005
 20
254.9833026565569
 11
188.2666996966282
 21
254.9833026565569
 72
     2
 10
189.1111781806643
 20
253.7436026565569
 40
1.5
 50
124.2625282722989
 51
154.1580672368335
 73
     1
 72
     1
 10
187.7611781806643
 20
254.397437498088
 11
187.7611781806643
 21
253.5833026565569
 72
     1
 10
187.7611781806643
 20
253.5833026565569
 11
188.1111781806643
 21
253.2333026565569
 72
     1
 10
188.1111781806643
 20
253.2333026565569
 11
204.1111781806643
 21
253.2333026565569
 72
     1
 10
204.1111781806643
 20
253.2333026565569
 11
204.4611781806643
 21
253.5833026565569
 72
     1
 10
204.4611781806643
 20
253.5833026565569
 11
204.4611781806643
 21
254.397437498088
 72
     2
 10
203.1111781806643
 20
253.7436026565569
 40
1.5
 50
25.841932763166
 51
55.73747172770143
 73
     1
 97
        0
 75
     0
 76
     1
 52
0.0
 41
0.25
 77
     0
 78
     1
 53
45.0
 43
0.0
 44
0.0
 45
-0.5612660075668221
 46
0.5612660075668221
 79
     0
 98
        1
 10
0.0
 20
0.0
  0
HATCH
  5
291
330
1F
100
AcDbEntity
  8
0
  6
Continuous
 62
     7
370
    18
100
AcDbHatch
 10
0.0
 20
0.0
 30
0.0
210
0.0
220
0.0
230
1.0
  2
ANSI31
 70
     0
 71
     0
 91
        1
 92
        0
 93
        5
 72
     4
 94
        3
 73
     1
 74
     0
 95
        8
 96
        4
 40
0.0
 40
0.0
 40
0.0
 40
0.0
 40
0.0013854453633244
 40
0.0013854453633244
 40
0.0013854453633244
 40
0.0013854453633244
 10
187.7611781806644
 20
247.8553821314673
 42
1.0
 10
187.861110465019
 20
247.8463286323376
 42
1.0
 10
188.014310253276
 20
247.8324569676136
 42
1.0
 10
188.2666996966283
 20
247.8109063620548
 42
1.0
 72
     4
 94
        3
 73
     1
 74
     0
 95
       17
 96
       13
 40
0.0
 40
0.0
 40
0.0
 40
0.0
 40
0.0035741137656702
 40
0.0035741137656702
 40
0.0035741137656702
 40
0.0071339337592844
 40
0.0071339337592844
 40
0.0071339337592844
 40
0.0114369556270042
 40
0.0114369556270042
 40
0.0114369556270042
 40
0.0157403918428151
 40
0.0157403918428151
 40
0.0157403918428151
 40
0.0157403918428151
 10
188.2666996966281
 20
247.8109063620548
 42
1.0
 10
189.440647436611
 20
247.71066728567
 42
1.0
 10
190.622602649577
 20
247.6306841133356
 42
1.0
 10
191.8076311208962
 20
247.5691221789102
 42
1.0
 10
192.988018527608
 20
247.5078013466372
 42
1.0
 10
194.1727333955789
 20
247.4647077584031
 42
1.0
 10
195.358341623516
 20
247.4389189943984
 42
1.0
 10
196.7912441229653
 20
247.4077512076632
 42
1.0
 10
198.2271461161743
 20
247.4017966488329
 42
1.0
 10
199.6608790699034
 20
247.4208735727192
 42
1.0
 10
201.0947071814073
 20
247.4399517627531
 42
1.0
 10
202.5282386683383
 20
247.4840804106726
 42
1.0
 10
203.9556566647006
 20
247.5546346925168
 42
1.0
 72
     4
 94
        3
 73
     1
 74
     0
 95
       11
 96
        7
 40
0.0
 40
0.0
 40
0.0
 40
0.0
 40
0.0010063506701105
 40
0.0010063506701105
 40
0.0010063506701105
 40
0.0013342794034989
 40
0.0013342794034989
 40
0.0013342794034989
 40
0.0013342794034989
 10
203.9556566647006
 20
247.5546346925168
 42
1.0
 10
204.1467007041569
 20
247.5640775992468
 42
1.0
 10
204.2793835328099
 20
247.5710558041757
 42
1.0
 10
204.3764953997164
 20
247.5762171309079
 42
1.0
 10
204.4084241043828
 20
247.5779140859986
 42
1.0
 10
204.4365126649064
 20
247.5794202610286
 42
1.0
 10
204.4611781806645
 20
247.5807497920026
 42
1.0
 72
     4
 94
        3
 73
     1
 74
     0
 95
        8
 96
        4
 40
0.0000000000000003
 40
0.0000000000000003
 40
0.0000000000000003
 40
0.0000000000000003
 40
0.003128066068026
 40
0.003128066068026
 40
0.003128066068026
 40
0.003128066068026
 10
204.4611781806643
 20
247.5807497920025
 42
1.0
 10
204.3891305992914
 20
247.576866253058
 42
1.0
 10
204.352837782263
 20
247.5749622581556
 42
1.0
 10
204.352837782263
 20
247.5749622581556
 42
1.0
 72
     3
 10
198.0245547941419
 20
252.9344062932483
 11
26.09068225693382
 21
-5.145479805759652E-30
 40
0.2117387433154942
 50
40.26137455883944
 51
153.6706312763969
 73
     0
 97
        0
 75
     0
 76
     1
 52
0.0
 41
0.25
 77
     0
 78
     1
 53
45.0
 43
0.0
 44
0.0
 45
-0.5612660075668221
 46
0.5612660075668221
 79
     0
 98
        1
 10
0.0
 20
0.0
  0
HATCH
  5
292
330
1F
100
AcDbEntity
  8
0
  6
Continuous
 62
     7
370
    18
100
AcDbHatch
 10
0.0
 20
0.0
 30
0.0
210
0.0
220
0.0
230
1.0
  2
ANSI31
 70
     0
 71
     0
 91
        1
 92
        0
 93
        7
 72
     1
 10
187.7611781806643
 20
248.3833026565569
 11
187.7611781806643
 21
247.8553821314673
 72
     3
 10
198.0245547941419
 20
252.9344062932483
 11
26.09068225693382
 21
-5.145479805759652E-30
 40
0.2117387433154942
 50
206.3293687236039
 51
319.7386254411614
 73
     1
 72
     1
 10
204.352837782263
 20
247.5749622581556
 11
204.4611781806643
 21
247.6833026565569
 72
     1
 10
204.4611781806643
 20
247.6833026565569
 11
204.4611781806643
 21
248.3833026565569
 72
     1
 10
204.4611781806643
 20
248.3833026565569
 11
204.1111781806643
 21
248.7333026565569
 72
     1
 10
204.1111781806643
 20
248.7333026565569
 11
188.1111781806643
 21
248.7333026565569
 72
     1
 10
188.1111781806643
 20
248.7333026565569
 11
187.7611781806643
 21
248.3833026565569
 97
        0
 75
     0
 76
     1
 52
0.0
 41
0.25
 77
     0
 78
     1
 53
45.0
 43
0.0
 44
0.0
 45
-0.5612660075668221
 46
0.5612660075668221
 79
     0
 98
        1
 10
0.0
 20
0.0
  0
HATCH
  5
293
330
1F
100
AcDbEntity
  8
0
  6
Continuous
 62
     7
370
    18
100
AcDbHatch
 10
0.0
 20
0.0
 30
0.0
210
0.0
220
0.0
230
1.0
  2
ANSI32
 70
     0
 71
     0
 91
        1
 92
        0
 93
        3
 72
     4
 94
        3
 73
     1
 74
     0
 95
        8
 96
        4
 40
0.0
 40
0.0
 40
0.0
 40
0.0
 40
0.0063781727632673
 40
0.0063781727632673
 40
0.0063781727632673
 40
0.0063781727632673
 10
188.2611781806649
 20
157.0123345322091
 42
1.0
 10
189.4438237009358
 20
157.7082159685541
 42
1.0
 10
190.6148838841518
 20
158.5004950645262
 42
1.0
 10
191.7611781806644
 20
159.3885725711421
 42
1.0
 72
     4
 94
        3
 73
     1
 74
     0
 95
        8
 96
        4
 40
0.0
 40
0.0
 40
0.0
 40
0.0
 40
0.0056550783561135
 40
0.0056550783561135
 40
0.0056550783561135
 40
0.0056550783561135
 10
191.7611781806644
 20
159.3885725711421
 42
1.0
 10
190.7696335992563
 20
158.6203855163567
 42
1.0
 10
189.76490161563
 20
157.9281925774349
 42
1.0
 10
188.7611781806644
 20
157.3127142838418
 42
1.0
 72
     4
 94
        3
 73
     1
 74
     0
 95
        8
 96
        4
 40
0.0
 40
0.0
 40
0.0
 40
0.0
 40
0.0022515088020573
 40
0.0022515088020573
 40
0.0022515088020573
 40
0.0022515088020573
 10
188.7611781806644
 20
157.3127142838418
 42
1.0
 10
188.5695566663853
 20
157.1952129099417
 42
1.0
 10
188.4010760825534
 20
157.0946519732675
 42
1.0
 10
188.2611781806644
 20
157.0123345322088
 42
1.0
 97
        0
 75
     0
 76
     1
 52
0.0
 41
1.0
 77
     0
 78
     2
 53
45.0
 43
0.0
 44
0.0
 45
-6.735192090801866
 46
6.735192090801866
 79
     0
 53
45.0
 43
4.49013
 44
0.0
 45
-6.735192090801866
 46
6.735192090801866
 79
     0
 98
        1
 10
0.0
 20
0.0
  0
HATCH
  5
294
330
1F
100
AcDbEntity
  8
0
  6
Continuous
 62
     7
370
    18
100
AcDbHatch
 10
0.0
 20
0.0
 30
0.0
210
0.0
220
0.0
230
1.0
  2
ANSI32
 70
     0
 71
     0
 91
        1
 92
        0
 93
        3
 72
     4
 94
        3
 73
     1
 74
     0
 95
        8
 96
        4
 40
0.0
 40
0.0
 40
0.0
 40
0.0
 40
0.0056550783561135
 40
0.0056550783561135
 40
0.0056550783561135
 40
0.0056550783561135
 10
188.7611781806644
 20
242.653891029272
 42
1.0
 10
189.76490161563
 20
242.038412735679
 42
1.0
 10
190.7696335992564
 20
241.3462197967572
 42
1.0
 10
191.7611781806644
 20
240.5780327419717
 42
1.0
 72
     4
 94
        3
 73
     1
 74
     0
 95
        8
 96
        4
 40
0.0
 40
0.0
 40
0.0
 40
0.0
 40
0.0063781727632683
 40
0.0063781727632683
 40
0.0063781727632683
 40
0.0063781727632683
 10
191.7611781806644
 20
240.5780327419717
 42
1.0
 10
190.6148838841517
 20
241.4661102485877
 42
1.0
 10
189.4438237009355
 20
242.25838934456
 42
1.0
 10
188.2611781806644
 20
242.954270780905
 42
1.0
 72
     4
 94
        3
 73
     1
 74
     0
 95
        8
 96
        4
 40
0.0
 40
0.0
 40
0.0
 40
0.0
 40
0.0022515088020572
 40
0.0022515088020572
 40
0.0022515088020572
 40
0.0022515088020572
 10
188.2611781806644
 20
242.9542707809051
 42
1.0
 10
188.4010760825534
 20
242.8719533398464
 42
1.0
 10
188.5695566663853
 20
242.7713924031721
 42
1.0
 10
188.7611781806644
 20
242.6538910292721
 42
1.0
 97
        0
 75
     0
 76
     1
 52
0.0
 41
1.0
 77
     0
 78
     2
 53
45.0
 43
0.0
 44
0.0
 45
-6.735192090801866
 46
6.735192090801866
 79
     0
 53
45.0
 43
4.49013
 44
0.0
 45
-6.735192090801866
 46
6.735192090801866
 79
     0
 98
        1
 10
0.0
 20
0.0
  0
POINT
  5
295
330
1F
100
AcDbEntity
  8
0
  6
Continuous
 62
     7
370
     0
100
AcDbPoint
 10
189.7611781807
 20
165.4833026566
 30
0.0
  0
LINE
  5
296
330
1F
100
AcDbEntity
  8
0
  6
Continuous
 62
     7
370
     0
100
AcDbLine
 10
193.2611771078
 20
229.7538017519
 30
0.0
 11
201.2923590989
 21
229.7538017519
 31
0.0
  0
LINE
  5
297
330
1F
100
AcDbEntity
  8
0
  6
Continuous
 62
     7
370
     0
100
AcDbLine
 10
199.6119812281
 20
232.2128044106
 30
0.0
 11
193.2611771078
 21
232.2128044106
 31
0.0
  0
LINE
  5
298
330
1F
100
AcDbEntity
  8
0
  6
Continuous
 62
     7
370
     0
100
AcDbLine
 10
193.2611771078
 20
167.7538009025
 30
0.0
 11
199.652646497
 21
167.7538009025
 31
0.0
  0
LINE
  5
299
330
1F
100
AcDbEntity
  8
0
  6
Continuous
 62
     7
370
     0
100
AcDbLine
 10
201.2691728921
 20
170.2128035612
 30
0.0
 11
193.2611771078
 21
170.2128035612
 31
0.0
  0
LINE
  5
29A
330
1F
100
AcDbEntity
  8
0
  6
Continuous
 62
     7
370
     0
100
AcDbLine
 10
242.2611781546
 20
231.4833031632
 30
0.0
 11
248.2611782067
 21
231.4833031632
 31
0.0
  0
LINE
  5
29B
330
1F
100
AcDbEntity
  8
0
  6
Continuous
 62
     7
370
     0
100
AcDbLine
 10
248.2611782067
 20
228.4833026715
 30
0.0
 11
242.2611781546
 21
228.4833026715
 31
0.0
  0
LINE
  5
29C
330
1F
100
AcDbEntity
  8
0
  6
Continuous
 62
     7
370
     0
100
AcDbLine
 10
242.2611781546
 20
231.2333026566
 30
0.0
 11
242.2611781546
 21
231.4833031632
 31
0.0
  0
LINE
  5
29D
330
1F
100
AcDbEntity
  8
0
  6
Continuous
 62
     7
370
     0
100
AcDbLine
 10
242.2611781546
 20
228.4833026715
 30
0.0
 11
242.2611781546
 21
228.7333031781
 31
0.0
  0
LWPOLYLINE
  5
29E
330
1F
100
AcDbEntity
  8
0
  6
Continuous
 62
     7
370
     0
100
AcDbPolyline
 90
        9
 70
   128
 43
0.0
 10
242.2611713409
 20
231.2333026566
 10
242.2611781546
 20
231.1381512918
 10
242.2611781546
 20
230.867186714
 10
242.2611781546
 20
230.4616572
 10
242.2611781546
 20
229.983301986
 10
242.2611781546
 20
229.5049486347
 10
242.2611781546
 20
229.0994191207
 10
242.2611781546
 20
228.8284526803
 10
242.2611781546
 20
228.7333031781
  0
LINE
  5
29F
330
1F
100
AcDbEntity
  8
0
  6
Continuous
 62
     7
370
     0
100
AcDbLine
 10
191.5111772866
 20
236.4833021201
 30
0.0
 11
186.1111790092
 21
236.4833021201
 31
0.0
  0
LINE
  5
2A0
330
1F
100
AcDbEntity
  8
0
  6
Continuous
 62
     7
370
     0
100
AcDbLine
 10
186.1111790092
 20
240.4833027758
 30
0.0
 11
191.5111772866
 21
240.4833027758
 31
0.0
  0
LINE
  5
2A1
330
1F
100
AcDbEntity
  8
0
  6
Continuous
 62
     7
370
     0
100
AcDbLine
 10
191.5111772866
 20
236.8333043195
 30
0.0
 11
191.5111772866
 21
236.4833021201
 31
0.0
  0
LINE
  5
2A2
330
1F
100
AcDbEntity
  8
0
  6
Continuous
 62
     7
370
     0
100
AcDbLine
 10
191.5111772866
 20
240.4833027758
 30
0.0
 11
191.5111772866
 21
240.1333043016
 31
0.0
  0
LINE
  5
2A3
330
1F
100
AcDbEntity
  8
0
  6
Continuous
 62
     7
370
     0
100
AcDbLine
 10
191.5111772866
 20
159.4833025373
 30
0.0
 11
186.1111790092
 21
159.4833025373
 31
0.0
  0
LINE
  5
2A4
330
1F
100
AcDbEntity
  8
0
  6
Continuous
 62
     7
370
     0
100
AcDbLine
 10
186.1111790092
 20
163.483303193
 30
0.0
 11
191.5111772866
 21
163.483303193
 31
0.0
  0
LINE
  5
2A5
330
1F
100
AcDbEntity
  8
0
  6
Continuous
 62
     7
370
     0
100
AcDbLine
 10
191.5111772866
 20
159.8333010115
 30
0.0
 11
191.5111772866
 21
159.4833025373
 31
0.0
  0
LINE
  5
2A6
330
1F
100
AcDbEntity
  8
0
  6
Continuous
 62
     7
370
     0
100
AcDbLine
 10
191.5111772866
 20
163.483303193
 30
0.0
 11
191.5111772866
 21
163.1333009936
 31
0.0
  0
LWPOLYLINE
  5
2A7
330
1F
100
AcDbEntity
  8
0
  6
Continuous
 62
     7
370
     0
100
AcDbPolyline
 90
       10
 70
   128
 43
0.0
 10
191.5111541748
 20
236.8333043195
 10
191.5111772866
 20
236.9328105487
 10
191.5111772866
 20
237.2193300761
 10
191.5111772866
 20
237.6583033837
 10
191.5111772866
 20
238.1967829205
 10
191.5111772866
 20
238.7698219754
 10
191.5111772866
 20
239.3083015121
 10
191.5111772866
 20
239.7472748198
 10
191.5111772866
 20
240.0337943472
 10
191.5111772866
 20
240.1333043016
  0
LWPOLYLINE
  5
2A8
330
1F
100
AcDbEntity
  8
0
  6
Continuous
 62
     7
370
     0
100
AcDbPolyline
 90
       10
 70
   128
 43
0.0
 10
191.5111541748
 20
159.8333010115
 10
191.5111772866
 20
159.9328109659
 10
191.5111772866
 20
160.2193304934
 10
191.5111772866
 20
160.658303801
 10
191.5111772866
 20
161.1967833377
 10
191.5111772866
 20
161.7698223926
 10
191.5111772866
 20
162.3083019294
 10
191.5111772866
 20
162.747275237
 10
191.5111772866
 20
163.0337947644
 10
191.5111772866
 20
163.1333009936
  0
LINE
  5
2A9
330
1F
100
AcDbEntity
  8
0
  6
CENTERX2
 62
     7
370
    18
100
AcDbLine
 10
213.9138421459
 20
250.9833026566
 30
0.0
 11
186.5857112881
 21
250.9833026566
 31
0.0
  0
LINE
  5
2AA
330
1F
100
AcDbEntity
  8
0
  6
CENTERX2
 62
     7
370
    18
100
AcDbLine
 10
189.0777463036
 20
230.9833026566
 30
0.0
 11
202.3118734575
 21
230.9833026566
 31
0.0
  0
LINE
  5
2AB
330
1F
100
AcDbEntity
  8
0
  6
CENTERX2
 62
     7
370
    18
100
AcDbLine
 10
194.935474716
 20
238.4833026566
 30
0.0
 11
184.9122505437
 21
238.4833026566
 31
0.0
  0
LINE
  5
2AC
330
1F
100
AcDbEntity
  8
0
  6
CENTERX2
 62
     7
370
    18
100
AcDbLine
 10
188.6872310761
 20
226.0666964152
 30
0.0
 11
194.935474716
 21
226.0666964152
 31
0.0
  0
LINE
  5
2AD
330
1F
100
AcDbEntity
  8
0
  6
CENTERX2
 62
     7
370
    18
100
AcDbLine
 10
188.7904725328
 20
215.4833026566
 30
0.0
 11
195.2554556778
 21
215.4833026566
 31
0.0
  0
LINE
  5
2AE
330
1F
100
AcDbEntity
  8
0
  6
CENTERX2
 62
     7
370
    18
100
AcDbLine
 10
188.2329591296
 20
184.4833026566
 30
0.0
 11
195.8753527734
 21
184.4833026566
 31
0.0
  0
LINE
  5
2AF
330
1F
100
AcDbEntity
  8
0
  6
CENTERX2
 62
     7
370
    18
100
AcDbLine
 10
195.5357571407
 20
173.8999088979
 30
0.0
 11
188.0937413684
 21
173.8999088979
 31
0.0
  0
LINE
  5
2B0
330
1F
100
AcDbEntity
  8
0
  6
CENTERX2
 62
     7
370
    18
100
AcDbLine
 10
187.9408232361
 20
168.9833026566
 30
0.0
 11
202.7229093592
 21
168.9833026566
 31
0.0
  0
LINE
  5
2B1
330
1F
100
AcDbEntity
  8
0
  6
CENTERX2
 62
     7
370
    18
100
AcDbLine
 10
195.2299208761
 20
161.4833026566
 30
0.0
 11
184.3727334823
 21
161.4833026566
 31
0.0
  0
LINE
  5
2B2
330
1F
100
AcDbEntity
  8
0
  6
CENTERX2
 62
     7
370
    18
100
AcDbLine
 10
249.8027021085
 20
229.9833026566
 30
0.0
 11
240.1852201868
 21
229.9833026566
 31
0.0
  0
LINE
  5
2B3
330
1F
100
AcDbEntity
  8
0
  6
CENTERX2
 62
     7
370
    18
100
AcDbLine
 10
184.6476523863
 20
199.9833026566
 30
0.0
 11
250.3012629257
 21
199.9833026566
 31
0.0
  0
CIRCLE
  5
2B4
330
1F
100
AcDbEntity
  8
0
  6
Continuous
 62
     7
370
    35
100
AcDbCircle
 10
80.4886175195
 20
250.9833026566
 30
0.0
 40
2.25
  0
CIRCLE
  5
2B5
330
1F
100
AcDbEntity
  8
0
  6
Continuous
 62
     7
370
    35
100
AcDbCircle
 10
80.4886175195
 20
250.9833026566
 30
0.0
 40
2.600000000000022
  0
CIRCLE
  5
2B6
330
1F
100
AcDbEntity
  8
0
  6
Continuous
 62
     7
370
    35
100
AcDbCircle
 10
36.3213219265
 20
225.4833026566
 30
0.0
 40
2.250000000000008
  0
CIRCLE
  5
2B7
330
1F
100
AcDbEntity
  8
0
  6
Continuous
 62
     7
370
    35
100
AcDbCircle
 10
36.3213219265
 20
225.4833026566
 30
0.0
 40
2.6
  0
CIRCLE
  5
2B8
330
1F
100
AcDbEntity
  8
0
  6
Continuous
 62
     7
370
    35
100
AcDbCircle
 10
124.6559131125
 20
225.4833026566
 30
0.0
 40
2.249999999999973
  0
CIRCLE
  5
2B9
330
1F
100
AcDbEntity
  8
0
  6
Continuous
 62
     7
370
    35
100
AcDbCircle
 10
124.6559131125
 20
225.4833026566
 30
0.0
 40
2.599999999999995
  0
CIRCLE
  5
2BA
330
1F
100
AcDbEntity
  8
0
  6
Continuous
 62
     7
370
    35
100
AcDbCircle
 10
54.9886175195
 20
244.1505982496
 30
0.0
 40
2.249999999999986
  0
CIRCLE
  5
2BB
330
1F
100
AcDbEntity
  8
0
  6
Continuous
 62
     7
370
    35
100
AcDbCircle
 10
54.9886175195
 20
244.1505982496
 30
0.0
 40
2.600000000000046
  0
CIRCLE
  5
2BC
330
1F
100
AcDbEntity
  8
0
  6
Continuous
 62
     7
370
    35
100
AcDbCircle
 10
54.9886175195
 20
155.8160070636
 30
0.0
 40
2.25
  0
CIRCLE
  5
2BD
330
1F
100
AcDbEntity
  8
0
  6
Continuous
 62
     7
370
    35
100
AcDbCircle
 10
54.9886175195
 20
155.8160070636
 30
0.0
 40
2.600000000000001
  0
CIRCLE
  5
2BE
330
1F
100
AcDbEntity
  8
0
  6
Continuous
 62
     7
370
    35
100
AcDbCircle
 10
67.2888462193
 20
249.2455197973
 30
0.0
 40
1.850000000000007
  0
CIRCLE
  5
2BF
330
1F
100
AcDbEntity
  8
0
  6
Continuous
 62
     7
370
    35
100
AcDbCircle
 10
93.6883888198
 20
150.7210855158
 30
0.0
 40
1.85000000000002
  0
CIRCLE
  5
2C0
330
1F
100
AcDbEntity
  8
0
  6
Continuous
 62
     7
370
    35
100
AcDbCircle
 10
80.4886175195
 20
199.9833026566
 30
0.0
 40
54.41413484153112
  0
CIRCLE
  5
2C1
330
1F
100
AcDbEntity
  8
0
  6
Continuous
 62
     7
370
    35
100
AcDbCircle
 10
129.7508346603
 20
213.1830739568
 30
0.0
 40
1.85000000000002
  0
CIRCLE
  5
2C2
330
1F
100
AcDbEntity
  8
0
  6
Continuous
 62
     7
370
    35
100
AcDbCircle
 10
31.2264003788
 20
186.7835313563
 30
0.0
 40
1.850000000000001
  0
CIRCLE
  5
2C3
330
1F
100
AcDbEntity
  8
0
  6
Continuous
 62
     7
370
    35
100
AcDbCircle
 10
80.4886175195
 20
148.9833026566
 30
0.0
 40
2.60000000000002
  0
CIRCLE
  5
2C4
330
1F
100
AcDbEntity
  8
0
  6
Continuous
 62
     7
370
    35
100
AcDbCircle
 10
36.3213219265
 20
174.4833026566
 30
0.0
 40
2.600000000000008
  0
CIRCLE
  5
2C5
330
1F
100
AcDbEntity
  8
0
  6
Continuous
 62
     7
370
    35
100
AcDbCircle
 10
29.4886175195
 20
199.9833026566
 30
0.0
 40
2.600000000000008
  0
CIRCLE
  5
2C6
330
1F
100
AcDbEntity
  8
0
  6
Continuous
 62
     7
370
    35
100
AcDbCircle
 10
105.9886175195
 20
244.1505982496
 30
0.0
 40
2.600000000000022
  0
CIRCLE
  5
2C7
330
1F
100
AcDbEntity
  8
0
  6
Continuous
 62
     7
370
    35
100
AcDbCircle
 10
131.4886175195
 20
199.9833026566
 30
0.0
 40
2.599999999999993
  0
CIRCLE
  5
2C8
330
1F
100
AcDbEntity
  8
0
  6
Continuous
 62
     7
370
    35
100
AcDbCircle
 10
124.6559131125
 20
174.4833026566
 30
0.0
 40
2.599999999999993
  0
CIRCLE
  5
2C9
330
1F
100
AcDbEntity
  8
0
  6
Continuous
 62
     7
370
    35
100
AcDbCircle
 10
105.9886175195
 20
155.8160070636
 30
0.0
 40
2.60000000000002
  0
CIRCLE
  5
2CA
330
1F
100
AcDbEntity
  8
0
  6
Continuous
 62
     7
370
    35
100
AcDbCircle
 10
80.4886175195
 20
199.9833026566
 30
0.0
 40
47.50000000000003
  0
CIRCLE
  5
2CB
330
1F
100
AcDbEntity
  8
0
  6
Continuous
 62
     7
370
    35
100
AcDbCircle
 10
105.9886175195
 20
155.8160070636
 30
0.0
 40
2.25
  0
CIRCLE
  5
2CC
330
1F
100
AcDbEntity
  8
0
  6
Continuous
 62
     7
370
    35
100
AcDbCircle
 10
29.4886175195
 20
199.9833026566
 30
0.0
 40
2.249999999999977
  0
CIRCLE
  5
2CD
330
1F
100
AcDbEntity
  8
0
  6
Continuous
 62
     7
370
    35
100
AcDbCircle
 10
105.9886175195
 20
244.1505982496
 30
0.0
 40
2.249999999999973
  0
CIRCLE
  5
2CE
330
1F
100
AcDbEntity
  8
0
  6
Continuous
 62
     7
370
    35
100
AcDbCircle
 10
67.2888462193
 20
249.2455197973
 30
0.0
 40
1.249999999999992
  0
CIRCLE
  5
2CF
330
1F
100
AcDbEntity
  8
0
  6
Continuous
 62
     7
370
    35
100
AcDbCircle
 10
131.4886175195
 20
199.9833026566
 30
0.0
 40
2.250000000000027
  0
CIRCLE
  5
2D0
330
1F
100
AcDbEntity
  8
0
  6
Continuous
 62
     7
370
    35
100
AcDbCircle
 10
80.4886175195
 20
199.9833026566
 30
0.0
 40
55.00000000000004
  0
CIRCLE
  5
2D1
330
1F
100
AcDbEntity
  8
0
  6
Continuous
 62
     7
370
    35
100
AcDbCircle
 10
129.7508346603
 20
213.1830739568
 30
0.0
 40
1.250000000000004
  0
CIRCLE
  5
2D2
330
1F
100
AcDbEntity
  8
0
  6
Continuous
 62
     7
370
    35
100
AcDbCircle
 10
124.6559131125
 20
174.4833026566
 30
0.0
 40
2.25
  0
CIRCLE
  5
2D3
330
1F
100
AcDbEntity
  8
0
  6
Continuous
 62
     7
370
    35
100
AcDbCircle
 10
93.6883888198
 20
150.7210855158
 30
0.0
 40
1.250000000000031
  0
CIRCLE
  5
2D4
330
1F
100
AcDbEntity
  8
0
  6
Continuous
 62
     7
370
    35
100
AcDbCircle
 10
36.3213219265
 20
174.4833026566
 30
0.0
 40
2.249999999999994
  0
CIRCLE
  5
2D5
330
1F
100
AcDbEntity
  8
0
  6
Continuous
 62
     7
370
    35
100
AcDbCircle
 10
31.2264003788
 20
186.7835313563
 30
0.0
 40
1.249999999999998
  0
CIRCLE
  5
2D6
330
1F
100
AcDbEntity
  8
0
  6
Continuous
 62
     7
370
    35
100
AcDbCircle
 10
80.4886175195
 20
148.9833026566
 30
0.0
 40
2.249999999999988
  0
CIRCLE
  5
2D7
330
1F
100
AcDbEntity
  8
0
  6
Continuous
 62
     7
370
    35
100
AcDbCircle
 10
80.4886175195
 20
161.4833026566
 30
0.0
 40
2.34999999999998
  0
CIRCLE
  5
2D8
330
1F
100
AcDbEntity
  8
0
  6
Continuous
 62
     7
370
    35
100
AcDbCircle
 10
80.4886175195
 20
161.4833026566
 30
0.0
 40
1.650000000000013
  0
CIRCLE
  5
2D9
330
1F
100
AcDbEntity
  8
0
  6
Continuous
 62
     7
370
    35
100
AcDbCircle
 10
47.1466394738
 20
219.2333026566
 30
0.0
 40
2.350000000000029
  0
CIRCLE
  5
2DA
330
1F
100
AcDbEntity
  8
0
  6
Continuous
 62
     7
370
    35
100
AcDbCircle
 10
47.1466394738
 20
219.2333026566
 30
0.0
 40
1.649999999999991
  0
CIRCLE
  5
2DB
330
1F
100
AcDbEntity
  8
0
  6
Continuous
 62
     7
370
    35
100
AcDbCircle
 10
99.7386175195
 20
233.3252807023
 30
0.0
 40
2.349999999999973
  0
CIRCLE
  5
2DC
330
1F
100
AcDbEntity
  8
0
  6
Continuous
 62
     7
370
    35
100
AcDbCircle
 10
99.7386175195
 20
233.3252807023
 30
0.0
 40
1.649999999999985
  0
CIRCLE
  5
2DD
330
1F
100
AcDbEntity
  8
0
  6
Continuous
 62
     7
370
    35
100
AcDbCircle
 10
99.7386175195
 20
166.6413246109
 30
0.0
 40
2.349999999999973
  0
CIRCLE
  5
2DE
330
1F
100
AcDbEntity
  8
0
  6
Continuous
 62
     7
370
    35
100
AcDbCircle
 10
99.7386175195
 20
166.6413246109
 30
0.0
 40
1.649999999999985
  0
CIRCLE
  5
2DF
330
1F
100
AcDbEntity
  8
0
  6
Continuous
 62
     7
370
    35
100
AcDbCircle
 10
80.4886175195
 20
199.9833026566
 30
0.0
 40
34.5
  0
CIRCLE
  5
2E0
330
1F
100
AcDbEntity
  8
0
  6
Continuous
 62
     7
370
    35
100
AcDbCircle
 10
80.4886175195
 20
199.9833026566
 30
0.0
 40
34.8
  0
CIRCLE
  5
2E1
330
1F
100
AcDbEntity
  8
0
  6
Continuous
 62
     7
370
    35
100
AcDbCircle
 10
41.9886175195
 20
199.9833026566
 30
0.0
 40
2.350000000000008
  0
CIRCLE
  5
2E2
330
1F
100
AcDbEntity
  8
0
  6
Continuous
 62
     7
370
    35
100
AcDbCircle
 10
41.9886175195
 20
199.9833026566
 30
0.0
 40
1.649999999999991
  0
CIRCLE
  5
2E3
330
1F
100
AcDbEntity
  8
0
  6
Continuous
 62
     7
370
    35
100
AcDbCircle
 10
113.8305955652
 20
180.7333026566
 30
0.0
 40
2.34999999999998
  0
CIRCLE
  5
2E4
330
1F
100
AcDbEntity
  8
0
  6
Continuous
 62
     7
370
    35
100
AcDbCircle
 10
113.8305955652
 20
180.7333026566
 30
0.0
 40
1.649999999999997
  0
CIRCLE
  5
2E5
330
1F
100
AcDbEntity
  8
0
  6
Continuous
 62
     7
370
    35
100
AcDbCircle
 10
47.1466394738
 20
180.7333026566
 30
0.0
 40
2.350000000000005
  0
CIRCLE
  5
2E6
330
1F
100
AcDbEntity
  8
0
  6
Continuous
 62
     7
370
    35
100
AcDbCircle
 10
47.1466394738
 20
180.7333026566
 30
0.0
 40
1.649999999999991
  0
CIRCLE
  5
2E7
330
1F
100
AcDbEntity
  8
0
  6
Continuous
 62
     7
370
    35
100
AcDbCircle
 10
61.2386175195
 20
233.3252807023
 30
0.0
 40
2.349999999999983
  0
CIRCLE
  5
2E8
330
1F
100
AcDbEntity
  8
0
  6
Continuous
 62
     7
370
    35
100
AcDbCircle
 10
61.2386175195
 20
233.3252807023
 30
0.0
 40
1.649999999999997
  0
CIRCLE
  5
2E9
330
1F
100
AcDbEntity
  8
0
  6
Continuous
 62
     7
370
    35
100
AcDbCircle
 10
118.9886175195
 20
199.9833026566
 30
0.0
 40
2.350000000000005
  0
CIRCLE
  5
2EA
330
1F
100
AcDbEntity
  8
0
  6
Continuous
 62
     7
370
    35
100
AcDbCircle
 10
118.9886175195
 20
199.9833026566
 30
0.0
 40
1.649999999999997
  0
CIRCLE
  5
2EB
330
1F
100
AcDbEntity
  8
0
  6
Continuous
 62
     7
370
    35
100
AcDbCircle
 10
61.2386175195
 20
166.6413246109
 30
0.0
 40
2.34999999999998
  0
CIRCLE
  5
2EC
330
1F
100
AcDbEntity
  8
0
  6
Continuous
 62
     7
370
    35
100
AcDbCircle
 10
61.2386175195
 20
166.6413246109
 30
0.0
 40
1.650000000000005
  0
CIRCLE
  5
2ED
330
1F
100
AcDbEntity
  8
0
  6
Continuous
 62
     7
370
    35
100
AcDbCircle
 10
80.4886175195
 20
199.9833026566
 30
0.0
 40
41.70000000000002
  0
CIRCLE
  5
2EE
330
1F
100
AcDbEntity
  8
0
  6
Continuous
 62
     7
370
    35
100
AcDbCircle
 10
80.4886175195
 20
199.9833026566
 30
0.0
 40
42.00000000000003
  0
CIRCLE
  5
2EF
330
1F
100
AcDbEntity
  8
0
  6
Continuous
 62
     7
370
    35
100
AcDbCircle
 10
113.8305955652
 20
219.2333026566
 30
0.0
 40
2.349999999999955
  0
CIRCLE
  5
2F0
330
1F
100
AcDbEntity
  8
0
  6
Continuous
 62
     7
370
    35
100
AcDbCircle
 10
113.8305955652
 20
219.2333026566
 30
0.0
 40
1.650000000000025
  0
CIRCLE
  5
2F1
330
1F
100
AcDbEntity
  8
0
  6
Continuous
 62
     7
370
    35
100
AcDbCircle
 10
80.4886175195
 20
238.4833026566
 30
0.0
 40
2.350000000000005
  0
CIRCLE
  5
2F2
330
1F
100
AcDbEntity
  8
0
  6
Continuous
 62
     7
370
    35
100
AcDbCircle
 10
80.4886175195
 20
238.4833026566
 30
0.0
 40
1.649999999999997
  0
CIRCLE
  5
2F3
330
1F
100
AcDbEntity
  8
0
  6
Continuous
 62
     7
370
    35
100
AcDbCircle
 10
80.4886175195
 20
199.9833026566
 30
0.0
 40
27.55
  0
CIRCLE
  5
2F4
330
1F
100
AcDbEntity
  8
0
  6
Continuous
 62
     7
370
    35
100
AcDbCircle
 10
80.4886175195
 20
199.9833026566
 30
0.0
 40
27.85
  0
LINE
  5
2F5
330
1F
100
AcDbEntity
  8
0
  6
Continuous
 62
     7
370
    35
100
AcDbLine
 10
52.3618300022
 20
216.2223110011
 30
0.0
 11
52.3618300022
 21
214.744294312
 31
0.0
  0
LINE
  5
2F6
330
1F
100
AcDbEntity
  8
0
  6
Continuous
 62
     7
370
    35
100
AcDbLine
 10
53.6418300022
 20
214.0052859674
 30
0.0
 11
54.9218300022
 21
214.744294312
 31
0.0
  0
LINE
  5
2F7
330
1F
100
AcDbEntity
  8
0
  6
Continuous
 62
     7
370
    35
100
AcDbLine
 10
54.9218300022
 20
214.744294312
 30
0.0
 11
54.9218300022
 21
216.2223110011
 31
0.0
  0
LINE
  5
2F8
330
1F
100
AcDbEntity
  8
0
  6
Continuous
 62
     7
370
    35
100
AcDbLine
 10
54.9218300022
 20
216.2223110011
 30
0.0
 11
53.6418300022
 21
216.9613193457
 31
0.0
  0
LINE
  5
2F9
330
1F
100
AcDbEntity
  8
0
  6
Continuous
 62
     7
370
    35
100
AcDbLine
 10
53.6418300022
 20
216.9613193457
 30
0.0
 11
52.3618300022
 21
216.2223110011
 31
0.0
  0
LINE
  5
2FA
330
1F
100
AcDbEntity
  8
0
  6
Continuous
 62
     7
370
    35
100
AcDbLine
 10
52.3618300022
 20
214.744294312
 30
0.0
 11
53.6418300022
 21
214.0052859674
 31
0.0
  0
CIRCLE
  5
2FB
330
1F
100
AcDbEntity
  8
0
  6
Continuous
 62
     7
370
    35
100
AcDbCircle
 10
53.6418300022
 20
215.4833026566
 30
0.0
 40
2.839999999999996
  0
CIRCLE
  5
2FC
330
1F
100
AcDbEntity
  8
0
  6
Continuous
 62
     7
370
    35
100
AcDbCircle
 10
80.4886175195
 20
230.9833026566
 30
0.0
 40
2.840000000000003
  0
LINE
  5
2FD
330
1F
100
AcDbEntity
  8
0
  6
Continuous
 62
     7
370
    35
100
AcDbLine
 10
81.7686175195
 20
230.244294312
 30
0.0
 11
81.7686175195
 21
231.7223110011
 31
0.0
  0
LINE
  5
2FE
330
1F
100
AcDbEntity
  8
0
  6
Continuous
 62
     7
370
    35
100
AcDbLine
 10
81.7686175195
 20
231.7223110011
 30
0.0
 11
80.4886175195
 21
232.4613193457
 31
0.0
  0
LINE
  5
2FF
330
1F
100
AcDbEntity
  8
0
  6
Continuous
 62
     7
370
    35
100
AcDbLine
 10
80.4886175195
 20
232.4613193457
 30
0.0
 11
79.2086175195
 21
231.7223110011
 31
0.0
  0
LINE
  5
300
330
1F
100
AcDbEntity
  8
0
  6
Continuous
 62
     7
370
    35
100
AcDbLine
 10
79.2086175195
 20
230.244294312
 30
0.0
 11
80.4886175195
 21
229.5052859674
 31
0.0
  0
LINE
  5
301
330
1F
100
AcDbEntity
  8
0
  6
Continuous
 62
     7
370
    35
100
AcDbLine
 10
80.4886175195
 20
229.5052859674
 30
0.0
 11
81.7686175195
 21
230.244294312
 31
0.0
  0
LINE
  5
302
330
1F
100
AcDbEntity
  8
0
  6
Continuous
 62
     7
370
    35
100
AcDbLine
 10
79.2086175195
 20
231.7223110011
 30
0.0
 11
79.2086175195
 21
230.244294312
 31
0.0
  0
LINE
  5
303
330
1F
100
AcDbEntity
  8
0
  6
Continuous
 62
     7
370
    35
100
AcDbLine
 10
80.4886175195
 20
167.5052859674
 30
0.0
 11
81.7686175195
 21
168.244294312
 31
0.0
  0
LINE
  5
304
330
1F
100
AcDbEntity
  8
0
  6
Continuous
 62
     7
370
    35
100
AcDbLine
 10
81.7686175195
 20
168.244294312
 30
0.0
 11
81.7686175195
 21
169.7223110011
 31
0.0
  0
LINE
  5
305
330
1F
100
AcDbEntity
  8
0
  6
Continuous
 62
     7
370
    35
100
AcDbLine
 10
81.7686175195
 20
169.7223110011
 30
0.0
 11
80.4886175195
 21
170.4613193457
 31
0.0
  0
LINE
  5
306
330
1F
100
AcDbEntity
  8
0
  6
Continuous
 62
     7
370
    35
100
AcDbLine
 10
80.4886175195
 20
170.4613193457
 30
0.0
 11
79.2086175195
 21
169.7223110011
 31
0.0
  0
LINE
  5
307
330
1F
100
AcDbEntity
  8
0
  6
Continuous
 62
     7
370
    35
100
AcDbLine
 10
79.2086175195
 20
168.244294312
 30
0.0
 11
80.4886175195
 21
167.5052859674
 31
0.0
  0
LINE
  5
308
330
1F
100
AcDbEntity
  8
0
  6
Continuous
 62
     7
370
    35
100
AcDbLine
 10
79.2086175195
 20
169.7223110011
 30
0.0
 11
79.2086175195
 21
168.244294312
 31
0.0
  0
CIRCLE
  5
309
330
1F
100
AcDbEntity
  8
0
  6
Continuous
 62
     7
370
    35
100
AcDbCircle
 10
80.4886175195
 20
168.9833026566
 30
0.0
 40
2.840000000000003
  0
LINE
  5
30A
330
1F
100
AcDbEntity
  8
0
  6
Continuous
 62
     7
370
    35
100
AcDbLine
 10
65.7276258641
 20
171.8565151392
 30
0.0
 11
66.4666342087
 21
173.1365151392
 31
0.0
  0
LINE
  5
30B
330
1F
100
AcDbEntity
  8
0
  6
Continuous
 62
     7
370
    35
100
AcDbLine
 10
65.7276258641
 20
174.4165151392
 30
0.0
 11
64.249609175
 21
174.4165151392
 31
0.0
  0
LINE
  5
30C
330
1F
100
AcDbEntity
  8
0
  6
Continuous
 62
     7
370
    35
100
AcDbLine
 10
66.4666342087
 20
173.1365151392
 30
0.0
 11
65.7276258641
 21
174.4165151392
 31
0.0
  0
LINE
  5
30D
330
1F
100
AcDbEntity
  8
0
  6
Continuous
 62
     7
370
    35
100
AcDbLine
 10
64.249609175
 20
171.8565151392
 30
0.0
 11
65.7276258641
 21
171.8565151392
 31
0.0
  0
LINE
  5
30E
330
1F
100
AcDbEntity
  8
0
  6
Continuous
 62
     7
370
    35
100
AcDbLine
 10
63.5106008304
 20
173.1365151392
 30
0.0
 11
64.249609175
 21
171.8565151392
 31
0.0
  0
LINE
  5
30F
330
1F
100
AcDbEntity
  8
0
  6
Continuous
 62
     7
370
    35
100
AcDbLine
 10
64.249609175
 20
174.4165151392
 30
0.0
 11
63.5106008304
 21
173.1365151392
 31
0.0
  0
CIRCLE
  5
310
330
1F
100
AcDbEntity
  8
0
  6
Continuous
 62
     7
370
    35
100
AcDbCircle
 10
64.9886175195
 20
173.1365151392
 30
0.0
 40
2.840000000000009
  0
LINE
  5
311
330
1F
100
AcDbEntity
  8
0
  6
Continuous
 62
     7
370
    35
100
AcDbLine
 10
48.0106008304
 20
199.9833026566
 30
0.0
 11
48.749609175
 21
198.7033026566
 31
0.0
  0
LINE
  5
312
330
1F
100
AcDbEntity
  8
0
  6
Continuous
 62
     7
370
    35
100
AcDbLine
 10
48.749609175
 20
198.7033026566
 30
0.0
 11
50.2276258641
 21
198.7033026566
 31
0.0
  0
LINE
  5
313
330
1F
100
AcDbEntity
  8
0
  6
Continuous
 62
     7
370
    35
100
AcDbLine
 10
50.2276258641
 20
198.7033026566
 30
0.0
 11
50.9666342087
 21
199.9833026566
 31
0.0
  0
LINE
  5
314
330
1F
100
AcDbEntity
  8
0
  6
Continuous
 62
     7
370
    35
100
AcDbLine
 10
50.9666342087
 20
199.9833026566
 30
0.0
 11
50.2276258641
 21
201.2633026566
 31
0.0
  0
LINE
  5
315
330
1F
100
AcDbEntity
  8
0
  6
Continuous
 62
     7
370
    35
100
AcDbLine
 10
50.2276258641
 20
201.2633026566
 30
0.0
 11
48.749609175
 21
201.2633026566
 31
0.0
  0
LINE
  5
316
330
1F
100
AcDbEntity
  8
0
  6
Continuous
 62
     7
370
    35
100
AcDbLine
 10
48.749609175
 20
201.2633026566
 30
0.0
 11
48.0106008304
 21
199.9833026566
 31
0.0
  0
CIRCLE
  5
317
330
1F
100
AcDbEntity
  8
0
  6
Continuous
 62
     7
370
    35
100
AcDbCircle
 10
49.4886175195
 20
199.9833026566
 30
0.0
 40
2.840000000000003
  0
LINE
  5
318
330
1F
100
AcDbEntity
  8
0
  6
Continuous
 62
     7
370
    35
100
AcDbLine
 10
94.5106008304
 20
173.1365151392
 30
0.0
 11
95.249609175
 21
171.8565151392
 31
0.0
  0
LINE
  5
319
330
1F
100
AcDbEntity
  8
0
  6
Continuous
 62
     7
370
    35
100
AcDbLine
 10
97.4666342087
 20
173.1365151392
 30
0.0
 11
96.7276258641
 21
174.4165151392
 31
0.0
  0
LINE
  5
31A
330
1F
100
AcDbEntity
  8
0
  6
Continuous
 62
     7
370
    35
100
AcDbLine
 10
95.249609175
 20
174.4165151392
 30
0.0
 11
94.5106008304
 21
173.1365151392
 31
0.0
  0
LINE
  5
31B
330
1F
100
AcDbEntity
  8
0
  6
Continuous
 62
     7
370
    35
100
AcDbLine
 10
96.7276258641
 20
174.4165151392
 30
0.0
 11
95.249609175
 21
174.4165151392
 31
0.0
  0
LINE
  5
31C
330
1F
100
AcDbEntity
  8
0
  6
Continuous
 62
     7
370
    35
100
AcDbLine
 10
96.7276258641
 20
171.8565151392
 30
0.0
 11
97.4666342087
 21
173.1365151392
 31
0.0
  0
LINE
  5
31D
330
1F
100
AcDbEntity
  8
0
  6
Continuous
 62
     7
370
    35
100
AcDbLine
 10
95.249609175
 20
171.8565151392
 30
0.0
 11
96.7276258641
 21
171.8565151392
 31
0.0
  0
CIRCLE
  5
31E
330
1F
100
AcDbEntity
  8
0
  6
Continuous
 62
     7
370
    35
100
AcDbCircle
 10
95.9886175195
 20
173.1365151392
 30
0.0
 40
2.840000000000012
  0
CIRCLE
  5
31F
330
1F
100
AcDbEntity
  8
0
  6
Continuous
 62
     7
370
    35
100
AcDbCircle
 10
95.9886175195
 20
226.8300901739
 30
0.0
 40
2.840000000000014
  0
LINE
  5
320
330
1F
100
AcDbEntity
  8
0
  6
Continuous
 62
     7
370
    35
100
AcDbLine
 10
97.4666342087
 20
226.8300901739
 30
0.0
 11
96.7276258641
 21
228.1100901739
 31
0.0
  0
LINE
  5
321
330
1F
100
AcDbEntity
  8
0
  6
Continuous
 62
     7
370
    35
100
AcDbLine
 10
96.7276258641
 20
228.1100901739
 30
0.0
 11
95.249609175
 21
228.1100901739
 31
0.0
  0
LINE
  5
322
330
1F
100
AcDbEntity
  8
0
  6
Continuous
 62
     7
370
    35
100
AcDbLine
 10
95.249609175
 20
228.1100901739
 30
0.0
 11
94.5106008304
 21
226.8300901739
 31
0.0
  0
LINE
  5
323
330
1F
100
AcDbEntity
  8
0
  6
Continuous
 62
     7
370
    35
100
AcDbLine
 10
96.7276258641
 20
225.5500901739
 30
0.0
 11
97.4666342087
 21
226.8300901739
 31
0.0
  0
LINE
  5
324
330
1F
100
AcDbEntity
  8
0
  6
Continuous
 62
     7
370
    35
100
AcDbLine
 10
95.249609175
 20
225.5500901739
 30
0.0
 11
96.7276258641
 21
225.5500901739
 31
0.0
  0
LINE
  5
325
330
1F
100
AcDbEntity
  8
0
  6
Continuous
 62
     7
370
    35
100
AcDbLine
 10
94.5106008304
 20
226.8300901739
 30
0.0
 11
95.249609175
 21
225.5500901739
 31
0.0
  0
LINE
  5
326
330
1F
100
AcDbEntity
  8
0
  6
Continuous
 62
     7
370
    35
100
AcDbLine
 10
108.6154050368
 20
216.2223110011
 30
0.0
 11
107.3354050368
 21
216.9613193457
 31
0.0
  0
LINE
  5
327
330
1F
100
AcDbEntity
  8
0
  6
Continuous
 62
     7
370
    35
100
AcDbLine
 10
106.0554050368
 20
214.744294312
 30
0.0
 11
107.3354050368
 21
214.0052859674
 31
0.0
  0
LINE
  5
328
330
1F
100
AcDbEntity
  8
0
  6
Continuous
 62
     7
370
    35
100
AcDbLine
 10
108.6154050368
 20
214.744294312
 30
0.0
 11
108.6154050368
 21
216.2223110011
 31
0.0
  0
LINE
  5
329
330
1F
100
AcDbEntity
  8
0
  6
Continuous
 62
     7
370
    35
100
AcDbLine
 10
106.0554050368
 20
216.2223110011
 30
0.0
 11
106.0554050368
 21
214.744294312
 31
0.0
  0
LINE
  5
32A
330
1F
100
AcDbEntity
  8
0
  6
Continuous
 62
     7
370
    35
100
AcDbLine
 10
107.3354050368
 20
214.0052859674
 30
0.0
 11
108.6154050368
 21
214.744294312
 31
0.0
  0
LINE
  5
32B
330
1F
100
AcDbEntity
  8
0
  6
Continuous
 62
     7
370
    35
100
AcDbLine
 10
107.3354050368
 20
216.9613193457
 30
0.0
 11
106.0554050368
 21
216.2223110011
 31
0.0
  0
CIRCLE
  5
32C
330
1F
100
AcDbEntity
  8
0
  6
Continuous
 62
     7
370
    35
100
AcDbCircle
 10
107.3354050368
 20
215.4833026566
 30
0.0
 40
2.839999999999982
  0
LINE
  5
32D
330
1F
100
AcDbEntity
  8
0
  6
Continuous
 62
     7
370
    35
100
AcDbLine
 10
112.9666342087
 20
199.9833026566
 30
0.0
 11
112.2276258641
 21
201.2633026566
 31
0.0
  0
LINE
  5
32E
330
1F
100
AcDbEntity
  8
0
  6
Continuous
 62
     7
370
    35
100
AcDbLine
 10
112.2276258641
 20
201.2633026566
 30
0.0
 11
110.749609175
 21
201.2633026566
 31
0.0
  0
LINE
  5
32F
330
1F
100
AcDbEntity
  8
0
  6
Continuous
 62
     7
370
    35
100
AcDbLine
 10
110.749609175
 20
201.2633026566
 30
0.0
 11
110.0106008304
 21
199.9833026566
 31
0.0
  0
LINE
  5
330
330
1F
100
AcDbEntity
  8
0
  6
Continuous
 62
     7
370
    35
100
AcDbLine
 10
110.0106008304
 20
199.9833026566
 30
0.0
 11
110.749609175
 21
198.7033026566
 31
0.0
  0
LINE
  5
331
330
1F
100
AcDbEntity
  8
0
  6
Continuous
 62
     7
370
    35
100
AcDbLine
 10
110.749609175
 20
198.7033026566
 30
0.0
 11
112.2276258641
 21
198.7033026566
 31
0.0
  0
LINE
  5
332
330
1F
100
AcDbEntity
  8
0
  6
Continuous
 62
     7
370
    35
100
AcDbLine
 10
112.2276258641
 20
198.7033026566
 30
0.0
 11
112.9666342087
 21
199.9833026566
 31
0.0
  0
CIRCLE
  5
333
330
1F
100
AcDbEntity
  8
0
  6
Continuous
 62
     7
370
    35
100
AcDbCircle
 10
111.4886175195
 20
199.9833026566
 30
0.0
 40
2.840000000000003
  0
LINE
  5
334
330
1F
100
AcDbEntity
  8
0
  6
Continuous
 62
     7
370
    35
100
AcDbLine
 10
64.249609175
 20
228.1100901739
 30
0.0
 11
63.5106008304
 21
226.8300901739
 31
0.0
  0
LINE
  5
335
330
1F
100
AcDbEntity
  8
0
  6
Continuous
 62
     7
370
    35
100
AcDbLine
 10
63.5106008304
 20
226.8300901739
 30
0.0
 11
64.249609175
 21
225.5500901739
 31
0.0
  0
LINE
  5
336
330
1F
100
AcDbEntity
  8
0
  6
Continuous
 62
     7
370
    35
100
AcDbLine
 10
64.249609175
 20
225.5500901739
 30
0.0
 11
65.7276258641
 21
225.5500901739
 31
0.0
  0
LINE
  5
337
330
1F
100
AcDbEntity
  8
0
  6
Continuous
 62
     7
370
    35
100
AcDbLine
 10
65.7276258641
 20
225.5500901739
 30
0.0
 11
66.4666342087
 21
226.8300901739
 31
0.0
  0
LINE
  5
338
330
1F
100
AcDbEntity
  8
0
  6
Continuous
 62
     7
370
    35
100
AcDbLine
 10
65.7276258641
 20
228.1100901739
 30
0.0
 11
64.249609175
 21
228.1100901739
 31
0.0
  0
LINE
  5
339
330
1F
100
AcDbEntity
  8
0
  6
Continuous
 62
     7
370
    35
100
AcDbLine
 10
66.4666342087
 20
226.8300901739
 30
0.0
 11
65.7276258641
 21
228.1100901739
 31
0.0
  0
CIRCLE
  5
33A
330
1F
100
AcDbEntity
  8
0
  6
Continuous
 62
     7
370
    35
100
AcDbCircle
 10
64.9886175195
 20
226.8300901739
 30
0.0
 40
2.839999999999971
  0
CIRCLE
  5
33B
330
1F
100
AcDbEntity
  8
0
  6
Continuous
 62
     7
370
    35
100
AcDbCircle
 10
107.3354050368
 20
184.4833026566
 30
0.0
 40
2.839999999999989
  0
LINE
  5
33C
330
1F
100
AcDbEntity
  8
0
  6
Continuous
 62
     7
370
    35
100
AcDbLine
 10
107.3354050368
 20
185.9613193457
 30
0.0
 11
106.0554050368
 21
185.2223110011
 31
0.0
  0
LINE
  5
33D
330
1F
100
AcDbEntity
  8
0
  6
Continuous
 62
     7
370
    35
100
AcDbLine
 10
107.3354050368
 20
183.0052859674
 30
0.0
 11
108.6154050368
 21
183.744294312
 31
0.0
  0
LINE
  5
33E
330
1F
100
AcDbEntity
  8
0
  6
Continuous
 62
     7
370
    35
100
AcDbLine
 10
106.0554050368
 20
185.2223110011
 30
0.0
 11
106.0554050368
 21
183.744294312
 31
0.0
  0
LINE
  5
33F
330
1F
100
AcDbEntity
  8
0
  6
Continuous
 62
     7
370
    35
100
AcDbLine
 10
106.0554050368
 20
183.744294312
 30
0.0
 11
107.3354050368
 21
183.0052859674
 31
0.0
  0
LINE
  5
340
330
1F
100
AcDbEntity
  8
0
  6
Continuous
 62
     7
370
    35
100
AcDbLine
 10
108.6154050368
 20
183.744294312
 30
0.0
 11
108.6154050368
 21
185.2223110011
 31
0.0
  0
LINE
  5
341
330
1F
100
AcDbEntity
  8
0
  6
Continuous
 62
     7
370
    35
100
AcDbLine
 10
108.6154050368
 20
185.2223110011
 30
0.0
 11
107.3354050368
 21
185.9613193457
 31
0.0
  0
LINE
  5
342
330
1F
100
AcDbEntity
  8
0
  6
Continuous
 62
     7
370
    35
100
AcDbLine
 10
52.3618300022
 20
183.744294312
 30
0.0
 11
53.6418300022
 21
183.0052859674
 31
0.0
  0
LINE
  5
343
330
1F
100
AcDbEntity
  8
0
  6
Continuous
 62
     7
370
    35
100
AcDbLine
 10
54.9218300022
 20
183.744294312
 30
0.0
 11
54.9218300022
 21
185.2223110011
 31
0.0
  0
LINE
  5
344
330
1F
100
AcDbEntity
  8
0
  6
Continuous
 62
     7
370
    35
100
AcDbLine
 10
52.3618300022
 20
185.2223110011
 30
0.0
 11
52.3618300022
 21
183.744294312
 31
0.0
  0
LINE
  5
345
330
1F
100
AcDbEntity
  8
0
  6
Continuous
 62
     7
370
    35
100
AcDbLine
 10
54.9218300022
 20
185.2223110011
 30
0.0
 11
53.6418300022
 21
185.9613193457
 31
0.0
  0
LINE
  5
346
330
1F
100
AcDbEntity
  8
0
  6
Continuous
 62
     7
370
    35
100
AcDbLine
 10
53.6418300022
 20
183.0052859674
 30
0.0
 11
54.9218300022
 21
183.744294312
 31
0.0
  0
LINE
  5
347
330
1F
100
AcDbEntity
  8
0
  6
Continuous
 62
     7
370
    35
100
AcDbLine
 10
53.6418300022
 20
185.9613193457
 30
0.0
 11
52.3618300022
 21
185.2223110011
 31
0.0
  0
CIRCLE
  5
348
330
1F
100
AcDbEntity
  8
0
  6
Continuous
 62
     7
370
    35
100
AcDbCircle
 10
53.6418300022
 20
184.4833026566
 30
0.0
 40
2.839999999999992
  0
CIRCLE
  5
349
330
1F
100
AcDbEntity
  8
0
  6
Continuous
 62
     7
370
    35
100
AcDbCircle
 10
93.6883888198
 20
150.7210855158
 30
0.0
 40
1.229500000000016
  0
CIRCLE
  5
34A
330
1F
100
AcDbEntity
  8
0
  6
Continuous
 62
     7
370
    35
100
AcDbCircle
 10
67.2888462193
 20
249.2455197973
 30
0.0
 40
1.229500000000016
  0
CIRCLE
  5
34B
330
1F
100
AcDbEntity
  8
0
  6
Continuous
 62
     7
370
    35
100
AcDbCircle
 10
31.2264003788
 20
186.7835313563
 30
0.0
 40
1.22950000000003
  0
CIRCLE
  5
34C
330
1F
100
AcDbEntity
  8
0
  6
Continuous
 62
     7
370
    35
100
AcDbCircle
 10
129.7508346603
 20
213.1830739568
 30
0.0
 40
1.229500000000002
  0
CIRCLE
  5
34D
330
1F
100
AcDbEntity
  8
0
  6
Continuous
 62
     7
370
    35
100
AcDbCircle
 10
80.4886175195
 20
199.9833026566
 30
0.0
 40
46.60000000000005
  0
CIRCLE
  5
34E
330
1F
100
AcDbEntity
  8
0
  6
Continuous
 62
     7
370
    35
100
AcDbCircle
 10
80.4886175195
 20
199.9833026566
 30
0.0
 40
46.99999999999999
  0
CIRCLE
  5
34F
330
1F
100
AcDbEntity
  8
0
  6
Continuous
 62
     7
370
    35
100
AcDbCircle
 10
80.4886175195
 20
199.9833026566
 30
0.0
 40
46.07168089129319
  0
CIRCLE
  5
350
330
1F
100
AcDbEntity
  8
0
  6
Continuous
 62
     7
370
    35
100
AcDbCircle
 10
80.4886175195
 20
199.9833026566
 30
0.0
 40
42.16666666666668
  0
CIRCLE
  5
351
330
1F
100
AcDbEntity
  8
0
  6
Continuous
 62
     7
370
    35
100
AcDbCircle
 10
80.4886175195
 20
199.9833026566
 30
0.0
 40
44.40501422462654
  0
CIRCLE
  5
352
330
1F
100
AcDbEntity
  8
0
  6
Continuous
 62
     7
370
    35
100
AcDbCircle
 10
80.4886175195
 20
199.9833026566
 30
0.0
 40
42.93096036319229
  0
CIRCLE
  5
353
330
1F
100
AcDbEntity
  8
0
  6
Continuous
 62
     7
370
    35
100
AcDbCircle
 10
80.4886175195
 20
199.9833026566
 30
0.0
 40
56.50000000000003
  0
CIRCLE
  5
354
330
1F
100
AcDbEntity
  8
0
  6
Continuous
 62
     7
370
    35
100
AcDbCircle
 10
80.4886175195
 20
199.9833026566
 30
0.0
 40
55.49999999999999
  0
INSERT
  5
35A
330
1F
100
AcDbEntity
  8
注記
100
AcDbBlockReference
  2
SW_NOTE_1
 10
51.6735218276
 20
120.6273619755
 30
0.0
  0
INSERT
  5
3B2
330
1F
100
AcDbEntity
  8
0
  6
Continuous
 62
     7
370
     0
100
AcDbBlockReference
  2
SW_CENTERMARKSYMBOL_3
 10
61.2386175195
 20
233.3252807023
 30
0.0
  0
INSERT
  5
3FC
330
1F
100
AcDbEntity
  8
0
  6
Continuous
 62
     7
370
     0
100
AcDbBlockReference
  2
SW_CENTERMARKSYMBOL_4
 10
80.4886175195
 20
230.9833026566
 30
0.0
  0
INSERT
  5
408
330
1F
100
AcDbEntity
  8
0
  6
Continuous
 62
     7
370
     0
100
AcDbBlockReference
  2
SW_CENTERMARKSYMBOL_5
 10
80.4886175195
 20
199.9833026566
 30
0.0
  0
INSERT
  5
474
330
1F
100
AcDbEntity
  8
0
  6
Continuous
 62
     7
370
     0
100
AcDbBlockReference
  2
SW_CENTERMARKSYMBOL_6
 10
80.4886175195
 20
250.9833026566
 30
0.0
  0
CIRCLE
  5
475
330
1F
100
AcDbEntity
  8
0
  6
Continuous
 62
     7
370
     0
100
AcDbCircle
 10
67.2888462193
 20
249.2455197973
 30
0.0
 40
1.229499920932767
  0
CIRCLE
  5
476
330
1F
100
AcDbEntity
  8
0
  6
Continuous
 62
     7
370
     0
100
AcDbCircle
 10
31.2264003788
 20
186.7835313563
 30
0.0
 40
1.229499920932597
  0
CIRCLE
  5
477
330
1F
100
AcDbEntity
  8
0
  6
Continuous
 62
     7
370
     0
100
AcDbCircle
 10
61.2386175195
 20
233.3252807023
 30
0.0
 40
2.000000432133746
  0
CIRCLE
  5
478
330
1F
100
AcDbEntity
  8
0
  6
Continuous
 62
     7
370
     0
100
AcDbCircle
 10
80.4886175195
 20
238.4833026566
 30
0.0
 40
2.000000094994917
  0
CIRCLE
  5
479
330
1F
100
AcDbEntity
  8
0
  6
Continuous
 62
     7
370
     0
100
AcDbCircle
 10
99.7386175195
 20
233.3252807023
 30
0.0
 40
2.000000223517404
  0
CIRCLE
  5
47A
330
1F
100
AcDbEntity
  8
0
  6
Continuous
 62
     7
370
     0
100
AcDbCircle
 10
113.8305955652
 20
219.2333026566
 30
0.0
 40
2.000000027419176
  0
CIRCLE
  5
47B
330
1F
100
AcDbEntity
  8
0
  6
Continuous
 62
     7
370
     0
100
AcDbCircle
 10
118.9886175195
 20
199.9833026566
 30
0.0
 40
2.00000011920929
  0
CIRCLE
  5
47C
330
1F
100
AcDbEntity
  8
0
  6
Continuous
 62
     7
370
     0
100
AcDbCircle
 10
113.8305955652
 20
180.7333026566
 30
0.0
 40
2.000000027419318
  0
CIRCLE
  5
47D
330
1F
100
AcDbEntity
  8
0
  6
Continuous
 62
     7
370
     0
100
AcDbCircle
 10
99.7386175195
 20
166.6413246109
 30
0.0
 40
2.000000223517404
  0
CIRCLE
  5
47E
330
1F
100
AcDbEntity
  8
0
  6
Continuous
 62
     7
370
     0
100
AcDbCircle
 10
80.4886175195
 20
161.4833026566
 30
0.0
 40
2.000000094995173
  0
CIRCLE
  5
47F
330
1F
100
AcDbEntity
  8
0
  6
Continuous
 62
     7
370
     0
100
AcDbCircle
 10
61.2386175195
 20
166.6413246109
 30
0.0
 40
2.000000432133973
  0
CIRCLE
  5
480
330
1F
100
AcDbEntity
  8
0
  6
Continuous
 62
     7
370
     0
100
AcDbCircle
 10
47.1466394738
 20
180.7333026566
 30
0.0
 40
2.000000628232044
  0
CIRCLE
  5
481
330
1F
100
AcDbEntity
  8
0
  6
Continuous
 62
     7
370
     0
100
AcDbCircle
 10
41.9886175195
 20
199.9833026566
 30
0.0
 40
2.000000536441803
  0
CIRCLE
  5
482
330
1F
100
AcDbEntity
  8
0
  6
Continuous
 62
     7
370
     0
100
AcDbCircle
 10
47.1466394738
 20
219.2333026566
 30
0.0
 40
2.000000628231646
  0
CIRCLE
  5
483
330
1F
100
AcDbEntity
  8
0
  6
Continuous
 62
     7
370
     0
100
AcDbCircle
 10
67.2888462193
 20
249.2455197973
 30
0.0
 40
1.499999791654446
  0
CIRCLE
  5
484
330
1F
100
AcDbEntity
  8
0
  6
Continuous
 62
     7
370
     0
100
AcDbCircle
 10
31.2264003788
 20
186.7835313563
 30
0.0
 40
1.499998277970505
  0
CIRCLE
  5
485
330
1F
100
AcDbEntity
  8
0
  6
Continuous
 62
     7
370
     0
100
AcDbCircle
 10
93.6883888198
 20
150.7210855158
 30
0.0
 40
1.499999768762038
  0
CIRCLE
  5
486
330
1F
100
AcDbEntity
  8
0
  6
Continuous
 62
     7
370
     0
100
AcDbCircle
 10
129.7508346603
 20
213.1830739568
 30
0.0
 40
1.500000351122878
  0
CIRCLE
  5
487
330
1F
100
AcDbEntity
  8
0
  6
Continuous
 62
     7
370
     0
100
AcDbCircle
 10
93.6883888198
 20
150.7210855158
 30
0.0
 40
1.229499920932426
  0
CIRCLE
  5
488
330
1F
100
AcDbEntity
  8
0
  6
Continuous
 62
     7
370
     0
100
AcDbCircle
 10
129.7508346603
 20
213.1830739568
 30
0.0
 40
1.229499920932255
  0
ENDSEC
  0
SECTION
  2
OBJECTS
  0
DICTIONARY
  5
C
330
0
100
AcDbDictionary
281
     1
  3
ACAD_GROUP
350
D
  3
ACAD_LAYOUT
350
1A
  3
ACAD_MLINESTYLE
350
17
  3
ACAD_PLOTSETTINGS
350
19
  3
ACAD_PLOTSTYLENAME
350
E
  3
ACAD_SCALELIST
350
47
  0
DICTIONARY
  5
D
102
{ACAD_REACTORS
330
C
102
}
330
C
100
AcDbDictionary
281
     1
  0
DICTIONARY
  5
1A
102
{ACAD_REACTORS
330
C
102
}
330
C
100
AcDbDictionary
281
     1
  3
Layout1
350
1E
  3
Layout2
350
26
  3
Model
350
22
  0
DICTIONARY
  5
17
102
{ACAD_REACTORS
330
C
102
}
330
C
100
AcDbDictionary
281
     1
  3
Standard
350
18
  0
DICTIONARY
  5
19
102
{ACAD_REACTORS
330
C
102
}
330
C
100
AcDbDictionary
281
     1
  0
ACDBDICTIONARYWDFLT
  5
E
102
{ACAD_REACTORS
330
C
102
}
330
C
100
AcDbDictionary
281
     1
  3
Normal
350
F
100
AcDbDictionaryWithDefault
340
F
  0
DICTIONARY
  5
47
102
{ACAD_REACTORS
330
C
102
}
330
C
100
AcDbDictionary
281
     1
  3
A0
350
48
  3
A1
350
49
  3
A2
350
4A
  3
A3
350
4B
  3
A4
350
4C
  3
A5
350
4D
  3
A6
350
4E
  3
A7
350
4F
  3
A8
350
50
  3
A9
350
51
  3
B0
350
52
  3
B1
350
53
  3
B2
350
54
  3
B3
350
55
  3
B4
350
56
  3
B5
350
57
  3
B6
350
58
  3
B7
350
59
  3
B8
350
5A
  3
B9
350
5B
  3
C0
350
5C
  3
C1
350
5D
  3
C2
350
5E
  3
C3
350
5F
  3
C4
350
60
  3
C5
350
61
  3
C6
350
62
  3
C7
350
63
  3
C8
350
64
  3
C9
350
65
  3
D0
350
66
  3
D1
350
67
  3
D2
350
68
  0
LAYOUT
  5
1E
102
{ACAD_REACTORS
330
1A
102
}
330
1A
100
AcDbPlotSettings
  1

  2
none_device
  4

  6

 40
0.0
 41
0.0
 42
0.0
 43
0.0
 44
0.0
 45
0.0
 46
0.0
 47
0.0
 48
0.0
 49
0.0
140
0.0
141
0.0
142
1.0
143
1.0
 70
   688
 72
     1
 73
     0
 74
     5
  7

 75
    16
147
1.0
148
0.0
149
0.0
100
AcDbLayout
  1
Layout1
 70
     1
 71
     1
 10
0.0
 20
0.0
 11
420.0
 21
297.0
 12
0.0
 22
0.0
 32
0.0
 14
1.0000000000E+20
 24
1.0000000000E+20
 34
1.0000000000E+20
 15
-1.0000000000E+20
 25
-1.0000000000E+20
 35
-1.0000000000E+20
146
0.0
 13
0.0
 23
0.0
 33
0.0
 16
1.0
 26
0.0
 36
0.0
 17
0.0
 27
1.0
 37
0.0
 76
     0
330
1B
  0
LAYOUT
  5
26
102
{ACAD_REACTORS
330
1A
102
}
330
1A
100
AcDbPlotSettings
  1

  2
none_device
  4

  6

 40
0.0
 41
0.0
 42
0.0
 43
0.0
 44
0.0
 45
0.0
 46
0.0
 47
0.0
 48
0.0
 49
0.0
140
0.0
141
0.0
142
1.0
143
1.0
 70
   688
 72
     1
 73
     0
 74
     5
  7

 75
    16
147
1.0
148
0.0
149
0.0
100
AcDbLayout
  1
Layout2
 70
     1
 71
     2
 10
0.0
 20
0.0
 11
0.0
 21
0.0
 12
0.0
 22
0.0
 32
0.0
 14
0.0
 24
0.0
 34
0.0
 15
0.0
 25
0.0
 35
0.0
146
0.0
 13
0.0
 23
0.0
 33
0.0
 16
1.0
 26
0.0
 36
0.0
 17
0.0
 27
1.0
 37
0.0
 76
     0
330
23
  0
LAYOUT
  5
22
102
{ACAD_REACTORS
330
1A
102
}
330
1A
100
AcDbPlotSettings
  1

  2
none_device
  4
Letter_(8.50_x_11.00_Inches)
  6

 40
6.35
 41
6.35
 42
6.35000508
 43
6.35000508
 44
215.9
 45
279.4
 46
0.0
 47
0.0
 48
0.0
 49
0.0
140
0.0
141
0.0
142
1.0
143
1.0
 70
  1712
 72
     1
 73
     0
 74
     0
  7

 75
     0
147
1.0
148
0.0
149
0.0
100
AcDbLayout
  1
Model
 70
     1
 71
     0
 10
0.0
 20
0.0
 11
420.0
 21
297.0
 12
0.0
 22
0.0
 32
0.0
 14
0.0
 24
0.0
 34
0.0
 15
420.0
 25
297.0
 35
0.0
146
0.0
 13
0.0
 23
0.0
 33
0.0
 16
1.0
 26
0.0
 36
0.0
 17
0.0
 27
1.0
 37
0.0
 76
     0
330
1F
331
29
  0
MLINESTYLE
  5
18
102
{ACAD_REACTORS
330
17
102
}
330
17
100
AcDbMlineStyle
  2
Standard
 70
     0
  3

 62
   256
 51
90.0
 52
90.0
 71
     2
 49
0.5
 62
   256
  6
BYLAYER
 49
-0.5
 62
   256
  6
BYLAYER
  0
ACDBPLACEHOLDER
  5
F
102
{ACAD_REACTORS
330
E
102
}
330
E
  0
SCALE
  5
48
102
{ACAD_REACTORS
330
47
102
}
330
47
100
AcDbScale
 70
     0
300
1:1
140
1.0
141
1.0
290
     1
  0
SCALE
  5
49
102
{ACAD_REACTORS
330
47
102
}
330
47
100
AcDbScale
 70
     0
300
1:2
140
1.0
141
2.0
290
     0
  0
SCALE
  5
4A
102
{ACAD_REACTORS
330
47
102
}
330
47
100
AcDbScale
 70
     0
300
1:4
140
1.0
141
4.0
290
     0
  0
SCALE
  5
4B
102
{ACAD_REACTORS
330
47
102
}
330
47
100
AcDbScale
 70
     0
300
1:5
140
1.0
141
5.0
290
     0
  0
SCALE
  5
4C
102
{ACAD_REACTORS
330
47
102
}
330
47
100
AcDbScale
 70
     0
300
1:8
140
1.0
141
8.0
290
     0
  0
SCALE
  5
4D
102
{ACAD_REACTORS
330
47
102
}
330
47
100
AcDbScale
 70
     0
300
1:10
140
1.0
141
10.0
290
     0
  0
SCALE
  5
4E
102
{ACAD_REACTORS
330
47
102
}
330
47
100
AcDbScale
 70
     0
300
1:16
140
1.0
141
16.0
290
     0
  0
SCALE
  5
4F
102
{ACAD_REACTORS
330
47
102
}
330
47
100
AcDbScale
 70
     0
300
1:20
140
1.0
141
20.0
290
     0
  0
SCALE
  5
50
102
{ACAD_REACTORS
330
47
102
}
330
47
100
AcDbScale
 70
     0
300
1:30
140
1.0
141
30.0
290
     0
  0
SCALE
  5
51
102
{ACAD_REACTORS
330
47
102
}
330
47
100
AcDbScale
 70
     0
300
1:40
140
1.0
141
40.0
290
     0
  0
SCALE
  5
52
102
{ACAD_REACTORS
330
47
102
}
330
47
100
AcDbScale
 70
     0
300
1:50
140
1.0
141
50.0
290
     0
  0
SCALE
  5
53
102
{ACAD_REACTORS
330
47
102
}
330
47
100
AcDbScale
 70
     0
300
1:100
140
1.0
141
100.0
290
     0
  0
SCALE
  5
54
102
{ACAD_REACTORS
330
47
102
}
330
47
100
AcDbScale
 70
     0
300
2:1
140
2.0
141
1.0
290
     0
  0
SCALE
  5
55
102
{ACAD_REACTORS
330
47
102
}
330
47
100
AcDbScale
 70
     0
300
4:1
140
4.0
141
1.0
290
     0
  0
SCALE
  5
56
102
{ACAD_REACTORS
330
47
102
}
330
47
100
AcDbScale
 70
     0
300
8:1
140
8.0
141
1.0
290
     0
  0
SCALE
  5
57
102
{ACAD_REACTORS
330
47
102
}
330
47
100
AcDbScale
 70
     0
300
10:1
140
10.0
141
1.0
290
     0
  0
SCALE
  5
58
102
{ACAD_REACTORS
330
47
102
}
330
47
100
AcDbScale
 70
     0
300
100:1
140
100.0
141
1.0
290
     0
  0
SCALE
  5
59
102
{ACAD_REACTORS
330
47
102
}
330
47
100
AcDbScale
 70
     0
300
1/128" = 1'-0"
140
0.0078125
141
12.0
290
     0
  0
SCALE
  5
5A
102
{ACAD_REACTORS
330
47
102
}
330
47
100
AcDbScale
 70
     0
300
1/64" = 1'-0"
140
0.015625
141
12.0
290
     0
  0
SCALE
  5
5B
102
{ACAD_REACTORS
330
47
102
}
330
47
100
AcDbScale
 70
     0
300
1/32" = 1'-0"
140
0.03125
141
12.0
290
     0
  0
SCALE
  5
5C
102
{ACAD_REACTORS
330
47
102
}
330
47
100
AcDbScale
 70
     0
300
1/16" = 1'-0"
140
0.0625
141
12.0
290
     0
  0
SCALE
  5
5D
102
{ACAD_REACTORS
330
47
102
}
330
47
100
AcDbScale
 70
     0
300
3/32" = 1'-0"
140
0.09375
141
12.0
290
     0
  0
SCALE
  5
5E
102
{ACAD_REACTORS
330
47
102
}
330
47
100
AcDbScale
 70
     0
300
1/8" = 1'-0"
140
0.125
141
12.0
290
     0
  0
SCALE
  5
5F
102
{ACAD_REACTORS
330
47
102
}
330
47
100
AcDbScale
 70
     0
300
3/16" = 1'-0"
140
0.1875
141
12.0
290
     0
  0
SCALE
  5
60
102
{ACAD_REACTORS
330
47
102
}
330
47
100
AcDbScale
 70
     0
300
1/4" = 1'-0"
140
0.25
141
12.0
290
     0
  0
SCALE
  5
61
102
{ACAD_REACTORS
330
47
102
}
330
47
100
AcDbScale
 70
     0
300
3/8" = 1'-0"
140
0.375
141
12.0
290
     0
  0
SCALE
  5
62
102
{ACAD_REACTORS
330
47
102
}
330
47
100
AcDbScale
 70
     0
300
1/2" = 1'-0"
140
0.5
141
12.0
290
     0
  0
SCALE
  5
63
102
{ACAD_REACTORS
330
47
102
}
330
47
100
AcDbScale
 70
     0
300
3/4" = 1'-0"
140
0.75
141
12.0
290
     0
  0
SCALE
  5
64
102
{ACAD_REACTORS
330
47
102
}
330
47
100
AcDbScale
 70
     0
300
1" = 1'-0"
140
1.0
141
12.0
290
     0
  0
SCALE
  5
65
102
{ACAD_REACTORS
330
47
102
}
330
47
100
AcDbScale
 70
     0
300
1-1/2" = 1'-0"
140
1.5
141
12.0
290
     0
  0
SCALE
  5
66
102
{ACAD_REACTORS
330
47
102
}
330
47
100
AcDbScale
 70
     0
300
3" = 1'-0"
140
3.0
141
12.0
290
     0
  0
SCALE
  5
67
102
{ACAD_REACTORS
330
47
102
}
330
47
100
AcDbScale
 70
     0
300
6" = 1'-0"
140
6.0
141
12.0
290
     0
  0
SCALE
  5
68
102
{ACAD_REACTORS
330
47
102
}
330
47
100
AcDbScale
 70
     0
300
1'-0" = 1'-0"
140
12.0
141
12.0
290
     0
  0
ENDSEC
  0
EOF
