  0
SECTION
  2
HEADER
  9
$ACADVER
  1
AC1015
  9
$ACADMAINTVER
 70
    13
  9
$DWGCODEPAGE
  3
ANSI_1252
  9
$INSBASE
 10
0.0
 20
0.0
 30
0.0
  9
$EXTMIN
 10
-263.0273073536561
 20
-239.0044648615631
 30
0.0
  9
$EXTMAX
 10
1031.382207958447
 20
1038.070632569449
 30
0.0
  9
$LIMMIN
 10
0.0
 20
0.0
  9
$LIMMAX
 10
420.0
 20
297.0
  9
$ORTHOMODE
 70
     0
  9
$REGENMODE
 70
     1
  9
$FILLMODE
 70
     1
  9
$QTEXTMODE
 70
     0
  9
$MIRRTEXT
 70
     1
  9
$LTSCALE
 40
1.0
  9
$ATTMODE
 70
     1
  9
$TEXTSIZE
 40
2.5
  9
$TRACEWID
 40
1.0
  9
$TEXTSTYLE
  7
STANDARD
  9
$CLAYER
  8
AM_0
  9
$CELTYPE
  6
ByLayer
  9
$CECOLOR
 62
   256
  9
$CELTSCALE
 40
1.0
  9
$DISPSILH
 70
     0
  9
$DIMSCALE
 40
1.0
  9
$DIMASZ
 40
2.5
  9
$DIMEXO
 40
0.625
  9
$DIMDLI
 40
3.75
  9
$DIMRND
 40
0.0
  9
$DIMDLE
 40
0.0
  9
$DIMEXE
 40
1.25
  9
$DIMTP
 40
0.0
  9
$DIMTM
 40
0.0
  9
$DIMTXT
 40
2.5
  9
$DIMCEN
 40
2.5
  9
$DIMTSZ
 40
0.0
  9
$DIMTOL
 70
     0
  9
$DIMLIM
 70
     0
  9
$DIMTIH
 70
     0
  9
$DIMTOH
 70
     0
  9
$DIMSE1
 70
     0
  9
$DIMSE2
 70
     0
  9
$DIMTAD
 70
     1
  9
$DIMZIN
 70
     8
  9
$DIMBLK
  1

  9
$DIMASO
 70
     1
  9
$DIMSHO
 70
     1
  9
$DIMPOST
  1

  9
$DIMAPOST
  1

  9
$DIMALT
 70
     0
  9
$DIMALTD
 70
     3
  9
$DIMALTF
 40
0.03937007874016
  9
$DIMLFAC
 40
1.0
  9
$DIMTOFL
 70
     1
  9
$DIMTVP
 40
0.0
  9
$DIMTIX
 70
     0
  9
$DIMSOXD
 70
     0
  9
$DIMSAH
 70
     0
  9
$DIMBLK1
  1

  9
$DIMBLK2
  1

  9
$DIMSTYLE
  2
ISO-25
  9
$DIMCLRD
 70
     0
  9
$DIMCLRE
 70
     0
  9
$DIMCLRT
 70
     0
  9
$DIMTFAC
 40
1.0
  9
$DIMGAP
 40
0.625
  9
$DIMJUST
 70
     0
  9
$DIMSD1
 70
     0
  9
$DIMSD2
 70
     0
  9
$DIMTOLJ
 70
     1
  9
$DIMTZIN
 70
     0
  9
$DIMALTZ
 70
     0
  9
$DIMALTTZ
 70
     0
  9
$DIMUPT
 70
     0
  9
$DIMDEC
 70
     4
  9
$DIMTDEC
 70
     4
  9
$DIMALTU
 70
     2
  9
$DIMALTTD
 70
     2
  9
$DIMTXSTY
  7
STANDARD
  9
$DIMAUNIT
 70
     0
  9
$DIMADEC
 70
     0
  9
$DIMALTRND
 40
0.0
  9
$DIMAZIN
 70
     0
  9
$DIMDSEP
 70
    46
  9
$DIMATFIT
 70
     3
  9
$DIMFRAC
 70
     0
  9
$DIMLDRBLK
  1

  9
$DIMLUNIT
 70
     2
  9
$DIMLWD
 70
    -2
  9
$DIMLWE
 70
    -2
  9
$DIMTMOVE
 70
     0
  9
$LUNITS
 70
     2
  9
$LUPREC
 70
     2
  9
$SKETCHINC
 40
1.0
  9
$FILLETRAD
 40
2.5
  9
$AUNITS
 70
     0
  9
$AUPREC
 70
     0
  9
$MENU
  1
.
  9
$ELEVATION
 40
0.0
  9
$PELEVATION
 40
0.0
  9
$THICKNESS
 40
0.0
  9
$LIMCHECK
 70
     0
  9
$CHAMFERA
 40
2.5
  9
$CHAMFERB
 40
2.5
  9
$CHAMFERC
 40
0.0
  9
$CHAMFERD
 40
0.0
  9
$SKPOLY
 70
     0
  9
$TDCREATE
 40
2452801.945985243
  9
$TDUCREATE
 40
2452802.112651909
  9
$TDUPDATE
 40
2453865.655774548
  9
$TDUUPDATE
 40
2453865.822441215
  9
$TDINDWG
 40
0.1153813773
  9
$TDUSRTIMER
 40
0.1153810185
  9
$USRTIMER
 70
     1
  9
$ANGBASE
 50
0.0
  9
$ANGDIR
 70
     0
  9
$PDMODE
 70
     0
  9
$PDSIZE
 40
0.0
  9
$PLINEWID
 40
0.0
  9
$SPLFRAME
 70
     0
  9
$SPLINETYPE
 70
     6
  9
$SPLINESEGS
 70
     8
  9
$HANDSEED
  5
2C98
  9
$SURFTAB1
 70
     6
  9
$SURFTAB2
 70
     6
  9
$SURFTYPE
 70
     6
  9
$SURFU
 70
     6
  9
$SURFV
 70
     6
  9
$UCSBASE
  2

  9
$UCSNAME
  2

  9
$UCSORG
 10
0.0
 20
0.0
 30
0.0
  9
$UCSXDIR
 10
1.0
 20
0.0
 30
0.0
  9
$UCSYDIR
 10
0.0
 20
1.0
 30
0.0
  9
$UCSORTHOREF
  2

  9
$UCSORTHOVIEW
 70
     0
  9
$UCSORGTOP
 10
0.0
 20
0.0
 30
0.0
  9
$UCSORGBOTTOM
 10
0.0
 20
0.0
 30
0.0
  9
$UCSORGLEFT
 10
0.0
 20
0.0
 30
0.0
  9
$UCSORGRIGHT
 10
0.0
 20
0.0
 30
0.0
  9
$UCSORGFRONT
 10
0.0
 20
0.0
 30
0.0
  9
$UCSORGBACK
 10
0.0
 20
0.0
 30
0.0
  9
$PUCSBASE
  2

  9
$PUCSNAME
  2

  9
$PUCSORG
 10
0.0
 20
0.0
 30
0.0
  9
$PUCSXDIR
 10
1.0
 20
0.0
 30
0.0
  9
$PUCSYDIR
 10
0.0
 20
1.0
 30
0.0
  9
$PUCSORTHOREF
  2

  9
$PUCSORTHOVIEW
 70
     0
  9
$PUCSORGTOP
 10
0.0
 20
0.0
 30
0.0
  9
$PUCSORGBOTTOM
 10
0.0
 20
0.0
 30
0.0
  9
$PUCSORGLEFT
 10
0.0
 20
0.0
 30
0.0
  9
$PUCSORGRIGHT
 10
0.0
 20
0.0
 30
0.0
  9
$PUCSORGFRONT
 10
0.0
 20
0.0
 30
0.0
  9
$PUCSORGBACK
 10
0.0
 20
0.0
 30
0.0
  9
$USERI1
 70
     0
  9
$USERI2
 70
     0
  9
$USERI3
 70
     0
  9
$USERI4
 70
     0
  9
$USERI5
 70
     0
  9
$USERR1
 40
0.0
  9
$USERR2
 40
0.0
  9
$USERR3
 40
0.0
  9
$USERR4
 40
0.0
  9
$USERR5
 40
0.0
  9
$WORLDVIEW
 70
     1
  9
$SHADEDGE
 70
     3
  9
$SHADEDIF
 70
    70
  9
$TILEMODE
 70
     1
  9
$MAXACTVP
 70
    64
  9
$PINSBASE
 10
0.0
 20
0.0
 30
0.0
  9
$PLIMCHECK
 70
     0
  9
$PEXTMIN
 10
1.000000000000000E+20
 20
1.000000000000000E+20
 30
1.000000000000000E+20
  9
$PEXTMAX
 10
-1.000000000000000E+20
 20
-1.000000000000000E+20
 30
-1.000000000000000E+20
  9
$PLIMMIN
 10
0.0
 20
0.0
  9
$PLIMMAX
 10
420.0
 20
297.0
  9
$UNITMODE
 70
     0
  9
$VISRETAIN
 70
     1
  9
$PLINEGEN
 70
     0
  9
$PSLTSCALE
 70
     1
  9
$TREEDEPTH
 70
  3020
  9
$CMLSTYLE
  2
Standard
  9
$CMLJUST
 70
     0
  9
$CMLSCALE
 40
1.0
  9
$PROXYGRAPHICS
 70
     1
  9
$MEASUREMENT
 70
     0
  9
$CELWEIGHT
370
    -1
  9
$ENDCAPS
280
     0
  9
$JOINSTYLE
280
     0
  9
$LWDISPLAY
290
     0
  9
$INSUNITS
 70
     0
  9
$HYPERLINKBASE
  1

  9
$STYLESHEET
  1

  9
$XEDIT
290
     1
  9
$CEPSNTYPE
380
     0
  9
$PSTYLEMODE
290
     1
  9
$FINGERPRINTGUID
  2
{381DF4E9-BAA2-4836-B424-29DE8D0ECFF0}
  9
$VERSIONGUID
  2
{528D0441-2DE3-43E3-8B6C-ACC7012B7B06}
  9
$EXTNAMES
290
     1
  9
$PSVPSCALE
 40
0.0
  9
$OLESTARTUP
290
     0
  0
ENDSEC
  0
SECTION
  2
CLASSES
  0
CLASS
  1
ACDBDICTIONARYWDFLT
  2
AcDbDictionaryWithDefault
  3
AutoCAD 2000
 90
        0
280
     0
281
     0
  0
CLASS
  1
ACDBPLACEHOLDER
  2
AcDbPlaceHolder
  3
AutoCAD 2000
 90
        0
280
     0
281
     0
  0
CLASS
  1
LAYOUT
  2
AcDbLayout
  3
AutoCAD 2000
 90
        0
280
     0
281
     0
  0
CLASS
  1
DICTIONARYVAR
  2
AcDbDictionaryVar
  3
AutoCAD 2000
 90
        0
280
     0
281
     0
  0
ENDSEC
  0
SECTION
  2
TABLES
  0
TABLE
  2
VPORT
  5
24D0
330
0
100
AcDbSymbolTable
 70
     3
  0
VPORT
  5
2C97
330
24D0
100
AcDbSymbolTableRecord
100
AcDbViewportTableRecord
  2
*Active
 70
     0
 10
0.0
 20
0.0
 11
1.0
 21
1.0
 12
661.0330621860584
 22
777.3940716108524
 13
0.0
 23
0.0
 14
2.5
 24
2.5
 15
10.0
 25
10.0
 16
0.0
 26
0.0
 36
1.0
 17
0.0
 27
0.0
 37
0.0
 40
895.3144578343939
 41
1.182835820895522
 42
50.0
 43
0.0
 44
0.0
 50
0.0
 51
0.0
 71
     0
 72
   100
 73
     1
 74
     3
 75
     0
 76
     0
 77
     0
 78
     0
281
     0
 65
     1
110
0.0
120
0.0
130
0.0
111
1.0
121
0.0
131
0.0
112
0.0
122
1.0
132
0.0
 79
     0
146
0.0
  0
ENDTAB
  0
TABLE
  2
LTYPE
  5
24CD
330
0
100
AcDbSymbolTable
 70
     5
  0
LTYPE
  5
24DB
330
24CD
100
AcDbSymbolTableRecord
100
AcDbLinetypeTableRecord
  2
ByBlock
 70
     0
  3

 72
    65
 73
     0
 40
0.0
  0
LTYPE
  5
24DC
330
24CD
100
AcDbSymbolTableRecord
100
AcDbLinetypeTableRecord
  2
ByLayer
 70
     0
  3

 72
    65
 73
     0
 40
0.0
  0
LTYPE
  5
24DD
330
24CD
100
AcDbSymbolTableRecord
100
AcDbLinetypeTableRecord
  2
CONTINUOUS
 70
     0
  3
Solid line
 72
    65
 73
     0
 40
0.0
  0
LTYPE
  5
24EC
330
24CD
100
AcDbSymbolTableRecord
100
AcDbLinetypeTableRecord
  2
CENTER
 70
     0
  3
Center ____ _ ____ _ ____ _ ____ _ ____ _ ____
 72
    65
 73
     4
 40
50.8
 49
31.75
 74
     0
 49
-6.349999999999997
 74
     0
 49
6.349999999999997
 74
     0
 49
-6.349999999999997
 74
     0
  0
LTYPE
  5
24ED
330
24CD
100
AcDbSymbolTableRecord
100
AcDbLinetypeTableRecord
  2
DASHDOT
 70
     0
  3
__ . __ . __ .
 72
    65
 73
     4
 40
17.9841291998216
 49
8.992064599910797
 74
     0
 49
-4.496032299955396
 74
     0
 49
0.0
 74
     0
 49
-4.496032299955396
 74
     0
  0
LTYPE
  5
24EE
330
24CD
100
AcDbSymbolTableRecord
100
AcDbLinetypeTableRecord
  2
DIVIDE
 70
     0
  3
__ . . __ . . 
 72
    65
 73
     6
 40
22.480161499777
 49
8.992064599910797
 74
     0
 49
-4.496032299955396
 74
     0
 49
0.0
 74
     0
 49
-4.496032299955396
 74
     0
 49
0.0
 74
     0
 49
-4.496032299955396
 74
     0
  0
LTYPE
  5
24EF
330
24CD
100
AcDbSymbolTableRecord
100
AcDbLinetypeTableRecord
  2
PHANTOM
 70
     0
  3
_____ _ _ _____ _ _ 
 72
    65
 73
     6
 40
44.96032299955399
 49
22.480161499777
 74
     0
 49
-4.496032299955396
 74
     0
 49
4.496032299955396
 74
     0
 49
-4.496032299955396
 74
     0
 49
4.496032299955396
 74
     0
 49
-4.496032299955396
 74
     0
  0
ENDTAB
  0
TABLE
  2
LAYER
  5
24CA
330
0
100
AcDbSymbolTable
 70
     4
  0
LAYER
  5
24D8
330
24CA
100
AcDbSymbolTableRecord
100
AcDbLayerTableRecord
  2
0
 70
     0
 62
     7
  6
CONTINUOUS
370
    -3
390
24D7
  0
LAYER
  5
24EA
330
24CA
100
AcDbSymbolTableRecord
100
AcDbLayerTableRecord
  2
AM_0
 70
     0
 62
     7
  6
CONTINUOUS
370
    -3
390
24D7
  0
LAYER
  5
24F0
330
24CA
100
AcDbSymbolTableRecord
100
AcDbLayerTableRecord
  2
1
 70
     0
 62
     7
  6
CONTINUOUS
370
    -3
390
24D7
  0
LAYER
  5
27CC
330
24CA
100
AcDbSymbolTableRecord
100
AcDbLayerTableRecord
  2
LAYER_1
 70
     0
 62
     5
  6
CONTINUOUS
370
    -3
390
24D7
  0
ENDTAB
  0
TABLE
  2
STYLE
  5
24CB
330
0
100
AcDbSymbolTable
 70
     1
  0
STYLE
  5
24D9
330
24CB
100
AcDbSymbolTableRecord
100
AcDbTextStyleTableRecord
  2
STANDARD
 70
     0
 40
0.0
 41
1.0
 50
0.0
 71
     0
 42
2.5
  3
ISOCP.SHX
  4

  0
ENDTAB
  0
TABLE
  2
VIEW
  5
24CE
330
0
100
AcDbSymbolTable
 70
     0
  0
ENDTAB
  0
TABLE
  2
UCS
  5
24CF
330
0
100
AcDbSymbolTable
 70
     0
  0
ENDTAB
  0
TABLE
  2
APPID
  5
24D1
330
0
100
AcDbSymbolTable
 70
    13
  0
APPID
  5
24DA
330
24D1
100
AcDbSymbolTableRecord
100
AcDbRegAppTableRecord
  2
ACAD
 70
     0
  0
APPID
  5
24F1
330
24D1
100
AcDbSymbolTableRecord
100
AcDbRegAppTableRecord
  2
GENIUS_GENDIM_13
 70
     0
  0
APPID
  5
24F2
330
24D1
100
AcDbSymbolTableRecord
100
AcDbRegAppTableRecord
  2
GENIUS_GENDTOL_13
 70
     0
  0
APPID
  5
24F3
330
24D1
100
AcDbSymbolTableRecord
100
AcDbRegAppTableRecord
  2
GENIUS_GE3DTOL_13
 70
     0
  0
APPID
  5
24F4
330
24D1
100
AcDbSymbolTableRecord
100
AcDbRegAppTableRecord
  2
MCAD_NO_VIS
 70
     0
  0
APPID
  5
24F5
330
24D1
100
AcDbSymbolTableRecord
100
AcDbRegAppTableRecord
  2
ACAD_TEMP_GRAPHIC
 70
     0
  0
APPID
  5
24F6
330
24D1
100
AcDbSymbolTableRecord
100
AcDbRegAppTableRecord
  2
AD_DRAW
 70
     0
  0
APPID
  5
24F7
330
24D1
100
AcDbSymbolTableRecord
100
AcDbRegAppTableRecord
  2
ACATTRIBSERVICES
 70
     0
  0
APPID
  5
24F8
330
24D1
100
AcDbSymbolTableRecord
100
AcDbRegAppTableRecord
  2
ASURF_PCURVE_APPNAME
 70
     0
  0
APPID
  5
24F9
330
24D1
100
AcDbSymbolTableRecord
100
AcDbRegAppTableRecord
  2
DESIGNERASSEMBLIES
 70
     0
  0
APPID
  5
24FA
330
24D1
100
AcDbSymbolTableRecord
100
AcDbRegAppTableRecord
  2
ACADM_DIM_EDIT
 70
     0
  0
APPID
  5
24FB
330
24D1
100
AcDbSymbolTableRecord
100
AcDbRegAppTableRecord
  2
G3V_ENTHND
 70
     0
  0
APPID
  5
24FC
330
24D1
100
AcDbSymbolTableRecord
100
AcDbRegAppTableRecord
  2
GENIUS_GENDIMSH_14
 70
     0
  0
ENDTAB
  0
TABLE
  2
DIMSTYLE
  5
24D2
330
0
100
AcDbSymbolTable
 70
     2
100
AcDbDimStyleTable
 71
     0
  0
DIMSTYLE
105
24FD
330
24D2
100
AcDbSymbolTableRecord
100
AcDbDimStyleTableRecord
  2
ISO-25
 70
     0
 41
2.5
 42
0.625
 43
3.75
 44
1.25
 73
     0
 74
     0
 77
     1
 78
     8
140
2.5
141
2.5
143
0.03937007874016
147
0.625
171
     3
172
     1
271
     2
272
     2
274
     3
279
     2
284
     8
285
     8
286
     8
340
24D9
  0
DIMSTYLE
105
27CD
330
24D2
100
AcDbSymbolTableRecord
100
AcDbDimStyleTableRecord
  2
Standard
 70
     0
340
24D9
  0
ENDTAB
  0
TABLE
  2
BLOCK_RECORD
  5
24C9
330
0
100
AcDbSymbolTable
 70
    25
  0
BLOCK_RECORD
  5
24E6
330
24C9
100
AcDbSymbolTableRecord
100
AcDbBlockTableRecord
  2
*Model_Space
340
24E9
  0
BLOCK_RECORD
  5
24E2
330
24C9
100
AcDbSymbolTableRecord
100
AcDbBlockTableRecord
  2
*Paper_Space
340
24E5
  0
BLOCK_RECORD
  5
24FF
330
24C9
100
AcDbSymbolTableRecord
100
AcDbBlockTableRecord
  2
$MODEL_SPACE
340
0
  0
BLOCK_RECORD
  5
2502
330
24C9
100
AcDbSymbolTableRecord
100
AcDbBlockTableRecord
  2
$PAPER_SPACE
340
0
  0
BLOCK_RECORD
  5
2760
330
24C9
100
AcDbSymbolTableRecord
100
AcDbBlockTableRecord
  2
AI9-BLK14
340
0
310
2800000020000000200000000100080000000000000400000000000000000000000000000000000000000000000080000080000000808000800000008000800080800000C0C0C000C0DCC000F0CAA6000020400000206000002080000020A0000020C0000020E00000400000004020000040400000406000004080000040A0
310
000040C0000040E00000600000006020000060400000606000006080000060A0000060C0000060E00000800000008020000080400000806000008080000080A0000080C0000080E00000A0000000A0200000A0400000A0600000A0800000A0A00000A0C00000A0E00000C0000000C0200000C0400000C0600000C0800000C0
310
A00000C0C00000C0E00000E0000000E0200000E0400000E0600000E0800000E0A00000E0C00000E0E00040000000400020004000400040006000400080004000A0004000C0004000E00040200000402020004020400040206000402080004020A0004020C0004020E000404000004040200040404000404060004040800040
310
40A0004040C0004040E00040600000406020004060400040606000406080004060A0004060C0004060E00040800000408020004080400040806000408080004080A0004080C0004080E00040A0000040A0200040A0400040A0600040A0800040A0A00040A0C00040A0E00040C0000040C0200040C0400040C0600040C08000
310
40C0A00040C0C00040C0E00040E0000040E0200040E0400040E0600040E0800040E0A00040E0C00040E0E00080000000800020008000400080006000800080008000A0008000C0008000E00080200000802020008020400080206000802080008020A0008020C0008020E00080400000804020008040400080406000804080
310
008040A0008040C0008040E00080600000806020008060400080606000806080008060A0008060C0008060E00080800000808020008080400080806000808080008080A0008080C0008080E00080A0000080A0200080A0400080A0600080A0800080A0A00080A0C00080A0E00080C0000080C0200080C0400080C0600080C0
310
800080C0A00080C0C00080C0E00080E0000080E0200080E0400080E0600080E0800080E0A00080E0C00080E0E000C0000000C0002000C0004000C0006000C0008000C000A000C000C000C000E000C0200000C0202000C0204000C0206000C0208000C020A000C020C000C020E000C0400000C0402000C0404000C0406000C0
310
408000C040A000C040C000C040E000C0600000C0602000C0604000C0606000C0608000C060A000C060C000C060E000C0800000C0802000C0804000C0806000C0808000C080A000C080C000C080E000C0A00000C0A02000C0A04000C0A06000C0A08000C0A0A000C0A0C000C0A0E000C0C00000C0C02000C0C04000C0C06000
310
C0C08000C0C0A000F0FBFF00A4A0A000808080000000FF0000FF000000FFFF00FF000000FF00FF00FFFF0000FFFFFF00FF00FFFFFFFF00FFFFFFFFFFFFFFFFFFFFFFFFFFFFFFFFFFFFFFFFFFFFFFFFFFFF00FFFFFFFF00FFFFFFFFFFFFFFFFFFFFFFFFFFFFFFFFFFFFFFFFFFFFFFFFFFFF00FFFFFFFF00FFFFFFFFFFFFFFFF
310
FFFFFFFFFFFFFFFFFFFFFFFFFFFFFFFFFFFF00FFFFFFFF00FFFFFFFFFFFFFFFFFFFFFFFFFFFFFFFFFFFFFFFFFFFFFFFFFFFF00FFFFFFFF00FFFFFFFFFFFFFFFFFFFFFFFFFFFFFFFFFFFFFFFFFFFFFFFFFFFF00FFFFFFFF00FFFFFFFFFFFFFFFFFFFFFFFFFFFFFFFFFFFFFFFFFFFFFFFFFFFF00FFFFFFFF00FFFFFFFFFFFFFF
310
FFFFFFFFFFFFFFFFFFFFFFFFFFFFFFFFFFFFFF00FFFFFFFF00FFFFFFFFFFFFFFFFFFFFFFFFFFFFFFFFFFFFFFFFFFFFFFFFFFFF00FFFFFFFF00FFFFFFFFFFFFFFFFFFFFFFFFFFFFFFFFFFFFFFFFFFFFFFFFFFFF00FFFFFFFF00FFFFFFFFFFFFFFFFFFFFFFFFFFFFFFFFFFFFFFFFFFFFFFFFFFFF00FFFFFFFF00FFFFFFFFFFFF
310
FFFFFFFFFFFFFFFFFFFFFFFFFFFFFFFFFFFFFFFF00FFFFFFFF00FFFFFFFFFFFFFFFFFFFFFFFFFFFFFFFFFFFFFFFFFFFFFFFFFFFF00FFFFFFFF00FFFFFFFFFFFFFFFFFFFFFFFFFFFFFFFFFFFFFFFFFFFFFFFFFFFF00FFFFFFFF0000000000000000000000000000000000000000000000000000FF00FFFFFFFFFFFFFFFFFFFF
310
FFFFFFFFFFFFFFFFFFFFFFFFFFFFFFFFFFFFFFFFFF00FFFFFFFFFFFFFFFFFFFFFFFFFFFFFFFFFFFFFFFFFFFFFFFFFFFFFFFFFFFFFF00FFFFFFFFFFFFFFFFFFFFFFFFFFFFFFFFFFFFFFFFFFFFFFFFFFFFFFFFFFFFFF00FFFFFFFFFFFFFFFFFFFFFFFFFFFFFFFFFFFFFFFFFFFFFFFFFFFFFFFFFF00FF00000000000000000000
310
0000000000000000000000000000000000000000FFFFFFFFFFFFFFFFFFFFFFFFFFFFFFFFFFFFFFFFFFFFFFFFFFFFFFFFFFFFFFFFFFFFFFFFFFFFFFFFFFFFFFFFFFFFFFFFFFFFFFFFFFFFFFFFFFFFFFFFFFFFFFFFFFFFFFFFFFFFFFFFFFFFFFFFFFFFFFFFFFFFFFFFFFFFFFFFFFFFFFFFFFFFFFFFFFFFFFFFFFFFFFFFFFFFFF
310
FFFFFFFFFFFFFFFFFFFFFFFFFFFFFFFFFFFFFFFFFFFFFFFFFFFFFFFFFFFFFFFFFFFFFFFFFFFFFFFFFFFFFFFFFFFFFFFFFFFFFFFFFFFFFFFFFFFFFFFFFFFFFFFFFFFFFFFFFFFFFFFFFFFFFFFFFFFFFFFFFFFFFFFFFFFFFFFFFFFFFFFFFFFFFFFFFFFFFFFFFFFFFFFFFFFFFFFFFFFFFFFFFFFFFFFFFFFFFFFFFFFFFFFFFFFFFF
310
FFFFFFFFFFFFFFFFFFFFFFFFFFFFFFFFFFFFFFFFFFFFFFFFFFFFFFFFFFFFFFFFFFFFFFFFFFFFFFFFFFFFFFFFFFFFFFFFFFFFFFFFFFFFFFFFFFFFFFFFFFFFFFFFFFFFFFFFFFFFFFFFFFFFFFFFFFFFFFFFFFFFFFFFFFFFFFFFFFFFFFFFFFFFFFFFFFFFFFFFFFFFFFFFFFFFFFFFFFFFFFFFFFFFFFFFFFFFFFFFFFFFFFFFFFFFFF
310
FFFFFFFFFFFFFFFFFFFFFFFFFFFFFFFFFFFFFFFFFFFFFFFFFFFFFFFFFFFFFFFFFFFFFFFFFFFFFFFFFFFFFFFFFFFFFFFFFFFFFFFFFFFFFFFF
102
{BLKREFS
331
27A1
102
}
  0
BLOCK_RECORD
  5
2765
330
24C9
100
AcDbSymbolTableRecord
100
AcDbBlockTableRecord
  2
AI9-BLK13
340
0
310
2800000020000000200000000100080000000000000400000000000000000000000000000000000000000000000080000080000000808000800000008000800080800000C0C0C000C0DCC000F0CAA6000020400000206000002080000020A0000020C0000020E00000400000004020000040400000406000004080000040A0
310
000040C0000040E00000600000006020000060400000606000006080000060A0000060C0000060E00000800000008020000080400000806000008080000080A0000080C0000080E00000A0000000A0200000A0400000A0600000A0800000A0A00000A0C00000A0E00000C0000000C0200000C0400000C0600000C0800000C0
310
A00000C0C00000C0E00000E0000000E0200000E0400000E0600000E0800000E0A00000E0C00000E0E00040000000400020004000400040006000400080004000A0004000C0004000E00040200000402020004020400040206000402080004020A0004020C0004020E000404000004040200040404000404060004040800040
310
40A0004040C0004040E00040600000406020004060400040606000406080004060A0004060C0004060E00040800000408020004080400040806000408080004080A0004080C0004080E00040A0000040A0200040A0400040A0600040A0800040A0A00040A0C00040A0E00040C0000040C0200040C0400040C0600040C08000
310
40C0A00040C0C00040C0E00040E0000040E0200040E0400040E0600040E0800040E0A00040E0C00040E0E00080000000800020008000400080006000800080008000A0008000C0008000E00080200000802020008020400080206000802080008020A0008020C0008020E00080400000804020008040400080406000804080
310
008040A0008040C0008040E00080600000806020008060400080606000806080008060A0008060C0008060E00080800000808020008080400080806000808080008080A0008080C0008080E00080A0000080A0200080A0400080A0600080A0800080A0A00080A0C00080A0E00080C0000080C0200080C0400080C0600080C0
310
800080C0A00080C0C00080C0E00080E0000080E0200080E0400080E0600080E0800080E0A00080E0C00080E0E000C0000000C0002000C0004000C0006000C0008000C000A000C000C000C000E000C0200000C0202000C0204000C0206000C0208000C020A000C020C000C020E000C0400000C0402000C0404000C0406000C0
310
408000C040A000C040C000C040E000C0600000C0602000C0604000C0606000C0608000C060A000C060C000C060E000C0800000C0802000C0804000C0806000C0808000C080A000C080C000C080E000C0A00000C0A02000C0A04000C0A06000C0A08000C0A0A000C0A0C000C0A0E000C0C00000C0C02000C0C04000C0C06000
310
C0C08000C0C0A000F0FBFF00A4A0A000808080000000FF0000FF000000FFFF00FF000000FF00FF00FFFF0000FFFFFF00FFFFFFFFFFFFFFFFFFFFFFFFFFFFFFFFFFFFFFFFFFFFFFFFFFFFFFFFFFFFFFFFFFFFFFFFFFFFFFFFFFFFFF0000FFFFFFFFFFFF0000FFFFFFFFFFFFFFFFFFFFFFFFFFFFFFFFFFFFFFFFFFFF0000FFFF
310
FFFFFFFF0000FFFFFFFFFFFFFFFFFFFFFFFFFFFFFFFFFFFFFFFFFFFF0000FFFFFFFFFFFF0000FFFFFFFFFFFFFFFFFFFFFFFFFFFFFFFFFFFFFFFFFFFF0000FFFFFFFFFFFF0000FFFFFFFFFFFFFFFFFFFFFFFFFFFFFFFFFFFFFFFFFFFF0000FFFFFFFFFFFF0000FFFFFFFFFFFFFFFFFFFFFFFFFFFFFFFFFFFFFFFFFFFF0000FF
310
FFFFFFFFFF0000FFFFFFFFFFFFFFFFFFFFFFFFFFFFFFFFFFFFFFFFFFFF0000FFFFFFFFFFFF0000FFFFFFFFFFFFFFFFFFFFFFFFFFFFFFFFFFFFFFFFFFFF0000FFFFFFFFFFFF0000FFFFFFFFFFFFFFFFFFFFFFFFFFFFFFFFFFFFFFFFFFFF0000FFFFFFFFFFFF0000FFFFFFFFFFFFFFFFFFFFFFFFFFFFFFFFFFFFFFFFFFFF0000
310
FFFFFFFFFFFF0000FFFFFFFFFFFFFFFFFFFFFFFFFFFFFFFFFFFFFFFFFFFF0000FFFFFFFFFFFF0000FFFFFFFFFFFFFFFFFFFFFFFFFFFFFFFFFFFFFFFFFFFF0000FFFFFFFFFFFF0000FFFFFFFFFFFFFFFFFFFFFFFFFFFFFFFFFFFFFFFFFFFF0000FFFFFFFFFFFF0000FFFFFFFFFFFFFFFFFFFFFFFFFFFFFFFFFFFFFFFFFFFF00
310
00FFFFFFFFFFFF0000FFFFFFFFFFFFFFFFFFFFFFFFFFFFFFFFFFFFFFFFFFFF00000000000000000000FFFFFFFFFFFFFFFFFFFFFFFFFFFFFFFFFFFFFFFFFFFF00FFFFFFFFFFFFFFFF00FFFFFFFFFFFFFFFFFFFFFFFFFFFFFFFFFFFFFFFFFFFF00FFFFFFFFFFFFFFFF00FFFFFFFFFFFFFFFFFFFFFFFFFFFFFFFFFFFFFFFFFFFF
310
00000000000000000000FFFFFFFFFFFFFFFFFFFFFFFFFFFFFFFFFFFFFFFFFFFF0000FFFFFFFFFFFF0000FFFFFFFFFFFFFFFFFFFFFFFFFFFFFFFFFFFFFFFFFFFF0000FFFFFFFFFFFF0000FFFFFFFFFFFFFFFFFFFFFFFFFFFFFFFFFFFFFFFFFFFF0000FFFFFFFFFFFF0000FFFFFFFFFFFFFFFFFFFFFFFFFFFFFFFFFFFFFFFFFF
310
FF0000FFFFFFFFFFFF0000FFFFFFFFFFFFFFFFFFFFFFFFFFFFFFFFFFFFFFFFFFFF0000FFFFFFFFFFFF0000FFFFFFFFFFFFFFFFFFFFFFFFFFFFFFFFFFFFFFFFFFFF0000FFFFFFFFFFFF0000FFFFFFFFFFFFFFFFFFFFFFFFFFFFFFFFFFFFFFFFFFFF0000FFFFFFFFFFFF0000FFFFFFFFFFFFFFFFFFFFFFFFFFFFFFFFFFFFFFFF
310
FFFF0000FFFFFFFFFFFF0000FFFFFFFFFFFFFFFFFFFFFFFFFFFFFFFFFFFFFFFFFFFF0000FFFFFFFFFFFF0000FFFFFFFFFFFFFFFFFFFFFFFFFFFFFFFFFFFFFFFFFFFF0000FFFFFFFFFFFF0000FFFFFFFFFFFFFFFFFFFFFFFFFFFFFFFFFFFFFFFFFFFF0000FFFFFFFFFFFF0000FFFFFFFFFFFFFFFFFFFFFFFFFFFFFFFFFFFFFF
310
FFFFFF0000FFFFFFFFFFFF0000FFFFFFFFFFFFFFFFFFFFFFFFFFFFFFFFFFFFFFFFFFFFFFFFFFFFFFFFFFFFFFFFFFFFFFFFFFFFFFFFFFFFFF
102
{BLKREFS
331
27A2
102
}
  0
BLOCK_RECORD
  5
276A
330
24C9
100
AcDbSymbolTableRecord
100
AcDbBlockTableRecord
  2
AI9-BLK11
340
0
310
2800000020000000200000000100080000000000000400000000000000000000000000000000000000000000000080000080000000808000800000008000800080800000C0C0C000C0DCC000F0CAA6000020400000206000002080000020A0000020C0000020E00000400000004020000040400000406000004080000040A0
310
000040C0000040E00000600000006020000060400000606000006080000060A0000060C0000060E00000800000008020000080400000806000008080000080A0000080C0000080E00000A0000000A0200000A0400000A0600000A0800000A0A00000A0C00000A0E00000C0000000C0200000C0400000C0600000C0800000C0
310
A00000C0C00000C0E00000E0000000E0200000E0400000E0600000E0800000E0A00000E0C00000E0E00040000000400020004000400040006000400080004000A0004000C0004000E00040200000402020004020400040206000402080004020A0004020C0004020E000404000004040200040404000404060004040800040
310
40A0004040C0004040E00040600000406020004060400040606000406080004060A0004060C0004060E00040800000408020004080400040806000408080004080A0004080C0004080E00040A0000040A0200040A0400040A0600040A0800040A0A00040A0C00040A0E00040C0000040C0200040C0400040C0600040C08000
310
40C0A00040C0C00040C0E00040E0000040E0200040E0400040E0600040E0800040E0A00040E0C00040E0E00080000000800020008000400080006000800080008000A0008000C0008000E00080200000802020008020400080206000802080008020A0008020C0008020E00080400000804020008040400080406000804080
310
008040A0008040C0008040E00080600000806020008060400080606000806080008060A0008060C0008060E00080800000808020008080400080806000808080008080A0008080C0008080E00080A0000080A0200080A0400080A0600080A0800080A0A00080A0C00080A0E00080C0000080C0200080C0400080C0600080C0
310
800080C0A00080C0C00080C0E00080E0000080E0200080E0400080E0600080E0800080E0A00080E0C00080E0E000C0000000C0002000C0004000C0006000C0008000C000A000C000C000C000E000C0200000C0202000C0204000C0206000C0208000C020A000C020C000C020E000C0400000C0402000C0404000C0406000C0
310
408000C040A000C040C000C040E000C0600000C0602000C0604000C0606000C0608000C060A000C060C000C060E000C0800000C0802000C0804000C0806000C0808000C080A000C080C000C080E000C0A00000C0A02000C0A04000C0A06000C0A08000C0A0A000C0A0C000C0A0E000C0C00000C0C02000C0C04000C0C06000
310
C0C08000C0C0A000F0FBFF00A4A0A000808080000000FF0000FF000000FFFF00FF000000FF00FF00FFFF0000FFFFFF00FFFFFFFFFFFFFFFFFFFFFFFFFFFFFFFFFFFFFFFFFFFFFFFFFFFFFFFFFFFFFFFFFFFFFFFFFFFFFFFFFFFFFFFFFFFF00000000FFFFFFFFFFFFFFFFFFFFFF000000FFFFFFFFFFFFFFFFFFFFFFFFFFFF00
310
FFFF00FFFFFFFFFFFFFFFFFFFFFF00FFFFFFFFFFFFFFFFFFFFFFFFFFFFFFFF00FFFF00FFFFFFFFFFFFFFFFFFFFFF00FFFFFFFFFFFFFFFFFFFFFFFFFFFFFFFF00FFFF00FFFFFFFFFFFFFFFFFFFFFF00FFFFFFFFFFFFFFFFFFFFFFFFFFFFFFFF00FFFF00FFFFFFFFFFFFFFFFFFFFFF00FFFFFFFFFFFFFFFFFFFFFFFFFFFFFFFF
310
00FFFF00FFFFFFFFFFFFFFFFFFFFFF00FFFFFFFFFFFFFFFFFFFFFFFFFFFFFFFF00FFFF00FFFFFFFFFFFFFFFFFFFFFF00FFFFFFFFFFFFFFFFFFFFFFFFFFFFFFFF00FFFF00FFFFFFFFFFFFFFFFFFFFFF00FFFFFFFFFFFFFFFFFFFFFFFFFFFFFFFF00FFFF00FFFFFFFFFFFFFFFFFFFFFF00FFFFFFFFFFFFFFFFFFFFFFFFFFFFFF
310
FF00FFFF00FFFFFFFFFFFFFFFFFFFFFF00FFFFFFFFFFFFFFFFFFFFFFFFFFFFFFFF00FFFF00FFFFFFFFFFFFFFFFFFFFFF00FFFFFFFFFFFFFFFFFFFFFFFFFFFFFFFF00FFFF00FFFFFFFFFFFFFFFFFFFFFF00FFFFFFFFFFFFFFFFFFFFFFFFFFFFFFFF00FFFF00FFFFFFFFFFFFFFFFFFFFFF00FFFFFFFFFFFFFFFFFFFFFFFFFFFF
310
FFFF00FFFF00FFFFFFFFFFFFFFFFFFFFFF00FFFFFFFFFFFFFFFFFFFFFFFFFFFFFFFF00FFFF00FFFFFFFFFFFFFFFFFFFFFF00FFFFFFFFFFFFFFFFFFFFFFFFFFFFFFFF00FFFF00FFFFFFFFFFFFFFFFFFFFFF00FFFFFFFFFFFFFFFFFFFFFFFFFFFFFFFF00FFFF00FFFFFFFFFFFFFFFFFFFF00FFFFFFFFFFFFFFFFFFFFFFFFFFFF
310
FFFFFF00FFFF00FFFFFFFFFFFFFFFFFFFF00FFFFFFFFFFFFFFFFFFFFFFFFFFFFFFFFFF00FFFF00FFFFFFFFFFFFFFFFFFFF00FFFFFFFFFFFFFFFFFFFFFFFFFFFFFFFFFF00FFFF00FFFFFFFFFFFFFFFFFFFF00FFFFFFFFFFFFFFFFFFFFFFFFFFFFFFFFFF00FFFF00FFFFFFFFFFFFFFFFFFFF00FFFFFFFFFFFFFFFFFFFFFFFFFF
310
FFFFFFFF00FFFF00FFFFFFFFFFFFFFFFFF0000FFFF00FFFFFFFFFFFFFFFFFFFFFFFFFFFF00FFFF00FFFFFFFFFFFFFFFF0000FFFFFF00FFFFFFFFFFFFFFFFFFFFFFFFFFFF00FFFF00000000000000000000FFFFFFFF00FFFFFFFFFFFFFFFFFFFFFFFFFFFF00FFFFFFFFFFFFFFFFFFFFFFFFFFFFFF00FFFFFFFFFFFFFFFFFFFF
310
FFFFFFFFFF00FFFFFFFFFFFFFFFFFFFFFFFFFFFF00FFFFFFFFFFFFFFFFFFFFFFFFFFFFFFFF00FFFFFFFFFFFFFFFFFFFFFFFFFFFF00FFFFFFFFFFFFFFFFFFFFFFFFFFFFFFFF00FFFFFFFFFFFFFFFFFFFFFFFFFFFFFF00FFFFFFFFFFFFFFFFFFFFFFFFFFFFFF00FFFFFFFFFFFFFFFFFFFFFFFFFFFFFF00FFFFFFFFFFFFFFFFFF
310
FFFFFFFFFFFF00FFFF00000000000000000000FFFFFFFF00FFFFFFFFFFFFFFFFFFFFFFFFFFFF00FFFF00FFFFFFFFFFFFFFFFFF0000FFFF00
102
{BLKREFS
331
27A3
102
}
  0
BLOCK_RECORD
  5
276F
330
24C9
100
AcDbSymbolTableRecord
100
AcDbBlockTableRecord
  2
AI9-BLK10
340
0
310
2800000020000000200000000100080000000000000400000000000000000000000000000000000000000000000080000080000000808000800000008000800080800000C0C0C000C0DCC000F0CAA6000020400000206000002080000020A0000020C0000020E00000400000004020000040400000406000004080000040A0
310
000040C0000040E00000600000006020000060400000606000006080000060A0000060C0000060E00000800000008020000080400000806000008080000080A0000080C0000080E00000A0000000A0200000A0400000A0600000A0800000A0A00000A0C00000A0E00000C0000000C0200000C0400000C0600000C0800000C0
310
A00000C0C00000C0E00000E0000000E0200000E0400000E0600000E0800000E0A00000E0C00000E0E00040000000400020004000400040006000400080004000A0004000C0004000E00040200000402020004020400040206000402080004020A0004020C0004020E000404000004040200040404000404060004040800040
310
40A0004040C0004040E00040600000406020004060400040606000406080004060A0004060C0004060E00040800000408020004080400040806000408080004080A0004080C0004080E00040A0000040A0200040A0400040A0600040A0800040A0A00040A0C00040A0E00040C0000040C0200040C0400040C0600040C08000
310
40C0A00040C0C00040C0E00040E0000040E0200040E0400040E0600040E0800040E0A00040E0C00040E0E00080000000800020008000400080006000800080008000A0008000C0008000E00080200000802020008020400080206000802080008020A0008020C0008020E00080400000804020008040400080406000804080
310
008040A0008040C0008040E00080600000806020008060400080606000806080008060A0008060C0008060E00080800000808020008080400080806000808080008080A0008080C0008080E00080A0000080A0200080A0400080A0600080A0800080A0A00080A0C00080A0E00080C0000080C0200080C0400080C0600080C0
310
800080C0A00080C0C00080C0E00080E0000080E0200080E0400080E0600080E0800080E0A00080E0C00080E0E000C0000000C0002000C0004000C0006000C0008000C000A000C000C000C000E000C0200000C0202000C0204000C0206000C0208000C020A000C020C000C020E000C0400000C0402000C0404000C0406000C0
310
408000C040A000C040C000C040E000C0600000C0602000C0604000C0606000C0608000C060A000C060C000C060E000C0800000C0802000C0804000C0806000C0808000C080A000C080C000C080E000C0A00000C0A02000C0A04000C0A06000C0A08000C0A0A000C0A0C000C0A0E000C0C00000C0C02000C0C04000C0C06000
310
C0C08000C0C0A000F0FBFF00A4A0A000808080000000FF0000FF000000FFFF00FF000000FF00FF00FFFF0000FFFFFF00FFFFFFFFFFFFFFFFFFFFFFFFFFFFFFFF00FFFFFFFFFFFFFFFFFFFFFFFF00FFFFFFFFFFFFFFFFFFFFFFFFFFFFFFFFFFFF00FFFFFFFFFFFFFFFFFFFFFF00FFFFFFFFFFFFFFFFFFFFFFFFFFFFFFFFFFFF
310
FF00FFFFFFFFFFFFFFFFFFFFFF00FFFFFFFFFFFFFFFFFFFFFFFFFFFFFFFFFFFFFF00FFFFFFFFFFFFFFFFFFFFFF00FFFFFFFFFFFFFFFFFFFFFFFFFFFFFFFFFFFFFF00FFFFFFFFFFFFFFFFFFFFFF00FFFFFFFFFFFFFFFFFFFFFFFFFFFFFFFFFFFFFF00FFFFFFFFFFFFFFFFFFFFFF00FFFFFFFFFFFFFFFFFFFFFFFFFFFFFFFFFF
310
FFFF00FFFFFFFFFFFFFFFFFFFFFF00FFFFFFFFFFFFFFFFFFFFFFFFFFFFFFFFFFFFFF00FFFFFFFFFFFFFFFFFFFF00FFFFFFFFFFFFFFFFFFFFFFFFFFFFFFFFFFFFFFFF00FFFFFFFFFFFFFFFFFFFF00FFFFFFFFFFFFFFFFFFFFFFFFFFFFFFFFFFFFFFFF00FFFFFFFFFFFFFFFFFFFF00FFFFFFFFFFFFFFFFFFFFFFFFFFFFFFFFFF
310
FFFFFF00FFFFFFFFFFFFFFFFFFFF00FFFFFFFFFFFFFFFFFFFFFFFFFFFFFFFFFFFFFFFF00FFFFFFFFFFFFFFFFFFFF00FFFFFFFFFFFFFFFFFFFFFFFFFFFFFFFFFFFFFFFF00FFFFFFFFFFFFFFFFFFFF00FFFFFFFFFFFFFFFFFFFFFFFFFFFFFFFFFFFFFFFF00FFFFFFFFFFFFFFFFFF00FFFFFFFFFFFFFFFFFFFFFFFFFFFFFFFFFF
310
FFFFFFFF00FFFFFFFFFFFFFFFFFF00FFFFFFFFFFFFFFFFFFFFFFFFFFFFFFFFFFFFFFFFFF00FFFFFFFFFFFFFFFFFF00FFFFFFFFFFFFFFFFFFFFFFFFFFFFFFFFFFFFFFFFFF0000000000000000000000FFFFFFFFFFFFFFFFFFFFFFFFFFFFFFFFFFFFFFFFFFFFFFFFFFFFFFFFFFFFFFFFFFFFFFFFFFFFFFFFFFFFFFFFFFFFFFFF
310
FFFFFFFFFFFFFFFFFFFFFFFFFFFFFFFFFFFFFFFFFFFFFFFFFFFFFFFFFFFFFFFFFFFFFFFFFFFFFFFFFFFFFFFFFFFFFFFFFFFFFFFFFFFFFFFFFFFFFFFFFFFFFFFFFFFFFFFFFFFFFFFFFFFFFFFFFFFFFFFFFFFFFFFFFFFFFFFFFFFFFFFFFFFFFFFFFFFFFFFFFFFFFFFFFFFFFFFFFFFFFFFFFFFFFFFFFFFFFFFFFFFFFFFFFFFFFF
310
FFFFFFFFFFFFFFFFFFFFFFFFFFFFFFFFFFFFFFFFFFFFFFFFFFFFFFFFFFFFFFFFFFFFFFFFFFFFFFFFFFFFFFFFFFFFFFFFFFFFFFFFFFFFFFFFFFFFFFFFFFFFFFFFFFFFFFFFFFFFFFFFFFFFFFFFFFFFFFFFFFFFFFFFFFFFFFFFFFFFFFFFFFFFFFFFFFFFFFFFFFFFFFFFFFFFFFFFFFFFFFFFFFFFFFFFFFFFFFFFFFFFFFFFFFFFFF
310
FFFFFFFFFFFFFFFFFFFFFFFFFFFFFFFFFFFFFFFFFFFFFFFFFFFFFFFFFFFFFFFFFFFFFFFFFFFFFFFFFFFFFFFFFFFFFFFFFFFFFFFFFFFFFFFFFFFFFFFFFFFFFFFFFFFFFFFFFFFFFFFFFFFFFFFFFFFFFFFFFFFFFFFFFFFFFFFFFFFFFFFFFFFFFFFFFFFFFFFFFFFFFFFFFFFFFFFFFFFFFFFFFFFFFFFFFFFFFFFFFFFFFFFFFFFFFF
310
FFFFFFFFFFFFFFFFFFFFFFFFFFFFFFFFFFFFFFFFFFFFFFFFFFFFFFFFFFFFFFFFFFFFFFFFFFFFFFFFFFFFFFFFFFFFFFFFFFFFFFFFFFFFFFFF
102
{BLKREFS
331
27A4
102
}
  0
BLOCK_RECORD
  5
2773
330
24C9
100
AcDbSymbolTableRecord
100
AcDbBlockTableRecord
  2
AI9-BLK9
340
0
310
2800000020000000200000000100080000000000000400000000000000000000000000000000000000000000000080000080000000808000800000008000800080800000C0C0C000C0DCC000F0CAA6000020400000206000002080000020A0000020C0000020E00000400000004020000040400000406000004080000040A0
310
000040C0000040E00000600000006020000060400000606000006080000060A0000060C0000060E00000800000008020000080400000806000008080000080A0000080C0000080E00000A0000000A0200000A0400000A0600000A0800000A0A00000A0C00000A0E00000C0000000C0200000C0400000C0600000C0800000C0
310
A00000C0C00000C0E00000E0000000E0200000E0400000E0600000E0800000E0A00000E0C00000E0E00040000000400020004000400040006000400080004000A0004000C0004000E00040200000402020004020400040206000402080004020A0004020C0004020E000404000004040200040404000404060004040800040
310
40A0004040C0004040E00040600000406020004060400040606000406080004060A0004060C0004060E00040800000408020004080400040806000408080004080A0004080C0004080E00040A0000040A0200040A0400040A0600040A0800040A0A00040A0C00040A0E00040C0000040C0200040C0400040C0600040C08000
310
40C0A00040C0C00040C0E00040E0000040E0200040E0400040E0600040E0800040E0A00040E0C00040E0E00080000000800020008000400080006000800080008000A0008000C0008000E00080200000802020008020400080206000802080008020A0008020C0008020E00080400000804020008040400080406000804080
310
008040A0008040C0008040E00080600000806020008060400080606000806080008060A0008060C0008060E00080800000808020008080400080806000808080008080A0008080C0008080E00080A0000080A0200080A0400080A0600080A0800080A0A00080A0C00080A0E00080C0000080C0200080C0400080C0600080C0
310
800080C0A00080C0C00080C0E00080E0000080E0200080E0400080E0600080E0800080E0A00080E0C00080E0E000C0000000C0002000C0004000C0006000C0008000C000A000C000C000C000E000C0200000C0202000C0204000C0206000C0208000C020A000C020C000C020E000C0400000C0402000C0404000C0406000C0
310
408000C040A000C040C000C040E000C0600000C0602000C0604000C0606000C0608000C060A000C060C000C060E000C0800000C0802000C0804000C0806000C0808000C080A000C080C000C080E000C0A00000C0A02000C0A04000C0A06000C0A08000C0A0A000C0A0C000C0A0E000C0C00000C0C02000C0C04000C0C06000
310
C0C08000C0C0A000F0FBFF00A4A0A000808080000000FF0000FF000000FFFF00FF000000FF00FF00FFFF0000FFFFFF00FFFFFFFFFFFFFFFFFFFFFFFFFFFFFFFFFFFFFFFFFFFFFFFFFFFFFFFFFFFFFFFFFFFFFFFFFFFFFFFFFFFFFFFFFFFFFF0000FFFFFFFFFFFFFFFFFFFFFFFFFFFFFFFFFFFFFFFFFFFFFFFFFFFFFFFF0000
310
FF0000FFFFFFFFFFFFFFFFFFFFFFFFFFFFFFFFFFFFFFFFFFFFFFFFFFFFFF00FFFFFF0000FFFFFFFFFFFFFFFFFFFFFFFFFFFFFFFFFFFFFFFFFFFFFFFFFFFF00FFFFFFFF0000FFFFFFFFFFFFFFFFFFFFFFFFFFFFFFFFFFFFFFFFFFFFFFFF00FF00000000FF00FFFFFFFFFFFFFFFFFFFFFFFFFFFFFFFFFFFFFFFFFFFFFFFF0000
310
00FFFF00FF00FFFFFFFFFFFFFFFFFFFFFFFFFFFFFFFFFFFFFFFFFFFFFFFF0000FFFFFFFF0000FFFFFFFFFFFFFFFFFFFFFFFFFFFFFFFFFFFFFFFFFFFFFFFF0000FFFFFFFF0000FFFFFFFFFFFFFFFFFFFFFFFFFFFFFFFFFFFFFFFFFFFFFF00FF00FFFFFFFF00FF00FFFFFFFFFFFFFFFFFFFFFFFFFFFFFFFFFFFFFFFFFFFF0000
310
FFFFFFFFFF00FF00FFFFFFFFFFFFFFFFFFFFFFFFFFFFFFFFFFFFFFFFFFFF0000FFFFFFFFFFFF0000FFFFFFFFFFFFFFFFFFFFFFFFFFFFFFFFFFFFFFFFFFFF0000FFFFFFFFFFFF0000FFFFFFFFFFFFFFFFFFFFFFFFFFFFFFFFFFFFFFFFFFFF0000FFFFFFFFFFFF0000FFFFFFFFFFFFFFFFFFFFFFFFFFFFFFFFFFFFFFFFFFFF00
310
00FFFFFFFFFFFF0000FFFFFFFFFFFFFFFFFFFFFFFFFFFFFFFFFFFFFFFFFFFF0000FFFFFFFFFFFF0000FFFFFFFFFFFFFFFFFFFFFFFFFFFFFFFFFFFFFFFFFFFF0000FFFFFFFFFFFF0000FFFFFFFFFFFFFFFFFFFFFFFFFFFFFFFFFFFFFFFFFFFF0000FFFFFFFFFFFF0000FFFFFFFFFFFFFFFFFFFFFFFFFFFFFFFFFFFFFFFFFFFF
310
0000FFFFFFFFFFFF0000FFFFFFFFFFFFFFFFFFFFFFFFFFFFFFFFFFFFFFFFFFFF0000FFFFFFFFFFFF0000FFFFFFFFFFFFFFFFFFFFFFFFFFFFFFFFFFFFFFFFFFFF0000FFFFFFFFFFFF0000FFFFFFFFFFFFFFFFFFFFFFFFFFFFFFFFFFFFFFFFFFFF00FF00FFFFFFFF00FF00FFFFFFFFFFFFFFFFFFFFFFFFFFFFFFFFFFFFFFFFFF
310
FF00FF00FFFFFFFF00FF00FFFFFFFFFFFFFFFFFFFFFFFFFFFFFFFFFFFFFFFFFFFF00FF00FFFFFFFF00FF00FFFFFFFFFFFFFFFFFFFFFFFFFFFFFFFFFFFFFFFFFFFFFF0000FFFFFFFF0000FFFFFFFFFFFFFFFFFFFFFFFFFFFFFFFFFFFFFFFFFFFFFFFF00FF00FFFF00FF00FFFFFFFFFFFFFFFFFFFFFFFFFFFFFFFFFFFFFFFFFF
310
FFFFFF00FF00000000FF00FFFFFFFFFFFFFFFFFFFFFFFFFFFFFFFFFFFFFFFFFFFFFFFFFF00FFFFFFFF0000FFFFFFFFFFFFFFFFFFFFFFFFFFFFFFFFFFFFFFFFFFFFFFFFFF00FFFFFFFF00FFFFFFFFFFFFFFFFFFFFFFFFFFFFFFFFFFFFFFFFFFFFFFFFFFFFFF00000000FFFFFFFFFFFFFFFFFFFFFFFFFFFFFFFFFFFFFFFFFFFF
310
FFFFFFFFFFFFFF0000FFFFFFFFFFFFFFFFFFFFFFFFFFFFFFFFFFFFFFFFFFFFFFFFFFFFFFFFFFFFFFFFFFFFFFFFFFFFFFFFFFFFFFFFFFFFFF
102
{BLKREFS
331
27A5
102
}
  0
BLOCK_RECORD
  5
2778
330
24C9
100
AcDbSymbolTableRecord
100
AcDbBlockTableRecord
  2
AI9-BLK8
340
0
310
2800000020000000200000000100080000000000000400000000000000000000000000000000000000000000000080000080000000808000800000008000800080800000C0C0C000C0DCC000F0CAA6000020400000206000002080000020A0000020C0000020E00000400000004020000040400000406000004080000040A0
310
000040C0000040E00000600000006020000060400000606000006080000060A0000060C0000060E00000800000008020000080400000806000008080000080A0000080C0000080E00000A0000000A0200000A0400000A0600000A0800000A0A00000A0C00000A0E00000C0000000C0200000C0400000C0600000C0800000C0
310
A00000C0C00000C0E00000E0000000E0200000E0400000E0600000E0800000E0A00000E0C00000E0E00040000000400020004000400040006000400080004000A0004000C0004000E00040200000402020004020400040206000402080004020A0004020C0004020E000404000004040200040404000404060004040800040
310
40A0004040C0004040E00040600000406020004060400040606000406080004060A0004060C0004060E00040800000408020004080400040806000408080004080A0004080C0004080E00040A0000040A0200040A0400040A0600040A0800040A0A00040A0C00040A0E00040C0000040C0200040C0400040C0600040C08000
310
40C0A00040C0C00040C0E00040E0000040E0200040E0400040E0600040E0800040E0A00040E0C00040E0E00080000000800020008000400080006000800080008000A0008000C0008000E00080200000802020008020400080206000802080008020A0008020C0008020E00080400000804020008040400080406000804080
310
008040A0008040C0008040E00080600000806020008060400080606000806080008060A0008060C0008060E00080800000808020008080400080806000808080008080A0008080C0008080E00080A0000080A0200080A0400080A0600080A0800080A0A00080A0C00080A0E00080C0000080C0200080C0400080C0600080C0
310
800080C0A00080C0C00080C0E00080E0000080E0200080E0400080E0600080E0800080E0A00080E0C00080E0E000C0000000C0002000C0004000C0006000C0008000C000A000C000C000C000E000C0200000C0202000C0204000C0206000C0208000C020A000C020C000C020E000C0400000C0402000C0404000C0406000C0
310
408000C040A000C040C000C040E000C0600000C0602000C0604000C0606000C0608000C060A000C060C000C060E000C0800000C0802000C0804000C0806000C0808000C080A000C080C000C080E000C0A00000C0A02000C0A04000C0A06000C0A08000C0A0A000C0A0C000C0A0E000C0C00000C0C02000C0C04000C0C06000
310
C0C08000C0C0A000F0FBFF00A4A0A000808080000000FF0000FF000000FFFF00FF000000FF00FF00FFFF0000FFFFFF00FFFFFFFFFFFFFFFFFFFFFFFFFFFFFFFFFFFFFFFFFFFFFFFFFFFFFFFFFFFFFFFFFFFFFFFFFFFFFFFFFFFFFF0000FFFFFFFFFFFF0000FFFFFFFFFFFFFFFFFFFFFFFFFFFFFFFFFFFFFFFFFFFF0000FFFF
310
FFFFFFFF0000FFFFFFFFFFFFFFFFFFFFFFFFFFFFFFFFFFFFFFFFFFFF0000FFFFFFFFFF00FF00FFFFFFFFFFFFFFFFFFFFFFFFFFFFFFFFFFFFFFFFFFFF0000FFFFFFFFFF00FF00FFFFFFFFFFFFFFFFFFFFFFFFFFFFFFFFFFFFFFFFFFFF0000FFFFFFFFFF00FF00FFFFFFFFFFFFFFFFFFFFFFFFFFFFFFFFFFFFFFFFFFFF0000FF
310
FFFFFF00FFFF00FFFFFFFFFFFFFFFFFFFFFFFFFFFFFFFFFFFFFFFFFFFF0000FFFFFFFF00FF0000FFFFFFFFFFFFFFFFFFFFFFFFFFFFFFFFFFFFFFFFFFFF0000FFFFFFFF00FF0000FFFFFFFFFFFFFFFFFFFFFFFFFFFFFFFFFFFFFFFFFFFF0000FFFFFFFF00000000FFFFFFFFFFFFFFFFFFFFFFFFFFFFFFFFFFFFFFFFFFFF0000
310
FFFFFF00FF000000FFFFFFFFFFFFFFFFFFFFFFFFFFFFFFFFFFFFFFFFFFFF0000FFFFFF00FF000000FFFFFFFFFFFFFFFFFFFFFFFFFFFFFFFFFFFFFFFFFFFF0000FFFFFF00FF000000FFFFFFFFFFFFFFFFFFFFFFFFFFFFFFFFFFFFFFFFFFFF0000FFFF00FF00FF0000FFFFFFFFFFFFFFFFFFFFFFFFFFFFFFFFFFFFFFFFFFFF00
310
00FFFF00FF00FF0000FFFFFFFFFFFFFFFFFFFFFFFFFFFFFFFFFFFFFFFFFFFF0000FFFF00FF00FF0000FFFFFFFFFFFFFFFFFFFFFFFFFFFFFFFFFFFFFFFFFFFF0000FF00FFFF00FF0000FFFFFFFFFFFFFFFFFFFFFFFFFFFFFFFFFFFFFFFFFFFF0000FF00FF00FFFF0000FFFFFFFFFFFFFFFFFFFFFFFFFFFFFFFFFFFFFFFFFFFF
310
0000FF00FF00FFFF0000FFFFFFFFFFFFFFFFFFFFFFFFFFFFFFFFFFFFFFFFFFFF0000FF00FF00FFFF0000FFFFFFFFFFFFFFFFFFFFFFFFFFFFFFFFFFFFFFFFFFFF000000FFFF00FFFF0000FFFFFFFFFFFFFFFFFFFFFFFFFFFFFFFFFFFFFFFFFFFF000000FF00FFFFFF0000FFFFFFFFFFFFFFFFFFFFFFFFFFFFFFFFFFFFFFFFFF
310
FF000000FF00FFFFFF0000FFFFFFFFFFFFFFFFFFFFFFFFFFFFFFFFFFFFFFFFFFFF0000FFFF00FFFFFF0000FFFFFFFFFFFFFFFFFFFFFFFFFFFFFFFFFFFFFFFFFFFF0000FFFF00FFFFFF0000FFFFFFFFFFFFFFFFFFFFFFFFFFFFFFFFFFFFFFFFFFFF00FFFF00FFFFFFFF0000FFFFFFFFFFFFFFFFFFFFFFFFFFFFFFFFFFFFFFFF
310
FFFF00FFFF00FFFFFFFF0000FFFFFFFFFFFFFFFFFFFFFFFFFFFFFFFFFFFFFFFFFFFF00FFFF00FFFFFFFF0000FFFFFFFFFFFFFFFFFFFFFFFFFFFFFFFFFFFFFFFFFFFF00FFFF00FFFFFFFF0000FFFFFFFFFFFFFFFFFFFFFFFFFFFFFFFFFFFFFFFFFFFF00FF00FFFFFFFFFF0000FFFFFFFFFFFFFFFFFFFFFFFFFFFFFFFFFFFFFF
310
FFFFFF000000FFFFFFFFFF0000FFFFFFFFFFFFFFFFFFFFFFFFFFFFFFFFFFFFFFFFFFFFFFFFFFFFFFFFFFFFFFFFFFFFFFFFFFFFFFFFFFFFFF
102
{BLKREFS
331
27A6
102
}
  0
BLOCK_RECORD
  5
277D
330
24C9
100
AcDbSymbolTableRecord
100
AcDbBlockTableRecord
  2
AI9-BLK7
340
0
310
2800000020000000200000000100080000000000000400000000000000000000000000000000000000000000000080000080000000808000800000008000800080800000C0C0C000C0DCC000F0CAA6000020400000206000002080000020A0000020C0000020E00000400000004020000040400000406000004080000040A0
310
000040C0000040E00000600000006020000060400000606000006080000060A0000060C0000060E00000800000008020000080400000806000008080000080A0000080C0000080E00000A0000000A0200000A0400000A0600000A0800000A0A00000A0C00000A0E00000C0000000C0200000C0400000C0600000C0800000C0
310
A00000C0C00000C0E00000E0000000E0200000E0400000E0600000E0800000E0A00000E0C00000E0E00040000000400020004000400040006000400080004000A0004000C0004000E00040200000402020004020400040206000402080004020A0004020C0004020E000404000004040200040404000404060004040800040
310
40A0004040C0004040E00040600000406020004060400040606000406080004060A0004060C0004060E00040800000408020004080400040806000408080004080A0004080C0004080E00040A0000040A0200040A0400040A0600040A0800040A0A00040A0C00040A0E00040C0000040C0200040C0400040C0600040C08000
310
40C0A00040C0C00040C0E00040E0000040E0200040E0400040E0600040E0800040E0A00040E0C00040E0E00080000000800020008000400080006000800080008000A0008000C0008000E00080200000802020008020400080206000802080008020A0008020C0008020E00080400000804020008040400080406000804080
310
008040A0008040C0008040E00080600000806020008060400080606000806080008060A0008060C0008060E00080800000808020008080400080806000808080008080A0008080C0008080E00080A0000080A0200080A0400080A0600080A0800080A0A00080A0C00080A0E00080C0000080C0200080C0400080C0600080C0
310
800080C0A00080C0C00080C0E00080E0000080E0200080E0400080E0600080E0800080E0A00080E0C00080E0E000C0000000C0002000C0004000C0006000C0008000C000A000C000C000C000E000C0200000C0202000C0204000C0206000C0208000C020A000C020C000C020E000C0400000C0402000C0404000C0406000C0
310
408000C040A000C040C000C040E000C0600000C0602000C0604000C0606000C0608000C060A000C060C000C060E000C0800000C0802000C0804000C0806000C0808000C080A000C080C000C080E000C0A00000C0A02000C0A04000C0A06000C0A08000C0A0A000C0A0C000C0A0E000C0C00000C0C02000C0C04000C0C06000
310
C0C08000C0C0A000F0FBFF00A4A0A000808080000000FF0000FF000000FFFF00FF000000FF00FF00FFFF0000FFFFFF00FFFFFFFFFFFFFFFFFFFFFFFFFFFFFFFFFFFFFFFFFFFFFFFFFFFFFFFFFFFFFFFFFFFFFFFFFFFFFFFFFFFFFFFFFFFFFF0000FFFFFFFFFFFFFFFFFFFFFFFFFFFFFFFFFFFFFFFFFFFFFFFFFFFFFFFFFFFF
310
0000FFFFFFFFFFFFFFFFFFFFFFFFFFFFFFFFFFFFFFFFFFFFFFFFFFFFFFFFFFFF0000FFFFFFFFFFFFFFFFFFFFFFFFFFFFFFFFFFFFFFFFFFFFFFFFFFFFFFFFFFFF0000FFFFFFFFFFFFFFFFFFFFFFFFFFFFFFFFFFFFFFFFFFFFFFFFFFFFFFFFFFFF0000FFFFFFFFFFFFFFFFFFFFFFFFFFFFFFFFFFFFFFFFFFFFFFFFFFFFFFFFFF
310
FF0000FFFFFFFFFFFFFFFFFFFFFFFFFFFFFFFFFFFFFFFFFFFFFFFFFFFFFFFFFFFF0000FFFFFFFFFFFFFFFFFFFFFFFFFFFFFFFFFFFFFFFFFFFFFFFFFFFFFFFFFFFF0000FFFFFFFFFFFFFFFFFFFFFFFFFFFFFFFFFFFFFFFFFFFFFFFFFFFFFFFFFFFF0000FFFFFFFFFFFFFFFFFFFFFFFFFFFFFFFFFFFFFFFFFFFFFFFFFFFFFFFF
310
FFFF0000FFFFFFFFFFFFFFFFFFFFFFFFFFFFFFFFFFFFFFFFFFFFFFFFFFFFFFFFFFFF0000FFFFFFFFFFFFFFFFFFFFFFFFFFFFFFFFFFFFFFFFFFFFFFFFFFFFFFFFFFFF0000FFFFFFFFFFFFFFFFFFFFFFFFFFFFFFFFFFFFFFFFFFFFFFFFFFFFFFFFFFFF0000FFFFFFFFFFFFFFFFFFFFFFFFFFFFFFFFFFFFFFFFFFFFFFFFFFFFFF
310
FFFFFF0000FFFFFFFFFFFFFFFFFFFFFFFFFFFFFFFFFFFFFFFFFFFFFFFFFFFFFFFFFFFF0000FFFFFFFFFFFFFFFFFFFFFFFFFFFFFFFFFFFFFFFFFFFFFFFFFFFFFFFFFFFF0000FFFFFFFFFFFFFFFFFFFFFFFFFFFFFFFFFFFFFFFFFFFFFFFFFFFFFFFFFFFF0000FFFFFFFFFFFFFFFFFFFFFFFFFFFFFFFFFFFFFFFFFFFFFFFFFFFF
310
FFFFFFFF0000FFFFFFFFFFFFFFFFFFFFFFFFFFFFFFFFFFFFFFFFFFFFFFFFFFFFFFFFFFFF0000FFFFFFFFFFFFFFFFFFFFFFFFFFFFFFFFFFFFFFFFFFFFFFFFFFFFFFFFFFFF0000FFFFFFFFFFFFFFFFFFFFFFFFFFFFFFFFFFFFFFFFFFFFFFFFFFFFFFFFFFFF0000FFFFFFFFFFFFFFFFFFFFFFFFFFFFFFFFFFFFFFFFFFFFFFFFFF
310
FFFFFFFFFF0000FFFFFFFFFFFFFFFFFFFFFFFFFFFFFFFFFFFFFFFFFFFFFFFFFFFFFFFFFFFF0000FFFFFFFFFFFFFFFFFFFFFFFFFFFFFFFFFFFFFFFFFFFFFFFFFFFFFFFFFFFF0000FFFFFFFFFFFFFFFFFFFFFFFFFFFFFFFFFFFFFFFFFFFFFFFFFFFFFFFFFFFF0000FFFFFFFFFFFFFFFFFFFFFFFFFFFFFFFFFFFFFFFFFFFFFFFF
310
FFFFFFFFFFFF0000FFFFFFFFFFFFFFFFFFFFFFFFFFFFFFFFFFFFFFFFFFFFFFFFFFFFFFFFFFFF0000FFFFFFFFFFFFFFFFFFFFFFFFFFFFFFFFFFFFFFFFFFFFFFFFFFFFFFFFFFFF0000FFFFFFFFFFFFFFFFFFFFFFFFFFFFFFFFFFFFFFFFFFFFFFFFFFFFFFFFFFFF0000FFFFFFFFFFFFFFFFFFFFFFFFFFFFFFFFFFFFFFFFFFFFFF
310
FFFFFFFFFFFFFF0000FFFFFFFFFFFFFFFFFFFFFFFFFFFFFFFFFFFFFFFFFFFFFFFFFFFFFFFFFFFFFFFFFFFFFFFFFFFFFFFFFFFFFFFFFFFFFF
102
{BLKREFS
331
27A7
102
}
  0
BLOCK_RECORD
  5
2782
330
24C9
100
AcDbSymbolTableRecord
100
AcDbBlockTableRecord
  2
AI9-BLK6
340
0
310
2800000020000000200000000100080000000000000400000000000000000000000000000000000000000000000080000080000000808000800000008000800080800000C0C0C000C0DCC000F0CAA6000020400000206000002080000020A0000020C0000020E00000400000004020000040400000406000004080000040A0
310
000040C0000040E00000600000006020000060400000606000006080000060A0000060C0000060E00000800000008020000080400000806000008080000080A0000080C0000080E00000A0000000A0200000A0400000A0600000A0800000A0A00000A0C00000A0E00000C0000000C0200000C0400000C0600000C0800000C0
310
A00000C0C00000C0E00000E0000000E0200000E0400000E0600000E0800000E0A00000E0C00000E0E00040000000400020004000400040006000400080004000A0004000C0004000E00040200000402020004020400040206000402080004020A0004020C0004020E000404000004040200040404000404060004040800040
310
40A0004040C0004040E00040600000406020004060400040606000406080004060A0004060C0004060E00040800000408020004080400040806000408080004080A0004080C0004080E00040A0000040A0200040A0400040A0600040A0800040A0A00040A0C00040A0E00040C0000040C0200040C0400040C0600040C08000
310
40C0A00040C0C00040C0E00040E0000040E0200040E0400040E0600040E0800040E0A00040E0C00040E0E00080000000800020008000400080006000800080008000A0008000C0008000E00080200000802020008020400080206000802080008020A0008020C0008020E00080400000804020008040400080406000804080
310
008040A0008040C0008040E00080600000806020008060400080606000806080008060A0008060C0008060E00080800000808020008080400080806000808080008080A0008080C0008080E00080A0000080A0200080A0400080A0600080A0800080A0A00080A0C00080A0E00080C0000080C0200080C0400080C0600080C0
310
800080C0A00080C0C00080C0E00080E0000080E0200080E0400080E0600080E0800080E0A00080E0C00080E0E000C0000000C0002000C0004000C0006000C0008000C000A000C000C000C000E000C0200000C0202000C0204000C0206000C0208000C020A000C020C000C020E000C0400000C0402000C0404000C0406000C0
310
408000C040A000C040C000C040E000C0600000C0602000C0604000C0606000C0608000C060A000C060C000C060E000C0800000C0802000C0804000C0806000C0808000C080A000C080C000C080E000C0A00000C0A02000C0A04000C0A06000C0A08000C0A0A000C0A0C000C0A0E000C0C00000C0C02000C0C04000C0C06000
310
C0C08000C0C0A000F0FBFF00A4A0A000808080000000FF0000FF000000FFFF00FF000000FF00FF00FFFF0000FFFFFF00FFFFFFFFFFFFFFFFFFFFFFFF00FFFFFFFFFFFFFF00FFFFFFFFFFFFFFFFFFFFFFFFFFFFFFFFFFFFFFFFFFFFFF00FFFFFFFFFFFFFF00FFFFFFFFFFFFFFFFFFFFFFFFFFFFFFFFFFFFFFFFFFFFFF00FFFF
310
FFFFFFFFFF00FFFFFFFFFFFFFFFFFFFFFFFFFFFFFFFFFFFFFFFFFFFF00FFFFFFFFFFFFFFFF00FFFFFFFFFFFFFFFFFFFFFFFFFFFFFFFFFFFFFFFFFFFF00FFFFFFFFFFFFFF00FFFFFFFFFFFFFFFFFFFFFFFFFFFFFFFFFFFFFFFFFFFFFF00FFFFFFFFFFFFFF00FFFFFFFFFFFFFFFFFFFFFFFFFFFFFFFFFFFFFFFFFFFF00FFFFFF
310
FFFFFFFFFF00FFFFFFFFFFFFFFFFFFFFFFFFFFFFFFFFFFFFFFFFFFFF00FFFFFFFFFFFFFF00FFFFFFFFFFFFFFFFFFFFFFFFFFFFFFFFFFFFFFFFFFFF00FFFFFFFFFFFFFFFF00FFFFFFFFFFFFFFFFFFFFFFFFFFFFFFFFFFFFFFFFFF00FFFFFFFFFFFFFFFFFF00FFFFFFFFFFFFFFFFFFFFFFFFFFFFFFFFFFFFFFFF00FFFFFFFFFF
310
FFFFFFFFFF00FFFFFFFFFFFFFFFFFFFFFFFFFFFFFFFFFFFFFF00FFFFFFFFFFFFFFFFFFFF00FFFFFFFFFFFFFFFFFFFFFFFFFFFFFFFFFFFF0000FFFFFFFFFFFFFFFFFFFFFF00FFFFFFFFFFFFFFFFFFFFFFFFFFFF00000000FFFFFFFFFFFFFFFFFFFFFFFFFF00FFFFFFFFFFFFFFFFFFFFFFFFFFFFFFFFFFFFFFFFFFFFFFFFFFFF
310
FFFFFFFF00FFFFFFFFFFFFFFFFFFFFFFFFFFFFFFFFFFFFFFFFFFFFFFFFFFFFFFFFFFFFFF00FFFFFFFFFFFFFFFFFFFFFFFFFFFFFFFFFFFFFFFFFFFFFFFFFFFFFFFFFFFFFF00FFFFFFFFFFFFFFFFFFFFFFFFFFFFFFFFFFFFFFFFFFFFFFFFFFFFFFFFFFFF00FFFFFFFFFFFFFFFFFFFFFFFFFFFFFFFFFFFFFFFFFFFFFFFFFFFFFF
310
FFFFFFFF00FFFFFFFFFFFFFFFFFFFFFFFFFFFFFFFFFFFFFFFFFFFFFFFFFFFFFFFFFFFF00FFFFFFFFFFFFFFFFFFFFFFFFFFFFFFFFFFFFFFFFFFFFFFFFFFFFFFFFFFFF00FFFFFFFFFFFFFFFFFFFFFFFFFFFFFFFFFFFFFFFFFFFFFFFFFFFFFFFFFFFF00FFFFFFFFFFFFFFFFFFFFFFFFFFFFFFFFFFFFFFFFFFFFFFFFFFFFFFFFFF
310
FF00FFFFFFFFFFFFFFFFFFFFFFFFFFFFFFFFFFFFFFFFFFFFFFFFFFFFFFFFFFFFFF00FFFFFFFFFFFFFFFFFFFFFFFFFFFFFFFFFFFFFFFFFFFFFFFFFFFFFFFFFFFF00FFFFFFFFFFFFFFFFFFFFFFFFFFFFFFFFFFFFFFFFFFFFFFFFFFFFFFFFFF0000FFFFFFFFFFFFFFFFFFFFFFFFFFFFFFFFFFFFFFFFFFFFFFFFFFFFFFFF0000FF
310
FFFFFFFFFFFFFFFFFFFFFFFFFFFFFFFFFFFFFFFFFFFFFFFFFF00000000FFFFFFFFFFFFFFFFFFFFFFFFFFFFFFFFFFFFFFFFFFFFFFFFFFFF0000FFFFFFFFFFFFFFFFFFFFFFFFFFFFFFFFFFFFFFFFFFFFFFFFFFFFFFFFFFFFFFFFFFFFFFFFFFFFFFFFFFFFFFFFFFFFFFFFFFFFFFFFFFFFFFFFFFFFFFFFFFFFFFFFFFFFFFFFFFFF
310
FFFFFFFFFFFFFFFFFFFFFFFFFFFFFFFFFFFFFFFFFFFFFFFFFFFFFFFFFFFFFFFFFFFFFFFFFFFFFFFFFFFFFFFFFFFFFFFFFFFFFFFFFFFFFFFF
102
{BLKREFS
331
27A8
102
}
  0
BLOCK_RECORD
  5
2786
330
24C9
100
AcDbSymbolTableRecord
100
AcDbBlockTableRecord
  2
AI9-BLK5
340
0
310
2800000020000000200000000100080000000000000400000000000000000000000000000000000000000000000080000080000000808000800000008000800080800000C0C0C000C0DCC000F0CAA6000020400000206000002080000020A0000020C0000020E00000400000004020000040400000406000004080000040A0
310
000040C0000040E00000600000006020000060400000606000006080000060A0000060C0000060E00000800000008020000080400000806000008080000080A0000080C0000080E00000A0000000A0200000A0400000A0600000A0800000A0A00000A0C00000A0E00000C0000000C0200000C0400000C0600000C0800000C0
310
A00000C0C00000C0E00000E0000000E0200000E0400000E0600000E0800000E0A00000E0C00000E0E00040000000400020004000400040006000400080004000A0004000C0004000E00040200000402020004020400040206000402080004020A0004020C0004020E000404000004040200040404000404060004040800040
310
40A0004040C0004040E00040600000406020004060400040606000406080004060A0004060C0004060E00040800000408020004080400040806000408080004080A0004080C0004080E00040A0000040A0200040A0400040A0600040A0800040A0A00040A0C00040A0E00040C0000040C0200040C0400040C0600040C08000
310
40C0A00040C0C00040C0E00040E0000040E0200040E0400040E0600040E0800040E0A00040E0C00040E0E00080000000800020008000400080006000800080008000A0008000C0008000E00080200000802020008020400080206000802080008020A0008020C0008020E00080400000804020008040400080406000804080
310
008040A0008040C0008040E00080600000806020008060400080606000806080008060A0008060C0008060E00080800000808020008080400080806000808080008080A0008080C0008080E00080A0000080A0200080A0400080A0600080A0800080A0A00080A0C00080A0E00080C0000080C0200080C0400080C0600080C0
310
800080C0A00080C0C00080C0E00080E0000080E0200080E0400080E0600080E0800080E0A00080E0C00080E0E000C0000000C0002000C0004000C0006000C0008000C000A000C000C000C000E000C0200000C0202000C0204000C0206000C0208000C020A000C020C000C020E000C0400000C0402000C0404000C0406000C0
310
408000C040A000C040C000C040E000C0600000C0602000C0604000C0606000C0608000C060A000C060C000C060E000C0800000C0802000C0804000C0806000C0808000C080A000C080C000C080E000C0A00000C0A02000C0A04000C0A06000C0A08000C0A0A000C0A0C000C0A0E000C0C00000C0C02000C0C04000C0C06000
310
C0C08000C0C0A000F0FBFF00A4A0A000808080000000FF0000FF000000FFFF00FF000000FF00FF00FFFF0000FFFFFF00FFFFFFFFFFFFFFFFFFFFFFFFFFFFFFFFFFFFFFFFFFFFFFFFFFFFFFFFFFFFFFFFFFFFFFFFFFFFFFFF000000000000000000000000000000000000000000000000FFFFFFFFFFFFFFFF00FFFFFFFFFFFF
310
FFFFFFFFFFFFFFFFFFFFFFFFFFFFFFFFFFFFFFFFFFFFFFFFFF00FFFFFFFFFFFFFFFFFFFFFFFFFFFFFFFFFFFFFFFFFFFFFFFFFFFFFFFFFFFFFF00FFFFFFFFFFFFFFFFFFFFFFFFFFFFFFFFFFFFFFFFFFFFFFFFFFFFFFFFFFFFFF00FFFFFFFFFFFFFFFFFFFFFFFFFFFFFFFFFFFFFFFFFFFFFFFFFFFFFFFFFFFFFF00FFFFFFFFFF
310
FFFFFFFFFFFFFFFFFFFFFFFFFFFFFFFFFFFFFFFFFFFFFFFFFFFF00FFFFFFFFFFFFFFFFFFFFFFFFFFFFFFFFFFFFFFFFFFFFFFFFFFFFFFFFFFFFFF00FFFFFFFFFFFFFFFFFFFFFFFFFFFFFFFFFFFFFFFFFFFFFFFFFFFFFFFFFFFFFF00FFFFFFFFFFFFFFFFFFFFFFFFFFFFFFFFFFFFFFFFFFFFFFFFFFFFFFFFFFFFFF00FFFFFFFF
310
FFFFFFFFFFFFFFFFFFFFFFFFFFFFFFFFFFFFFFFFFFFFFFFFFFFFFF00FFFFFFFFFFFFFFFFFFFFFFFFFFFFFFFFFFFFFFFFFFFFFFFFFFFFFFFFFFFFFF00FFFFFFFFFFFFFFFFFFFFFFFFFFFFFFFFFFFFFFFFFFFFFFFFFFFFFFFFFFFFFF00FFFFFFFFFFFFFFFFFFFFFFFFFFFFFFFFFFFFFFFFFFFFFFFFFFFFFFFFFFFFFF00FFFFFF
310
FFFFFFFFFFFFFFFFFFFFFFFFFFFFFFFFFFFFFFFFFFFFFFFFFFFFFFFF00FFFFFFFFFFFFFFFFFFFFFFFFFFFFFFFFFFFFFFFFFFFFFFFFFFFFFFFFFFFFFF00FFFFFFFFFFFFFFFFFFFFFFFFFFFFFFFFFFFFFFFFFFFFFFFFFFFFFFFFFFFFFF00FFFFFFFFFFFFFFFFFFFFFFFFFFFFFFFFFFFFFFFFFFFFFFFFFFFFFFFFFFFFFF00FFFF
310
FFFFFFFFFFFFFFFFFFFFFFFFFFFFFFFFFFFFFFFFFFFFFFFFFFFFFFFFFF00FFFFFFFFFFFFFFFFFFFFFFFFFFFFFFFFFFFFFFFFFFFFFFFFFFFFFFFFFFFFFF00FFFFFFFFFFFFFFFFFFFFFFFFFFFFFFFFFFFFFFFFFFFFFFFFFFFFFFFFFFFFFF00FFFFFFFFFFFFFFFFFFFFFFFFFFFFFFFFFFFFFFFFFFFFFFFFFFFFFFFFFFFFFF00FF
310
FFFFFFFFFFFFFFFFFFFFFFFFFFFFFFFFFFFFFFFFFFFFFFFFFFFFFFFFFFFF00FFFFFFFFFFFFFFFFFFFFFFFFFFFFFFFFFFFFFFFFFFFFFFFFFFFFFFFFFFFFFF00FFFFFFFFFFFFFFFFFFFFFFFFFFFFFFFFFFFFFFFFFFFFFFFFFFFFFFFFFFFFFF00FFFFFFFFFFFFFFFFFFFFFFFFFFFFFFFFFFFFFFFFFFFFFFFFFFFFFFFFFFFFFF00
310
FFFFFFFFFFFFFFFFFFFFFFFFFFFFFFFFFFFFFFFFFFFFFFFFFFFFFFFFFFFFFF00FFFFFFFFFFFFFFFFFFFFFFFFFFFFFFFFFFFFFFFFFFFFFFFFFFFFFFFFFFFFFF00FFFFFFFFFFFFFFFFFFFFFFFFFFFFFFFFFFFFFFFFFFFFFFFFFFFFFFFFFFFFFF00FFFFFFFFFFFFFFFFFFFFFFFFFFFFFFFFFFFFFFFFFFFFFFFFFFFFFFFFFFFFFF
310
00FFFFFFFFFFFFFFFFFFFFFFFFFFFF000000000000000000FFFFFFFFFFFFFFFF00FFFFFFFFFFFFFFFFFFFFFFFFFFFF00FFFFFFFFFFFFFFFF
102
{BLKREFS
331
27A9
102
}
  0
BLOCK_RECORD
  5
278B
330
24C9
100
AcDbSymbolTableRecord
100
AcDbBlockTableRecord
  2
AI9-BLK4
340
0
310
2800000020000000200000000100080000000000000400000000000000000000000000000000000000000000000080000080000000808000800000008000800080800000C0C0C000C0DCC000F0CAA6000020400000206000002080000020A0000020C0000020E00000400000004020000040400000406000004080000040A0
310
000040C0000040E00000600000006020000060400000606000006080000060A0000060C0000060E00000800000008020000080400000806000008080000080A0000080C0000080E00000A0000000A0200000A0400000A0600000A0800000A0A00000A0C00000A0E00000C0000000C0200000C0400000C0600000C0800000C0
310
A00000C0C00000C0E00000E0000000E0200000E0400000E0600000E0800000E0A00000E0C00000E0E00040000000400020004000400040006000400080004000A0004000C0004000E00040200000402020004020400040206000402080004020A0004020C0004020E000404000004040200040404000404060004040800040
310
40A0004040C0004040E00040600000406020004060400040606000406080004060A0004060C0004060E00040800000408020004080400040806000408080004080A0004080C0004080E00040A0000040A0200040A0400040A0600040A0800040A0A00040A0C00040A0E00040C0000040C0200040C0400040C0600040C08000
310
40C0A00040C0C00040C0E00040E0000040E0200040E0400040E0600040E0800040E0A00040E0C00040E0E00080000000800020008000400080006000800080008000A0008000C0008000E00080200000802020008020400080206000802080008020A0008020C0008020E00080400000804020008040400080406000804080
310
008040A0008040C0008040E00080600000806020008060400080606000806080008060A0008060C0008060E00080800000808020008080400080806000808080008080A0008080C0008080E00080A0000080A0200080A0400080A0600080A0800080A0A00080A0C00080A0E00080C0000080C0200080C0400080C0600080C0
310
800080C0A00080C0C00080C0E00080E0000080E0200080E0400080E0600080E0800080E0A00080E0C00080E0E000C0000000C0002000C0004000C0006000C0008000C000A000C000C000C000E000C0200000C0202000C0204000C0206000C0208000C020A000C020C000C020E000C0400000C0402000C0404000C0406000C0
310
408000C040A000C040C000C040E000C0600000C0602000C0604000C0606000C0608000C060A000C060C000C060E000C0800000C0802000C0804000C0806000C0808000C080A000C080C000C080E000C0A00000C0A02000C0A04000C0A06000C0A08000C0A0A000C0A0C000C0A0E000C0C00000C0C02000C0C04000C0C06000
310
C0C08000C0C0A000F0FBFF00A4A0A000808080000000FF0000FF000000FFFF00FF000000FF00FF00FFFF0000FFFFFF00FFFFFFFFFFFFFFFFFFFFFFFFFFFFFFFFFFFFFFFFFFFFFFFFFFFFFFFFFFFFFFFFFFFFFFFFFFFFFFFFFFFFFFFFFFFF00000000FFFFFFFFFFFFFFFFFFFFFF000000FFFFFFFFFFFFFFFFFFFFFFFFFFFF00
310
FFFF00FFFFFFFFFFFFFFFFFFFFFF00FFFFFFFFFFFFFFFFFFFFFFFFFFFFFFFF00FFFF00FFFFFFFFFFFFFFFFFFFFFF00FFFFFFFFFFFFFFFFFFFFFFFFFFFFFFFF00FFFF00FFFFFFFFFFFFFFFFFFFFFF00FFFFFFFFFFFFFFFFFFFFFFFFFFFFFFFF00FFFF00FFFFFFFFFFFFFFFFFFFFFF00FFFFFFFFFFFFFFFFFFFFFFFFFFFFFFFF
310
00FFFF00FFFFFFFFFFFFFFFFFFFFFF00FFFFFFFFFFFFFFFFFFFFFFFFFFFFFFFF00FFFF00FFFFFFFFFFFFFFFFFFFFFF00FFFFFFFFFFFFFFFFFFFFFFFFFFFFFFFF00FFFF00FFFFFFFFFFFFFFFFFFFFFF00FFFFFFFFFFFFFFFFFFFFFFFFFFFFFFFF00FFFF00FFFFFFFFFFFFFFFFFFFFFF00FFFFFFFFFFFFFFFFFFFFFFFFFFFFFF
310
FF00FFFF00FFFFFFFFFFFFFFFFFFFFFF00FFFFFFFFFFFFFFFFFFFFFFFFFFFFFFFF00FFFF00FFFFFFFFFFFFFFFFFFFFFF00FFFFFFFFFFFFFFFFFFFFFFFFFFFFFFFF00FFFF00FFFFFFFFFFFFFFFFFFFFFF00FFFFFFFFFFFFFFFFFFFFFFFFFFFFFFFF00FFFF00FFFFFFFFFFFFFFFFFFFFFF00FFFFFFFFFFFFFFFFFFFFFFFFFFFF
310
FFFF00FFFF00FFFFFFFFFFFFFFFFFFFFFF00FFFFFFFFFFFFFFFFFFFFFFFFFFFFFFFF00FFFF00FFFFFFFFFFFFFFFFFFFFFF00FFFFFFFFFFFFFFFFFFFFFFFFFFFFFFFF00FFFF00FFFFFFFFFFFFFFFFFFFFFF00FFFFFFFFFFFFFFFFFFFFFFFFFFFFFFFF00FFFF00FFFFFFFFFFFFFFFFFFFF00FFFFFFFFFFFFFFFFFFFFFFFFFFFF
310
FFFFFF00FFFF00FFFFFFFFFFFFFFFFFFFF00FFFFFFFFFFFFFFFFFFFFFFFFFFFFFFFFFF00FFFF00FFFFFFFFFFFFFFFFFFFF00FFFFFFFFFFFFFFFFFFFFFFFFFFFFFFFFFF00FFFF00FFFFFFFFFFFFFFFFFFFF00FFFFFFFFFFFFFFFFFFFFFFFFFFFFFFFFFF00FFFF00FFFFFFFFFFFFFFFFFFFF00FFFFFFFFFFFFFFFFFFFFFFFFFF
310
FFFFFFFF00FFFF00FFFFFFFFFFFFFFFFFF0000FFFF00FFFFFFFFFFFFFFFFFFFFFFFFFFFF00FFFF00FFFFFFFFFFFFFFFF0000FFFFFF00FFFFFFFFFFFFFFFFFFFFFFFFFFFF00FFFF00000000000000000000FFFFFFFF00FFFFFFFFFFFFFFFFFFFFFFFFFFFF00FFFFFFFFFFFFFFFFFFFFFFFFFFFFFF00FFFFFFFFFFFFFFFFFFFF
310
FFFFFFFFFF00FFFFFFFFFFFFFFFFFFFFFFFFFFFF00FFFFFFFFFFFFFFFFFFFFFFFFFFFFFFFF00FFFFFFFFFFFFFFFFFFFFFFFFFFFF00FFFFFFFFFFFFFFFFFFFFFFFFFFFFFFFF00FFFFFFFFFFFFFFFFFFFFFFFFFFFFFF00FFFFFFFFFFFFFFFFFFFFFFFFFFFFFF00FFFFFFFFFFFFFFFFFFFFFFFFFFFFFF00FFFFFFFFFFFFFFFFFF
310
FFFFFFFFFFFF00FFFF00000000000000000000FFFFFFFF00FFFFFFFFFFFFFFFFFFFFFFFFFFFF00FFFF00FFFFFFFFFFFFFFFFFF0000FFFF00
102
{BLKREFS
331
27AA
102
}
  0
BLOCK_RECORD
  5
2790
330
24C9
100
AcDbSymbolTableRecord
100
AcDbBlockTableRecord
  2
AI9-BLK3
340
0
310
2800000020000000200000000100080000000000000400000000000000000000000000000000000000000000000080000080000000808000800000008000800080800000C0C0C000C0DCC000F0CAA6000020400000206000002080000020A0000020C0000020E00000400000004020000040400000406000004080000040A0
310
000040C0000040E00000600000006020000060400000606000006080000060A0000060C0000060E00000800000008020000080400000806000008080000080A0000080C0000080E00000A0000000A0200000A0400000A0600000A0800000A0A00000A0C00000A0E00000C0000000C0200000C0400000C0600000C0800000C0
310
A00000C0C00000C0E00000E0000000E0200000E0400000E0600000E0800000E0A00000E0C00000E0E00040000000400020004000400040006000400080004000A0004000C0004000E00040200000402020004020400040206000402080004020A0004020C0004020E000404000004040200040404000404060004040800040
310
40A0004040C0004040E00040600000406020004060400040606000406080004060A0004060C0004060E00040800000408020004080400040806000408080004080A0004080C0004080E00040A0000040A0200040A0400040A0600040A0800040A0A00040A0C00040A0E00040C0000040C0200040C0400040C0600040C08000
310
40C0A00040C0C00040C0E00040E0000040E0200040E0400040E0600040E0800040E0A00040E0C00040E0E00080000000800020008000400080006000800080008000A0008000C0008000E00080200000802020008020400080206000802080008020A0008020C0008020E00080400000804020008040400080406000804080
310
008040A0008040C0008040E00080600000806020008060400080606000806080008060A0008060C0008060E00080800000808020008080400080806000808080008080A0008080C0008080E00080A0000080A0200080A0400080A0600080A0800080A0A00080A0C00080A0E00080C0000080C0200080C0400080C0600080C0
310
800080C0A00080C0C00080C0E00080E0000080E0200080E0400080E0600080E0800080E0A00080E0C00080E0E000C0000000C0002000C0004000C0006000C0008000C000A000C000C000C000E000C0200000C0202000C0204000C0206000C0208000C020A000C020C000C020E000C0400000C0402000C0404000C0406000C0
310
408000C040A000C040C000C040E000C0600000C0602000C0604000C0606000C0608000C060A000C060C000C060E000C0800000C0802000C0804000C0806000C0808000C080A000C080C000C080E000C0A00000C0A02000C0A04000C0A06000C0A08000C0A0A000C0A0C000C0A0E000C0C00000C0C02000C0C04000C0C06000
310
C0C08000C0C0A000F0FBFF00A4A0A000808080000000FF0000FF000000FFFF00FF000000FF00FF00FFFF0000FFFFFF00FFFFFFFFFFFFFFFFFFFFFFFFFFFFFFFFFFFFFFFFFFFFFFFFFFFFFFFFFFFFFFFFFFFFFFFFFFFFFFFFFFFFFFFFFFFFFF0000FFFFFFFFFFFFFFFFFFFFFFFFFFFFFFFFFFFFFFFFFFFFFFFFFFFFFFFFFFFF
310
0000FFFFFFFFFFFFFFFFFFFFFFFFFFFFFFFFFFFFFFFFFFFFFFFFFFFFFFFFFFFF0000FFFFFFFFFFFFFFFFFFFFFFFFFFFFFFFFFFFFFFFFFFFFFFFFFFFFFFFFFFFF0000FFFFFFFFFFFFFFFFFFFFFFFFFFFFFFFFFFFFFFFFFFFFFFFFFFFFFFFFFFFF0000FFFFFFFFFFFFFFFFFFFFFFFFFFFFFFFFFFFFFFFFFFFFFFFFFFFFFFFFFF
310
FF0000FFFFFFFFFFFFFFFFFFFFFFFFFFFFFFFFFFFFFFFFFFFFFFFFFFFFFFFFFFFF0000FFFFFFFFFFFFFFFFFFFFFFFFFFFFFFFFFFFFFFFFFFFFFFFFFFFFFFFFFFFF0000FFFFFFFFFFFFFFFFFFFFFFFFFFFFFFFFFFFFFFFFFFFFFFFFFFFFFFFFFFFF0000FFFFFFFFFFFFFFFFFFFFFFFFFFFFFFFFFFFFFFFFFFFFFFFFFFFFFFFF
310
FFFF0000FFFFFFFFFFFFFFFFFFFFFFFFFFFFFFFFFFFFFFFFFFFFFFFFFFFFFFFFFFFF0000FFFFFFFFFFFFFFFFFFFFFFFFFFFFFFFFFFFFFFFFFFFFFFFFFFFFFFFFFFFF0000FFFFFFFFFFFFFFFFFFFFFFFFFFFFFFFFFFFFFFFFFFFFFFFFFFFFFFFFFFFF0000FFFFFFFFFFFFFFFFFFFFFFFFFFFFFFFFFFFFFFFFFFFFFFFFFFFFFF
310
FFFFFF0000FFFFFFFFFFFFFFFFFFFFFFFFFFFFFFFFFFFFFFFFFFFFFFFFFFFFFFFFFFFF0000FFFFFFFFFFFFFFFFFFFFFFFFFFFFFFFFFFFFFFFFFFFFFFFFFFFFFFFFFFFF0000FFFFFFFFFFFFFFFFFFFFFFFFFFFFFFFFFFFFFFFFFFFFFFFFFFFFFFFFFFFF0000FFFFFFFFFFFFFFFFFFFFFFFFFFFFFFFFFFFFFFFFFFFFFFFFFFFF
310
FFFFFFFF0000FFFFFFFFFFFFFFFFFFFFFFFFFFFFFFFFFFFFFFFFFFFFFFFFFFFFFFFFFFFF0000FFFFFFFFFFFFFFFFFFFFFFFFFFFFFFFFFFFFFFFFFFFFFFFFFFFFFFFFFFFF0000FFFFFFFFFFFFFFFFFFFFFFFFFFFFFFFFFFFFFFFFFFFFFFFFFFFFFFFFFFFF0000FFFFFFFFFFFFFFFFFFFFFFFFFFFFFFFFFFFFFFFFFFFFFFFFFF
310
FFFFFFFFFF0000FFFFFFFFFFFFFFFFFFFFFFFFFFFFFFFFFFFFFFFFFFFFFFFFFFFFFFFFFFFF0000FFFFFFFFFFFFFFFFFFFFFFFFFFFFFFFFFFFFFFFFFFFFFFFFFFFFFFFFFFFF0000FFFFFFFFFFFFFFFFFFFFFFFFFFFFFFFFFFFFFFFFFFFFFFFFFFFFFFFFFFFF0000FFFFFFFFFFFFFFFFFFFFFFFFFFFFFFFFFFFFFFFFFFFFFFFF
310
FFFFFFFFFFFF0000FFFFFFFFFFFFFFFFFFFFFFFFFFFFFFFFFFFFFFFFFFFFFFFFFFFFFFFFFFFF0000FFFFFFFFFFFFFFFFFFFFFFFFFFFFFFFFFFFFFFFFFFFFFFFFFFFFFFFFFFFF0000FFFFFFFFFFFFFFFFFFFFFFFFFFFFFFFFFFFFFFFFFFFFFFFFFFFFFFFFFFFF0000FFFFFFFFFFFFFFFFFFFFFFFFFFFFFFFFFFFFFFFFFFFFFF
310
FFFFFFFFFFFFFF0000FFFFFFFFFFFFFFFFFFFFFFFFFFFFFFFFFFFFFFFFFFFFFFFFFFFFFFFFFFFFFFFFFFFFFFFFFFFFFFFFFFFFFFFFFFFFFF
102
{BLKREFS
331
27AB
102
}
  0
BLOCK_RECORD
  5
2795
330
24C9
100
AcDbSymbolTableRecord
100
AcDbBlockTableRecord
  2
AI9-BLK2
340
0
310
2800000020000000200000000100080000000000000400000000000000000000000000000000000000000000000080000080000000808000800000008000800080800000C0C0C000C0DCC000F0CAA6000020400000206000002080000020A0000020C0000020E00000400000004020000040400000406000004080000040A0
310
000040C0000040E00000600000006020000060400000606000006080000060A0000060C0000060E00000800000008020000080400000806000008080000080A0000080C0000080E00000A0000000A0200000A0400000A0600000A0800000A0A00000A0C00000A0E00000C0000000C0200000C0400000C0600000C0800000C0
310
A00000C0C00000C0E00000E0000000E0200000E0400000E0600000E0800000E0A00000E0C00000E0E00040000000400020004000400040006000400080004000A0004000C0004000E00040200000402020004020400040206000402080004020A0004020C0004020E000404000004040200040404000404060004040800040
310
40A0004040C0004040E00040600000406020004060400040606000406080004060A0004060C0004060E00040800000408020004080400040806000408080004080A0004080C0004080E00040A0000040A0200040A0400040A0600040A0800040A0A00040A0C00040A0E00040C0000040C0200040C0400040C0600040C08000
310
40C0A00040C0C00040C0E00040E0000040E0200040E0400040E0600040E0800040E0A00040E0C00040E0E00080000000800020008000400080006000800080008000A0008000C0008000E00080200000802020008020400080206000802080008020A0008020C0008020E00080400000804020008040400080406000804080
310
008040A0008040C0008040E00080600000806020008060400080606000806080008060A0008060C0008060E00080800000808020008080400080806000808080008080A0008080C0008080E00080A0000080A0200080A0400080A0600080A0800080A0A00080A0C00080A0E00080C0000080C0200080C0400080C0600080C0
310
800080C0A00080C0C00080C0E00080E0000080E0200080E0400080E0600080E0800080E0A00080E0C00080E0E000C0000000C0002000C0004000C0006000C0008000C000A000C000C000C000E000C0200000C0202000C0204000C0206000C0208000C020A000C020C000C020E000C0400000C0402000C0404000C0406000C0
310
408000C040A000C040C000C040E000C0600000C0602000C0604000C0606000C0608000C060A000C060C000C060E000C0800000C0802000C0804000C0806000C0808000C080A000C080C000C080E000C0A00000C0A02000C0A04000C0A06000C0A08000C0A0A000C0A0C000C0A0E000C0C00000C0C02000C0C04000C0C06000
310
C0C08000C0C0A000F0FBFF00A4A0A000808080000000FF0000FF000000FFFF00FF000000FF00FF00FFFF0000FFFFFF00FFFFFFFFFFFFFFFFFFFFFFFFFFFFFFFFFFFFFFFFFFFFFFFFFFFFFFFFFFFFFFFFFFFFFFFFFFFFFFFFFFFFFFFFFFFFFF0000FFFFFFFFFFFFFFFFFFFFFFFFFFFFFFFFFFFFFFFFFFFFFFFFFFFFFFFFFFFF
310
0000FFFFFFFFFFFFFFFFFFFFFFFFFFFFFFFFFFFFFFFFFFFFFFFFFFFFFFFFFFFF0000FFFFFFFFFFFFFFFFFFFFFFFFFFFFFFFFFFFFFFFFFFFFFFFFFFFFFFFFFF00FFFF00FFFFFFFFFFFFFFFFFFFFFFFFFFFFFFFFFFFFFFFFFFFFFFFFFFFFFFFF00FFFF00FFFFFFFFFFFFFFFFFFFFFFFFFFFFFFFFFFFFFFFFFFFFFFFFFFFFFFFF
310
00FF0000FFFFFFFFFFFFFFFFFFFFFFFFFFFFFFFFFFFFFFFFFFFFFFFFFFFFFFFF00FF0000FFFFFFFFFFFFFFFFFFFFFFFFFFFFFFFFFFFFFFFFFFFFFFFFFFFFFFFF00FF0000FFFFFFFFFFFFFFFFFFFFFFFFFFFFFFFFFFFFFFFFFFFFFFFFFFFFFFFF00000000FFFFFFFFFFFFFFFFFFFFFFFFFFFFFFFFFFFFFFFFFFFFFFFFFFFFFF
310
00FF00FF0000FFFFFFFFFFFFFFFFFFFFFFFFFFFFFFFFFFFFFFFFFFFFFFFFFFFF00FF00FF0000FFFFFFFFFFFFFFFFFFFFFFFFFFFFFFFFFFFFFFFFFFFFFFFFFFFF00FF00FF0000FFFFFFFFFFFFFFFFFFFFFFFFFFFFFFFFFFFFFFFFFFFFFFFFFFFF00FF00FF0000FFFFFFFFFFFFFFFFFFFFFFFFFFFFFFFFFFFFFFFFFFFFFFFFFF
310
FF00FF00FF0000FFFFFFFFFFFFFFFFFFFFFFFFFFFFFFFFFFFFFFFFFFFFFFFFFFFF0000FFFF0000FFFFFFFFFFFFFFFFFFFFFFFFFFFFFFFFFFFFFFFFFFFFFFFFFF00FF00FFFF00FF00FFFFFFFFFFFFFFFFFFFFFFFFFFFFFFFFFFFFFFFFFFFFFFFF00FF00FFFF00FF00FFFFFFFFFFFFFFFFFFFFFFFFFFFFFFFFFFFFFFFFFFFFFF
310
FF00FF00FFFFFF0000FFFFFFFFFFFFFFFFFFFFFFFFFFFFFFFFFFFFFFFFFFFFFFFF00FF00FFFFFF0000FFFFFFFFFFFFFFFFFFFFFFFFFFFFFFFFFFFFFFFFFFFFFFFF00FF00FFFFFF0000FFFFFFFFFFFFFFFFFFFFFFFFFFFFFFFFFFFFFFFFFFFFFFFF0000FFFFFFFF0000FFFFFFFFFFFFFFFFFFFFFFFFFFFFFFFFFFFFFFFFFFFF
310
FF00FF00FFFFFFFF00FF00FFFFFFFFFFFFFFFFFFFFFFFFFFFFFFFFFFFFFFFFFFFF00FF00FFFFFFFF00FF00FFFFFFFFFFFFFFFFFFFFFFFFFFFFFFFFFFFFFFFFFFFF00FF00FFFFFFFF00FF00FFFFFFFFFFFFFFFFFFFFFFFFFFFFFFFFFFFFFFFFFFFF00FF00FFFFFFFF00FF00FFFFFFFFFFFFFFFFFFFFFFFFFFFFFFFFFFFFFFFF
310
FFFF00FF00FFFFFFFFFF0000FFFFFFFFFFFFFFFFFFFFFFFFFFFFFFFFFFFFFFFFFFFF0000FFFFFFFFFFFF0000FFFFFFFFFFFFFFFFFFFFFFFFFFFFFFFFFFFFFFFFFF00FF00FFFFFFFFFFFF00FF00FFFFFFFFFFFFFFFFFFFFFFFFFFFFFFFFFFFFFFFF00FF00FFFFFFFFFFFF00FF00FFFFFFFFFFFFFFFFFFFFFFFFFFFFFFFFFFFF
310
FFFF000000FFFFFFFFFFFF000000FFFFFFFFFFFFFFFFFFFFFFFFFFFFFFFFFFFFFFFFFFFFFFFFFFFFFFFFFFFFFFFFFFFFFFFFFFFFFFFFFFFF
102
{BLKREFS
331
27AC
102
}
  0
BLOCK_RECORD
  5
279A
330
24C9
100
AcDbSymbolTableRecord
100
AcDbBlockTableRecord
  2
AI9-BLK1
340
0
310
2800000020000000200000000100080000000000000400000000000000000000000000000000000000000000000080000080000000808000800000008000800080800000C0C0C000C0DCC000F0CAA6000020400000206000002080000020A0000020C0000020E00000400000004020000040400000406000004080000040A0
310
000040C0000040E00000600000006020000060400000606000006080000060A0000060C0000060E00000800000008020000080400000806000008080000080A0000080C0000080E00000A0000000A0200000A0400000A0600000A0800000A0A00000A0C00000A0E00000C0000000C0200000C0400000C0600000C0800000C0
310
A00000C0C00000C0E00000E0000000E0200000E0400000E0600000E0800000E0A00000E0C00000E0E00040000000400020004000400040006000400080004000A0004000C0004000E00040200000402020004020400040206000402080004020A0004020C0004020E000404000004040200040404000404060004040800040
310
40A0004040C0004040E00040600000406020004060400040606000406080004060A0004060C0004060E00040800000408020004080400040806000408080004080A0004080C0004080E00040A0000040A0200040A0400040A0600040A0800040A0A00040A0C00040A0E00040C0000040C0200040C0400040C0600040C08000
310
40C0A00040C0C00040C0E00040E0000040E0200040E0400040E0600040E0800040E0A00040E0C00040E0E00080000000800020008000400080006000800080008000A0008000C0008000E00080200000802020008020400080206000802080008020A0008020C0008020E00080400000804020008040400080406000804080
310
008040A0008040C0008040E00080600000806020008060400080606000806080008060A0008060C0008060E00080800000808020008080400080806000808080008080A0008080C0008080E00080A0000080A0200080A0400080A0600080A0800080A0A00080A0C00080A0E00080C0000080C0200080C0400080C0600080C0
310
800080C0A00080C0C00080C0E00080E0000080E0200080E0400080E0600080E0800080E0A00080E0C00080E0E000C0000000C0002000C0004000C0006000C0008000C000A000C000C000C000E000C0200000C0202000C0204000C0206000C0208000C020A000C020C000C020E000C0400000C0402000C0404000C0406000C0
310
408000C040A000C040C000C040E000C0600000C0602000C0604000C0606000C0608000C060A000C060C000C060E000C0800000C0802000C0804000C0806000C0808000C080A000C080C000C080E000C0A00000C0A02000C0A04000C0A06000C0A08000C0A0A000C0A0C000C0A0E000C0C00000C0C02000C0C04000C0C06000
310
C0C08000C0C0A000F0FBFF00A4A0A000808080000000FF0000FF000000FFFF00FF000000FF00FF00FFFF0000FFFFFF00FFFFFFFFFFFFFFFFFFFFFFFFFFFFFFFFFFFFFFFFFFFFFFFFFFFFFFFFFFFFFFFFFFFFFFFFFFFFFFFFFFFFFF00000000000000000000FFFFFFFFFFFFFFFFFFFFFFFFFFFFFFFFFFFFFFFFFFFF00FFFFFF
310
FFFFFFFFFF00FFFFFFFFFFFFFFFFFFFFFFFFFFFFFFFFFFFFFFFFFFFF00FFFFFFFFFFFFFFFF00FFFFFFFFFFFFFFFFFFFFFFFFFFFFFFFFFFFFFFFFFFFF00FFFFFFFFFFFFFFFF00FFFFFFFFFFFFFFFFFFFFFFFFFFFFFFFFFFFFFFFFFFFF00FF0000000000000000FFFFFFFFFFFFFFFFFFFFFFFFFFFFFFFFFFFFFFFFFFFF00FF00
310
FFFFFFFFFFFFFFFFFFFFFFFFFFFFFFFFFFFFFFFFFFFFFFFFFFFFFFFFFF00FF00FFFFFFFFFFFFFFFFFFFFFFFFFFFFFFFFFFFFFFFFFFFFFFFFFFFFFFFFFF00FF00FFFFFFFFFFFFFFFFFFFFFFFFFFFFFFFFFFFFFFFFFFFFFFFFFFFFFFFFFF00FF00FFFFFFFFFFFFFFFFFFFFFFFFFFFFFFFFFFFFFFFFFFFFFFFFFFFFFFFFFF00FF
310
00FFFFFFFFFFFFFFFFFFFFFFFFFFFFFFFFFFFFFFFFFFFFFFFFFFFFFFFFFF00FF00FFFFFFFFFFFFFFFFFFFFFFFFFFFFFFFFFFFFFFFFFFFFFFFFFFFFFFFFFF00FF00FFFFFFFFFFFFFFFFFFFFFFFFFFFFFFFFFFFFFFFFFFFFFFFFFFFFFFFFFF00FF00FFFFFFFFFFFFFFFFFFFFFFFFFFFFFFFFFFFFFFFFFFFFFFFFFFFFFFFFFF00
310
FF00000000000000FFFFFFFFFFFFFFFFFFFFFFFFFFFFFFFFFFFFFFFFFFFFFF00FFFFFFFFFFFFFF00FFFFFFFFFFFFFFFFFFFFFFFFFFFFFFFFFFFFFFFFFFFFFF00FFFFFFFFFFFFFF00FFFFFFFFFFFFFFFFFFFFFFFFFFFFFFFFFFFFFFFFFFFFFF00FFFFFFFFFFFFFF00FFFFFFFFFFFFFFFFFFFFFFFFFFFFFFFFFFFFFFFFFFFFFF
310
00FF00000000000000FFFFFFFFFFFFFFFFFFFFFFFFFFFFFFFFFFFFFFFFFFFFFF00FF00FFFFFFFFFFFFFFFFFFFFFFFFFFFFFFFFFFFFFFFFFFFFFFFFFFFFFFFFFF00FF00FFFFFFFFFFFFFFFFFFFFFFFFFFFFFFFFFFFFFFFFFFFFFFFFFFFFFFFFFF00FF00FFFFFFFFFFFFFFFFFFFFFFFFFFFFFFFFFFFFFFFFFFFFFFFFFFFFFFFF
310
FF00FF00FFFFFFFFFFFFFFFFFFFFFFFFFFFFFFFFFFFFFFFFFFFFFFFFFFFFFFFFFF00FF00FFFFFFFFFFFFFFFFFFFFFFFFFFFFFFFFFFFFFFFFFFFFFFFFFFFFFFFFFF00FF00FFFFFFFFFFFFFFFFFFFFFFFFFFFFFFFFFFFFFFFFFFFFFFFFFFFFFFFFFF00FF00FFFFFFFFFFFFFFFFFFFFFFFFFFFFFFFFFFFFFFFFFFFFFFFFFFFFFF
310
FFFF00FF0000000000000000FFFFFFFFFFFFFFFFFFFFFFFFFFFFFFFFFFFFFFFFFFFF00FFFFFFFFFFFFFFFF00FFFFFFFFFFFFFFFFFFFFFFFFFFFFFFFFFFFFFFFFFFFF00FFFFFFFFFFFFFFFF00FFFFFFFFFFFFFFFFFFFFFFFFFFFFFFFFFFFFFFFFFFFF00FFFFFFFFFFFFFFFF00FFFFFFFFFFFFFFFFFFFFFFFFFFFFFFFFFFFFFF
310
FFFFFF00000000000000000000FFFFFFFFFFFFFFFFFFFFFFFFFFFFFFFFFFFFFFFFFFFFFFFFFFFFFFFFFFFFFFFFFFFFFFFFFFFFFFFFFFFFFF
102
{BLKREFS
331
27AD
102
}
  0
BLOCK_RECORD
  5
279F
330
24C9
100
AcDbSymbolTableRecord
100
AcDbBlockTableRecord
  2
HD_LLC_logo_OT5
340
0
310
2800000020000000200000000100080000000000000400000000000000000000000000000000000000000000000080000080000000808000800000008000800080800000C0C0C000C0DCC000F0CAA6000020400000206000002080000020A0000020C0000020E00000400000004020000040400000406000004080000040A0
310
000040C0000040E00000600000006020000060400000606000006080000060A0000060C0000060E00000800000008020000080400000806000008080000080A0000080C0000080E00000A0000000A0200000A0400000A0600000A0800000A0A00000A0C00000A0E00000C0000000C0200000C0400000C0600000C0800000C0
310
A00000C0C00000C0E00000E0000000E0200000E0400000E0600000E0800000E0A00000E0C00000E0E00040000000400020004000400040006000400080004000A0004000C0004000E00040200000402020004020400040206000402080004020A0004020C0004020E000404000004040200040404000404060004040800040
310
40A0004040C0004040E00040600000406020004060400040606000406080004060A0004060C0004060E00040800000408020004080400040806000408080004080A0004080C0004080E00040A0000040A0200040A0400040A0600040A0800040A0A00040A0C00040A0E00040C0000040C0200040C0400040C0600040C08000
310
40C0A00040C0C00040C0E00040E0000040E0200040E0400040E0600040E0800040E0A00040E0C00040E0E00080000000800020008000400080006000800080008000A0008000C0008000E00080200000802020008020400080206000802080008020A0008020C0008020E00080400000804020008040400080406000804080
310
008040A0008040C0008040E00080600000806020008060400080606000806080008060A0008060C0008060E00080800000808020008080400080806000808080008080A0008080C0008080E00080A0000080A0200080A0400080A0600080A0800080A0A00080A0C00080A0E00080C0000080C0200080C0400080C0600080C0
310
800080C0A00080C0C00080C0E00080E0000080E0200080E0400080E0600080E0800080E0A00080E0C00080E0E000C0000000C0002000C0004000C0006000C0008000C000A000C000C000C000E000C0200000C0202000C0204000C0206000C0208000C020A000C020C000C020E000C0400000C0402000C0404000C0406000C0
310
408000C040A000C040C000C040E000C0600000C0602000C0604000C0606000C0608000C060A000C060C000C060E000C0800000C0802000C0804000C0806000C0808000C080A000C080C000C080E000C0A00000C0A02000C0A04000C0A06000C0A08000C0A0A000C0A0C000C0A0E000C0C00000C0C02000C0C04000C0C06000
310
C0C08000C0C0A000F0FBFF00A4A0A000808080000000FF0000FF000000FFFF00FF000000FF00FF00FFFF0000FFFFFF00FFFFFFFFFFFFFFFFFFFFFFFFFFFFFFFFFFFFFFFFFFFFFFFFFFFFFFFFFFFFFFFFFFFFFFFFFFFFFFFFFFFFFFFFFFFFFFFFFFFFFFFFFFFFFFFFFFFFFFFFFFFFFFFFFFFFFFFFFFFFFFFFFFFFFFFFFFFFFF
310
FFFFFFFFFFFFFFFFFFFFFFFFFFFFFFFFFFFFFFFFFFFFFFFFFFFFFFFFFFFFFFFFFFFFFFFFFFFFFFFFFFFFFFFFFFFFFFFFFFFFFFFFFFFFFFFFFFFFFFFFFFFFFFFFFFFFFFFFFFFFFFFFFFFFFFFFFFFFFFFFFFFFFFFFFFFFFFFFFFFFFFFFFFFFFFFFFFFFFFFFFFFFFFFFFFFFFFFFFFFFFFFFFFFFFFFFFFFFFFFFFFFFFFFFFFFFFF
310
FFFFFFFFFFFFFFFFFFFFFFFFFFFFFFFFFFFFFFFFFFFFFFFFFFFFFFFFFFFFFFFFFFFFFFFFFFFFFFFFFFFFFFFFFFFFFFFFFFFFFFFFFFFFFFFFFFFFFFFFFFFFFFFFFFFFFFFFFFFFFFFFFFFFFFFFFFFFFFFFFFFFFFFFFFFFFFFFFFFFFFFFFFFFFFFFFFFFFFFFFFFFFFFFFFFFFFFFFFFFFFFFFFFFFFFFFFFFFFFFFFFFFFFFFFFFFF
310
FFFFFFFFFFFFFFFFFFFFFFFFFFFFFFFFFFFFFFFFFFFFFFFFFFFFFFFFFFFFFFFFFFFFFFFFFFFFFFFFFFFFFFFFFFFFFFFFFFFFFFFF0000000000000000000000000000000000000000000000000000000000FFFFFF0000000000000000000000000000000000FFFFFFFFFFFFFFFFFFFF0000FFFFFF0000000000000000000000
310
00000000000000FFFFFFFFFFFFFFFFFFFF0000FFFF000000000000000000000000000000000000FFFFFF00000000FFFFFF0000FFFF00FFFFFFFFFFFF00FFFFFF00FFFFFFFFFF00FFFFFF0000000000FFFF0000FFFF00FFFFFFFFFFFF00FFFFFF00FFFFFFFFFF00FFFFFF00FFFF0000FFFF0000FFFF00FFFFFFFFFFFF00FFFF
310
00FFFFFFFFFFFF00FFFFFF00FFFF0000FFFF0000FFFF0000000000FFFF00000000FFFFFF00000000FFFFFF00000000FFFFFF0000FFFFFFFFFFFF00FFFFFFFFFFFFFFFFFF00FFFFFFFFFFFFFFFFFFFFFFFFFF0000FFFFFFFFFFFF00FFFFFFFFFFFFFFFFFF00FFFFFFFFFFFFFFFFFFFFFFFFFF0000FFFFFFFFFFFF00FFFFFFFF
310
FFFFFFFFFF00FFFFFFFFFFFFFFFFFFFFFFFF0000FFFFFF0000000000FFFF00000000FFFFFF0000000000000000000000000000FFFFFFFF00FFFFFFFFFFFF00FFFF00FFFFFFFFFFFF00FFFFFFFFFFFFFFFFFFFFFFFFFFFF00FFFFFFFFFFFF00FFFFFF00FFFFFFFFFF00FFFFFFFFFFFFFFFFFFFFFFFFFFFF0000000000000000
310
FFFFFF00000000000000FFFFFFFFFFFFFFFFFFFFFFFFFFFFFFFFFFFFFFFFFFFFFFFFFFFFFFFFFFFFFFFFFFFFFFFFFFFFFFFFFFFFFFFFFFFFFFFFFFFFFFFFFFFFFFFFFFFFFFFFFFFFFFFFFFFFFFFFFFFFFFFFFFFFFFFFFFFFFFFFFFFFFFFFFFFFFFFFFFFFFFFFFFFFFFFFFFFFFFFFFFFFFFFFFFFFFFFFFFFFFFFFFFFFFFFFFF
310
FFFFFFFFFFFFFFFFFFFFFFFFFFFFFFFFFFFFFFFFFFFFFFFFFFFFFFFFFFFFFFFFFFFFFFFFFFFFFFFFFFFFFFFFFFFFFFFFFFFFFFFFFFFFFFFF
102
{BLKREFS
331
27C5
102
}
  0
BLOCK_RECORD
  5
27C4
330
24C9
100
AcDbSymbolTableRecord
100
AcDbBlockTableRecord
  2
HD logo-new
340
0
310
2800000020000000200000000100080000000000000400000000000000000000000000000000000000000000000080000080000000808000800000008000800080800000C0C0C000C0DCC000F0CAA6000020400000206000002080000020A0000020C0000020E00000400000004020000040400000406000004080000040A0
310
000040C0000040E00000600000006020000060400000606000006080000060A0000060C0000060E00000800000008020000080400000806000008080000080A0000080C0000080E00000A0000000A0200000A0400000A0600000A0800000A0A00000A0C00000A0E00000C0000000C0200000C0400000C0600000C0800000C0
310
A00000C0C00000C0E00000E0000000E0200000E0400000E0600000E0800000E0A00000E0C00000E0E00040000000400020004000400040006000400080004000A0004000C0004000E00040200000402020004020400040206000402080004020A0004020C0004020E000404000004040200040404000404060004040800040
310
40A0004040C0004040E00040600000406020004060400040606000406080004060A0004060C0004060E00040800000408020004080400040806000408080004080A0004080C0004080E00040A0000040A0200040A0400040A0600040A0800040A0A00040A0C00040A0E00040C0000040C0200040C0400040C0600040C08000
310
40C0A00040C0C00040C0E00040E0000040E0200040E0400040E0600040E0800040E0A00040E0C00040E0E00080000000800020008000400080006000800080008000A0008000C0008000E00080200000802020008020400080206000802080008020A0008020C0008020E00080400000804020008040400080406000804080
310
008040A0008040C0008040E00080600000806020008060400080606000806080008060A0008060C0008060E00080800000808020008080400080806000808080008080A0008080C0008080E00080A0000080A0200080A0400080A0600080A0800080A0A00080A0C00080A0E00080C0000080C0200080C0400080C0600080C0
310
800080C0A00080C0C00080C0E00080E0000080E0200080E0400080E0600080E0800080E0A00080E0C00080E0E000C0000000C0002000C0004000C0006000C0008000C000A000C000C000C000E000C0200000C0202000C0204000C0206000C0208000C020A000C020C000C020E000C0400000C0402000C0404000C0406000C0
310
408000C040A000C040C000C040E000C0600000C0602000C0604000C0606000C0608000C060A000C060C000C060E000C0800000C0802000C0804000C0806000C0808000C080A000C080C000C080E000C0A00000C0A02000C0A04000C0A06000C0A08000C0A0A000C0A0C000C0A0E000C0C00000C0C02000C0C04000C0C06000
310
C0C08000C0C0A000F0FBFF00A4A0A000808080000000FF0000FF000000FFFF00FF000000FF00FF00FFFF0000FFFFFF00FFFFFFFFFFFFFFFFFFFFFFFFFFFFFFFFFFFFFFFFFFFFFFFFFFFFFFFFFFFFFFFFFFFFFFFFFFFFFFFFFFFFFFFFFFFFFFFFFFFFFFFFFFFFFFFFFFFFFFFFFFFFFFFFFFFFFFFFFFFFFFFFFFFFFFFFFFFFFF
310
FFFFFFFFFFFFFFFFFFFFFFFFFFFFFFFFFFFFFFFFFFFFFFFFFFFFFFFFFFFFFFFFFFFFFFFFFFFFFFFFFFFFFFFFFFFFFFFFFFFFFFFFFFFFFFFFFFFFFFFFFFFFFFFFFFFFFFFFFFFFFFFFFFFFFFFFFFFFFFFFFFFFFFFFFFFFFFFFFFFFFFFFFFFFFFFFFFFFFFFFFFFFFFFFFFFFFFFFFFFFFFFFFFFFFFFFFFFFFFFFFFFFFFFFFFFFFF
310
FFFFFFFFFFFFFFFFFFFFFFFFFFFFFFFFFFFFFFFFFFFFFFFFFFFFFFFFFFFFFFFFFFFFFFFFFFFFFFFFFFFFFFFFFFFFFFFFFFFFFFFFFFFFFFFFFFFFFFFFFFFFFFFFFFFFFFFFFFFFFFFFFFFFFFFFFFFFFFFFFFFFFFFFFFFFFFFFFFFFFFFFFFFFFFFFFFFFFFFFFFFFFFFFFFFFFFFFFFFFFFFFFFFFFFFFFFFFFFFFFFFFFFFFFFFFFF
310
FFFFFFFFFFFFFFFFFFFFFFFFFFFFFFFFFFFFFFFFFFFFFFFFFFFFFFFFFFFFFFFFFFFFFFFFFFFFFFFFFFFFFFFFFFFFFFFFFFFFFFFF0000000000000000000000000000000000000000000000000000000000FFFFFF0000000000000000000000000000000000FFFFFFFFFFFFFFFFFFFF0000FFFFFF0000000000000000000000
310
00000000000000FFFFFFFFFFFFFFFFFFFF0000FFFF000000000000000000000000000000000000FFFFFF00000000FFFFFF0000FFFF00FFFFFFFFFFFF00FFFFFF00FFFFFFFFFF00FFFFFF0000000000FFFF0000FFFF00FFFFFFFFFFFF00FFFFFF00FFFFFFFFFF00FFFFFF00FFFF0000FFFF0000FFFF00FFFFFFFFFFFF00FFFF
310
00FFFFFFFFFFFF00FFFFFF00FFFF0000FFFF0000FFFF0000000000FFFF00000000FFFFFF00000000FFFFFF00000000FFFFFF0000FFFFFFFFFFFF00FFFFFFFFFFFFFFFFFF00FFFFFFFFFFFFFFFFFFFFFFFFFF0000FFFFFFFFFFFF00FFFFFFFFFFFFFFFFFF00FFFFFFFFFFFFFFFFFFFFFFFFFF0000FFFFFFFFFFFF00FFFFFFFF
310
FFFFFFFFFF00FFFFFFFFFFFFFFFFFFFFFFFF0000FFFFFF0000000000FFFF00000000FFFFFF0000000000000000000000000000FFFFFFFF00FFFFFFFFFFFF00FFFF00FFFFFFFFFFFF00FFFFFFFFFFFFFFFFFFFFFFFFFFFF00FFFFFFFFFFFF00FFFFFF00FFFFFFFFFF00FFFFFFFFFFFFFFFFFFFFFFFFFFFF0000000000000000
310
FFFFFF00000000000000FFFFFFFFFFFFFFFFFFFFFFFFFFFFFFFFFFFFFFFFFFFFFFFFFFFFFFFFFFFFFFFFFFFFFFFFFFFFFFFFFFFFFFFFFFFFFFFFFFFFFFFFFFFFFFFFFFFFFFFFFFFFFFFFFFFFFFFFFFFFFFFFFFFFFFFFFFFFFFFFFFFFFFFFFFFFFFFFFFFFFFFFFFFFFFFFFFFFFFFFFFFFFFFFFFFFFFFFFFFFFFFFFFFFFFFFFF
310
FFFFFFFFFFFFFFFFFFFFFFFFFFFFFFFFFFFFFFFFFFFFFFFFFFFFFFFFFFFFFFFFFFFFFFFFFFFFFFFFFFFFFFFFFFFFFFFFFFFFFFFFFFFFFFFF
102
{BLKREFS
331
27C9
331
2C85
331
2C89
102
}
  0
BLOCK_RECORD
  5
27C8
330
24C9
100
AcDbSymbolTableRecord
100
AcDbBlockTableRecord
  2
HD Logo
340
0
310
2800000020000000200000000100080000000000000400000000000000000000000000000000000000000000000080000080000000808000800000008000800080800000C0C0C000C0DCC000F0CAA6000020400000206000002080000020A0000020C0000020E00000400000004020000040400000406000004080000040A0
310
000040C0000040E00000600000006020000060400000606000006080000060A0000060C0000060E00000800000008020000080400000806000008080000080A0000080C0000080E00000A0000000A0200000A0400000A0600000A0800000A0A00000A0C00000A0E00000C0000000C0200000C0400000C0600000C0800000C0
310
A00000C0C00000C0E00000E0000000E0200000E0400000E0600000E0800000E0A00000E0C00000E0E00040000000400020004000400040006000400080004000A0004000C0004000E00040200000402020004020400040206000402080004020A0004020C0004020E000404000004040200040404000404060004040800040
310
40A0004040C0004040E00040600000406020004060400040606000406080004060A0004060C0004060E00040800000408020004080400040806000408080004080A0004080C0004080E00040A0000040A0200040A0400040A0600040A0800040A0A00040A0C00040A0E00040C0000040C0200040C0400040C0600040C08000
310
40C0A00040C0C00040C0E00040E0000040E0200040E0400040E0600040E0800040E0A00040E0C00040E0E00080000000800020008000400080006000800080008000A0008000C0008000E00080200000802020008020400080206000802080008020A0008020C0008020E00080400000804020008040400080406000804080
310
008040A0008040C0008040E00080600000806020008060400080606000806080008060A0008060C0008060E00080800000808020008080400080806000808080008080A0008080C0008080E00080A0000080A0200080A0400080A0600080A0800080A0A00080A0C00080A0E00080C0000080C0200080C0400080C0600080C0
310
800080C0A00080C0C00080C0E00080E0000080E0200080E0400080E0600080E0800080E0A00080E0C00080E0E000C0000000C0002000C0004000C0006000C0008000C000A000C000C000C000E000C0200000C0202000C0204000C0206000C0208000C020A000C020C000C020E000C0400000C0402000C0404000C0406000C0
310
408000C040A000C040C000C040E000C0600000C0602000C0604000C0606000C0608000C060A000C060C000C060E000C0800000C0802000C0804000C0806000C0808000C080A000C080C000C080E000C0A00000C0A02000C0A04000C0A06000C0A08000C0A0A000C0A0C000C0A0E000C0C00000C0C02000C0C04000C0C06000
310
C0C08000C0C0A000F0FBFF00A4A0A000808080000000FF0000FF000000FFFF00FF000000FF00FF00FFFF0000FFFFFF00FFFFFFFFFFFFFFFFFFFFFFFFFFFFFFFFFFFFFFFFFFFFFFFFFFFFFFFFFFFFFFFFFFFFFFFFFFFFFFFFFFFFFFFFFFFFFFFFFFFFFFFFFFFFFFFFFFFFFFFFFFFFFFFFFFFFFFFFFFFFFFFFFFFFFFFFFFFFFF
310
FFFFFFFFFFFFFFFFFFFFFFFFFFFFFFFFFFFFFFFFFFFFFFFFFFFFFFFFFFFFFFFFFFFFFFFFFFFFFFFFFFFFFFFFFFFFFFFFFFFFFFFFFFFFFFFFFFFFFFFFFFFFFFFFFFFFFFFFFFFFFFFFFFFFFFFFFFFFFFFFFFFFFFFFFFFFFFFFFFFFFFFFFFFFFFFFFFFFFFFFFFFFFFFFFFFFFFFFFFFFFFFFFFFFFFFFFFFFFFFFFFFFFFFFFFFFFF
310
FFFFFFFFFFFFFFFFFFFFFFFFFFFFFFFFFFFFFFFFFFFFFFFFFFFFFFFFFFFFFFFFFFFFFFFFFFFFFFFFFFFFFFFFFFFFFFFFFFFFFFFFFFFFFFFFFFFFFFFFFFFFFFFFFFFFFFFFFFFFFFFFFFFFFFFFFFFFFFFFFFFFFFFFFFFFFFFFFFFFFFFFFFFFFFFFFFFFFFFFFFFFFFFFFFFFFFFFFFFFFFFFFFFFFFFFFFFFFFFFFFFFFFFFFFFFFF
310
FFFFFFFFFFFFFFFFFFFFFFFFFFFFFFFFFFFFFFFFFFFFFFFFFFFFFFFFFFFFFFFFFFFFFFFFFFFFFFFFFFFFFFFFFFFFFFFFFFFFFFFF0000000000000000000000000000000000000000000000000000000000FFFFFF0000000000000000000000000000000000FFFFFFFFFFFFFFFFFFFF0000FFFFFF0000000000000000000000
310
00000000000000FFFFFFFFFFFFFFFFFFFF0000FFFF000000000000000000000000000000000000FFFFFF00000000FFFFFF0000FFFF00FFFFFFFFFFFF00FFFFFF00FFFFFFFFFF00FFFFFF0000000000FFFF0000FFFF00FFFFFFFFFFFF00FFFFFF00FFFFFFFFFF00FFFFFF00FFFF0000FFFF0000FFFF00FFFFFFFFFFFF00FFFF
310
00FFFFFFFFFFFF00FFFFFF00FFFF0000FFFF0000FFFF0000000000FFFF00000000FFFFFF00000000FFFFFF00000000FFFFFF0000FFFFFFFFFFFF00FFFFFFFFFFFFFFFFFF00FFFFFFFFFFFFFFFFFFFFFFFFFF0000FFFFFFFFFFFF00FFFFFFFFFFFFFFFFFF00FFFFFFFFFFFFFFFFFFFFFFFFFF0000FFFFFFFFFFFF00FFFFFFFF
310
FFFFFFFFFF00FFFFFFFFFFFFFFFFFFFFFFFF0000FFFFFF0000000000FFFF00000000FFFFFF0000000000000000000000000000FFFFFFFF00FFFFFFFFFFFF00FFFF00FFFFFFFFFFFF00FFFFFFFFFFFFFFFFFFFFFFFFFFFF00FFFFFFFFFFFF00FFFFFF00FFFFFFFFFF00FFFFFFFFFFFFFFFFFFFFFFFFFFFF0000000000000000
310
FFFFFF00000000000000FFFFFFFFFFFFFFFFFFFFFFFFFFFFFFFFFFFFFFFFFFFFFFFFFFFFFFFFFFFFFFFFFFFFFFFFFFFFFFFFFFFFFFFFFFFFFFFFFFFFFFFFFFFFFFFFFFFFFFFFFFFFFFFFFFFFFFFFFFFFFFFFFFFFFFFFFFFFFFFFFFFFFFFFFFFFFFFFFFFFFFFFFFFFFFFFFFFFFFFFFFFFFFFFFFFFFFFFFFFFFFFFFFFFFFFFFF
310
FFFFFFFFFFFFFFFFFFFFFFFFFFFFFFFFFFFFFFFFFFFFFFFFFFFFFFFFFFFFFFFFFFFFFFFFFFFFFFFFFFFFFFFFFFFFFFFFFFFFFFFFFFFFFFFF
102
{BLKREFS
331
27CF
331
27D3
102
}
  0
BLOCK_RECORD
  5
27D4
330
24C9
100
AcDbSymbolTableRecord
100
AcDbBlockTableRecord
  2
Harmonic Drive LLC
340
0
310
2800000020000000200000000100080000000000000400000000000000000000000000000000000000000000000080000080000000808000800000008000800080800000C0C0C000C0DCC000F0CAA6000020400000206000002080000020A0000020C0000020E00000400000004020000040400000406000004080000040A0
310
000040C0000040E00000600000006020000060400000606000006080000060A0000060C0000060E00000800000008020000080400000806000008080000080A0000080C0000080E00000A0000000A0200000A0400000A0600000A0800000A0A00000A0C00000A0E00000C0000000C0200000C0400000C0600000C0800000C0
310
A00000C0C00000C0E00000E0000000E0200000E0400000E0600000E0800000E0A00000E0C00000E0E00040000000400020004000400040006000400080004000A0004000C0004000E00040200000402020004020400040206000402080004020A0004020C0004020E000404000004040200040404000404060004040800040
310
40A0004040C0004040E00040600000406020004060400040606000406080004060A0004060C0004060E00040800000408020004080400040806000408080004080A0004080C0004080E00040A0000040A0200040A0400040A0600040A0800040A0A00040A0C00040A0E00040C0000040C0200040C0400040C0600040C08000
310
40C0A00040C0C00040C0E00040E0000040E0200040E0400040E0600040E0800040E0A00040E0C00040E0E00080000000800020008000400080006000800080008000A0008000C0008000E00080200000802020008020400080206000802080008020A0008020C0008020E00080400000804020008040400080406000804080
310
008040A0008040C0008040E00080600000806020008060400080606000806080008060A0008060C0008060E00080800000808020008080400080806000808080008080A0008080C0008080E00080A0000080A0200080A0400080A0600080A0800080A0A00080A0C00080A0E00080C0000080C0200080C0400080C0600080C0
310
800080C0A00080C0C00080C0E00080E0000080E0200080E0400080E0600080E0800080E0A00080E0C00080E0E000C0000000C0002000C0004000C0006000C0008000C000A000C000C000C000E000C0200000C0202000C0204000C0206000C0208000C020A000C020C000C020E000C0400000C0402000C0404000C0406000C0
310
408000C040A000C040C000C040E000C0600000C0602000C0604000C0606000C0608000C060A000C060C000C060E000C0800000C0802000C0804000C0806000C0808000C080A000C080C000C080E000C0A00000C0A02000C0A04000C0A06000C0A08000C0A0A000C0A0C000C0A0E000C0C00000C0C02000C0C04000C0C06000
310
C0C08000C0C0A000F0FBFF00A4A0A000808080000000FF0000FF000000FFFF00FF000000FF00FF00FFFF0000FFFFFF00FFFFFFFFFFFFFFFFFFFFFFFFFFFFFFFFFFFFFFFFFFFFFFFFFFFFFFFFFFFFFFFFFFFFFFFFFFFFFFFFFFFFFFFFFFFFFFFFFFFFFFFFFFFFFFFFFFFFFFFFFFFFFFFFFFFFFFFFFFFFFFFFFFFFFFFFFFFFFF
310
FFFFFFFFFFFFFFFFFFFFFFFFFFFFFFFFFFFFFFFFFFFFFFFFFFFFFFFFFFFFFFFFFFFFFFFFFFFFFFFFFFFFFFFFFFFFFFFFFFFFFFFFFFFFFFFFFFFFFFFFFFFFFFFFFFFFFFFFFFFFFFFFFFFFFFFFFFFFFFFFFFFFFFFFFFFFFFFFFFFFFFFFFFFFFFFFFFFFFFFFFFFFFFFFFFFFFFFFFFFFFFFFFFFFFFFFFFFFFFFFFFFFFFFFFFFFFF
310
FFFFFFFFFFFFFFFFFFFFFFFFFFFFFFFFFFFFFFFFFFFFFFFFFFFFFFFFFFFFFFFFFFFFFFFFFFFFFFFFFFFFFFFFFFFFFFFFFFFFFFFFFFFFFFFFFFFFFFFFFFFFFFFFFFFFFFFFFFFFFFFFFFFFFFFFFFFFFFFFFFFFFFFFFFFFFFFFFFFFFFFFFFFFFFFFFFFFFFFFFFFFFFFFFFFFFFFFFFFFFFFFFFFFFFFFFFFFFFFFFFFFFFFFFFFFFF
310
FFFFFFFFFFFFFFFFFFFFFFFFFFFFFFFFFFFFFFFFFFFFFFFFFFFFFFFFFFFFFFFFFFFFFFFFFFFFFFFFFFFFFFFFFFFFFFFFFFFFFFFFFFFFFFFFFFFFFFFFFFFFFFFFFFFFFFFFFFFFFFFFFFFFFFFFFFFFFFFFFFFFFFFFFFFFFF000000000000000000000000000000000000000000000000FFFFFFFFFFFFFFFF0000000000000000
310
00000000000000000000000000000000FFFFFFFFFFFFFFFFFFFFFFFF00000000FF00000000FF000000000000FFFFFFFFFFFFFFFFFFFFFFFFFFFFFFFF00000000000000000000000000000000FFFFFFFFFFFFFFFFFFFFFFFFFF00000000000000000000FF000000000000FF00000000FFFFFFFFFFFFFFFFFFFF000000000000
310
00000000FF000000000000FF00000000FFFFFFFFFFFFFFFFFFFFFFFFFFFFFFFFFFFFFFFFFFFFFFFFFFFFFFFFFFFFFFFFFFFFFFFFFFFFFFFFFFFFFFFFFFFFFFFFFFFFFFFFFFFFFFFFFFFFFFFFFFFFFFFFFFFFFFFFFFFFFFFFFFFFFFFFFFFFFFFFFFFFFFFFFFFFFFFFFFFFFFFFFFFFFFFFFFFFFFFFFFFFFFFFFFFFFFFFFFFFFF
310
FFFFFFFFFFFFFFFFFFFFFFFFFFFFFFFFFFFFFFFFFFFFFFFFFFFFFFFFFFFFFFFFFFFFFFFFFFFFFFFFFFFFFFFFFFFFFFFFFFFFFFFFFFFFFFFFFFFFFFFFFFFFFFFFFFFFFFFFFFFFFFFFFFFFFFFFFFFFFFFFFFFFFFFFFFFFFFFFFFFFFFFFFFFFFFFFFFFFFFFFFFFFFFFFFFFFFFFFFFFFFFFFFFFFFFFFFFFFFFFFFFFFFFFFFFFFFF
310
FFFFFFFFFFFFFFFFFFFFFFFFFFFFFFFFFFFFFFFFFFFFFFFFFFFFFFFFFFFFFFFFFFFFFFFFFFFFFFFFFFFFFFFFFFFFFFFFFFFFFFFFFFFFFFFFFFFFFFFFFFFFFFFFFFFFFFFFFFFFFFFFFFFFFFFFFFFFFFFFFFFFFFFFFFFFFFFFFFFFFFFFFFFFFFFFFFFFFFFFFFFFFFFFFFFFFFFFFFFFFFFFFFFFFFFFFFFFFFFFFFFFFFFFFFFFFF
310
FFFFFFFFFFFFFFFFFFFFFFFFFFFFFFFFFFFFFFFFFFFFFFFFFFFFFFFFFFFFFFFFFFFFFFFFFFFFFFFFFFFFFFFFFFFFFFFFFFFFFFFFFFFFFFFF
102
{BLKREFS
331
27D9
331
27DD
102
}
  0
BLOCK_RECORD
  5
2C7A
330
24C9
100
AcDbSymbolTableRecord
100
AcDbBlockTableRecord
  2
HD LLC
340
0
310
2800000020000000200000000100080000000000000400000000000000000000000000000000000000000000000080000080000000808000800000008000800080800000C0C0C000C0DCC000F0CAA6000020400000206000002080000020A0000020C0000020E00000400000004020000040400000406000004080000040A0
310
000040C0000040E00000600000006020000060400000606000006080000060A0000060C0000060E00000800000008020000080400000806000008080000080A0000080C0000080E00000A0000000A0200000A0400000A0600000A0800000A0A00000A0C00000A0E00000C0000000C0200000C0400000C0600000C0800000C0
310
A00000C0C00000C0E00000E0000000E0200000E0400000E0600000E0800000E0A00000E0C00000E0E00040000000400020004000400040006000400080004000A0004000C0004000E00040200000402020004020400040206000402080004020A0004020C0004020E000404000004040200040404000404060004040800040
310
40A0004040C0004040E00040600000406020004060400040606000406080004060A0004060C0004060E00040800000408020004080400040806000408080004080A0004080C0004080E00040A0000040A0200040A0400040A0600040A0800040A0A00040A0C00040A0E00040C0000040C0200040C0400040C0600040C08000
310
40C0A00040C0C00040C0E00040E0000040E0200040E0400040E0600040E0800040E0A00040E0C00040E0E00080000000800020008000400080006000800080008000A0008000C0008000E00080200000802020008020400080206000802080008020A0008020C0008020E00080400000804020008040400080406000804080
310
008040A0008040C0008040E00080600000806020008060400080606000806080008060A0008060C0008060E00080800000808020008080400080806000808080008080A0008080C0008080E00080A0000080A0200080A0400080A0600080A0800080A0A00080A0C00080A0E00080C0000080C0200080C0400080C0600080C0
310
800080C0A00080C0C00080C0E00080E0000080E0200080E0400080E0600080E0800080E0A00080E0C00080E0E000C0000000C0002000C0004000C0006000C0008000C000A000C000C000C000E000C0200000C0202000C0204000C0206000C0208000C020A000C020C000C020E000C0400000C0402000C0404000C0406000C0
310
408000C040A000C040C000C040E000C0600000C0602000C0604000C0606000C0608000C060A000C060C000C060E000C0800000C0802000C0804000C0806000C0808000C080A000C080C000C080E000C0A00000C0A02000C0A04000C0A06000C0A08000C0A0A000C0A0C000C0A0E000C0C00000C0C02000C0C04000C0C06000
310
C0C08000C0C0A000F0FBFF00A4A0A000808080000000FF0000FF000000FFFF00FF000000FF00FF00FFFF0000FFFFFF00FFFFFFFFFFFFFFFFFFFFFFFFFFFFFFFFFFFFFFFFFFFFFFFFFFFFFFFFFFFFFFFFFFFFFFFFFFFFFFFFFFFFFFFFFFFFFFFFFFFFFFFFFFFFFFFFFFFFFFFFFFFFFFFFFFFFFFFFFFFFFFFFFFFFFFFFFFFFFF
310
FFFFFFFFFFFFFFFFFFFFFFFFFFFFFFFFFFFFFFFFFFFFFFFFFFFFFFFFFFFFFFFFFFFFFFFFFFFFFFFFFFFFFFFFFFFFFFFFFFFFFFFFFFFFFFFFFFFFFFFFFFFFFFFFFFFFFFFFFFFFFFFFFFFFFFFFFFFFFFFFFFFFFFFFFFFFFFFFFFFFFFFFFFFFFFFFFFFFFFFFFFFFFFFFFFFFFFFFFFFFFFFFFFFFFFFFFFFFFFFFFFFFFFFFFFFFFF
310
FFFFFFFFFFFFFFFFFFFFFFFFFFFFFFFFFFFFFFFFFFFFFFFFFFFFFFFFFFFFFFFFFFFFFFFFFFFFFFFFFFFFFFFFFFFFFFFFFFFFFFFFFFFFFFFFFFFFFFFFFFFFFFFFFFFFFFFFFFFFFFFFFFFFFFFFFFFFFFFFFFFFFFFFFFFFFFFFFFFFFFFFFFFFFFFFFFFFFFFFFFFFFFFFFFFFFFFFFFFFFFFFFFFFFFFFFFFFFFFFFFFFFFFFFFFFFF
310
FFFFFFFFFFFFFFFFFFFFFFFFFFFFFFFFFFFFFFFFFFFFFFFFFFFFFFFFFFFFFFFFFFFFFFFFFFFFFFFFFFFFFFFFFFFFFFFFFFFFFFFFFFFFFFFFFFFFFFFFFFFFFFFFFFFFFFFFFFFFFFFFFFFFFFFFFFFFFFFFFFFFFFFFFFFFFFFFFFFFFFFFFFFFFFFFFFFFFFFFFFFFFFFFFFFFFFFFFFFFFFFFFFFFFFFFFFFFFFFFFFFFFFFFFFFF00
310
000000000000000000FFFFFFFFFFFFFFFFFFFFFFFFFFFFFFFFFFFFFFFFFFFF00000000000000000000FFFFFFFFFFFFFFFFFFFFFFFFFFFFFFFFFFFFFFFFFFFF00000000000000000000FFFFFFFFFFFFFFFFFFFFFFFFFFFFFFFFFFFFFFFFFFFF00000000000000000000FFFFFFFFFFFFFFFFFFFFFFFFFFFFFFFFFFFFFFFFFFFF
310
FFFFFFFFFFFFFFFFFFFFFFFFFFFFFFFFFFFFFFFFFFFFFFFFFFFFFFFFFFFFFFFFFFFFFFFFFFFFFFFFFFFFFFFFFFFFFFFFFFFFFFFFFFFFFFFFFFFFFFFFFFFFFFFFFFFFFFFFFFFFFFFFFFFFFFFFFFFFFFFFFFFFFFFFFFFFFFFFFFFFFFFFFFFFFFFFFFFFFFFFFFFFFFFFFFFFFFFFFFFFFFFFFFFFFFFFFFFFFFFFFFFFFFFFFFFFFF
310
FFFFFFFFFFFFFFFFFFFFFFFFFFFFFFFFFFFFFFFFFFFFFFFFFFFFFFFFFFFFFFFFFFFFFFFFFFFFFFFFFFFFFFFFFFFFFFFFFFFFFFFFFFFFFFFFFFFFFFFFFFFFFFFFFFFFFFFFFFFFFFFFFFFFFFFFFFFFFFFFFFFFFFFFFFFFFFFFFFFFFFFFFFFFFFFFFFFFFFFFFFFFFFFFFFFFFFFFFFFFFFFFFFFFFFFFFFFFFFFFFFFFFFFFFFFFFF
310
FFFFFFFFFFFFFFFFFFFFFFFFFFFFFFFFFFFFFFFFFFFFFFFFFFFFFFFFFFFFFFFFFFFFFFFFFFFFFFFFFFFFFFFFFFFFFFFFFFFFFFFFFFFFFFFFFFFFFFFFFFFFFFFFFFFFFFFFFFFFFFFFFFFFFFFFFFFFFFFFFFFFFFFFFFFFFFFFFFFFFFFFFFFFFFFFFFFFFFFFFFFFFFFFFFFFFFFFFFFFFFFFFFFFFFFFFFFFFFFFFFFFFFFFFFFFFF
310
FFFFFFFFFFFFFFFFFFFFFFFFFFFFFFFFFFFFFFFFFFFFFFFFFFFFFFFFFFFFFFFFFFFFFFFFFFFFFFFFFFFFFFFFFFFFFFFFFFFFFFFFFFFFFFFF
102
{BLKREFS
331
2C7F
331
2C83
102
}
  0
BLOCK_RECORD
  5
2C8A
330
24C9
100
AcDbSymbolTableRecord
100
AcDbBlockTableRecord
  2
NTC
340
0
310
2800000020000000200000000100080000000000000400000000000000000000000000000000000000000000000080000080000000808000800000008000800080800000C0C0C000C0DCC000F0CAA6000020400000206000002080000020A0000020C0000020E00000400000004020000040400000406000004080000040A0
310
000040C0000040E00000600000006020000060400000606000006080000060A0000060C0000060E00000800000008020000080400000806000008080000080A0000080C0000080E00000A0000000A0200000A0400000A0600000A0800000A0A00000A0C00000A0E00000C0000000C0200000C0400000C0600000C0800000C0
310
A00000C0C00000C0E00000E0000000E0200000E0400000E0600000E0800000E0A00000E0C00000E0E00040000000400020004000400040006000400080004000A0004000C0004000E00040200000402020004020400040206000402080004020A0004020C0004020E000404000004040200040404000404060004040800040
310
40A0004040C0004040E00040600000406020004060400040606000406080004060A0004060C0004060E00040800000408020004080400040806000408080004080A0004080C0004080E00040A0000040A0200040A0400040A0600040A0800040A0A00040A0C00040A0E00040C0000040C0200040C0400040C0600040C08000
310
40C0A00040C0C00040C0E00040E0000040E0200040E0400040E0600040E0800040E0A00040E0C00040E0E00080000000800020008000400080006000800080008000A0008000C0008000E00080200000802020008020400080206000802080008020A0008020C0008020E00080400000804020008040400080406000804080
310
008040A0008040C0008040E00080600000806020008060400080606000806080008060A0008060C0008060E00080800000808020008080400080806000808080008080A0008080C0008080E00080A0000080A0200080A0400080A0600080A0800080A0A00080A0C00080A0E00080C0000080C0200080C0400080C0600080C0
310
800080C0A00080C0C00080C0E00080E0000080E0200080E0400080E0600080E0800080E0A00080E0C00080E0E000C0000000C0002000C0004000C0006000C0008000C000A000C000C000C000E000C0200000C0202000C0204000C0206000C0208000C020A000C020C000C020E000C0400000C0402000C0404000C0406000C0
310
408000C040A000C040C000C040E000C0600000C0602000C0604000C0606000C0608000C060A000C060C000C060E000C0800000C0802000C0804000C0806000C0808000C080A000C080C000C080E000C0A00000C0A02000C0A04000C0A06000C0A08000C0A0A000C0A0C000C0A0E000C0C00000C0C02000C0C04000C0C06000
310
C0C08000C0C0A000F0FBFF00A4A0A000808080000000FF0000FF000000FFFF00FF000000FF00FF00FFFF0000FFFFFF00FFFFFFFFFFFFFFFFFFFFFFFFFFFFFFFFFFFFFFFFFFFFFFFFFFFFFFFFFFFFFFFFFFFFFFFFFFFFFFFFFFFFFFFFFFFFFFFFFFFFFFFFFFFFFFFFFFFFFFFFFFFFFFFFFFFFFFFFFFFFFFFFFFFFFFFFFFFFFF
310
FFFFFFFFFFFFFFFFFFFFFFFFFFFFFFFFFFFFFFFFFFFFFFFFFFFFFFFFFFFFFFFFFFFFFFFFFFFFFFFFFFFFFFFFFFFFFFFFFFFFFFFFFFFFFFFFFFFFFFFFFFFFFFFFFFFFFFFFFFFFFFFFFFFFFFFFFFFFFFFFFFFFFFFFFFFFFFFFFFFFFFFFFFFFFFFFFFFFFFFFFFFFFFFFFFFFFFFFFFFFFFFFFFFFFFFFFFFFFFFFFFFFFFFFFFFFFF
310
FFFFFFFFFFFFFFFFFFFFFFFFFFFFFFFFFFFFFFFFFFFFFFFFFFFFFFFFFFFFFFFFFFFFFFFFFFFFFFFFFFFFFFFFFFFFFFFFFFFFFFFFFFFFFFFFFFFFFFFFFFFFFFFFFFFFFFFFFFFFFFFFFFFFFFFFFFFFFFFFFFFFFFFFFFFFFFFFFFFFFFFFFFFFFFFFFFFFFFFFFFFFFFFFFFFFFFFFFFFFFFFFFFFFFFFFFFFFFFFFFFFFFFFFFFFFFF
310
FFFFFFFFFFFFFFFFFFFFFFFFFFFFFFFFFFFFFFFF000000000000000000000000000000000000000000000000000000000000FFFF00FF0000000000000000FFFFFFFFFFFFFFFFFFFFFFFFFFFFFFFFFFFFFF00FFFF00FF0000000000000000FFFFFFFFFFFFFFFFFFFFFFFFFFFFFFFFFFFFFF00FFFF00FF000000000000000000
310
00000000000000000000000000FFFFFFFFFF00FFFF00FF0000000000000000000000000000000000000000000000000000FF00FFFF00FF0000000000000000000000000000000000000000000000000000FF00FFFF00FF0000000000000000000000000000000000000000000000000000FF00FFFF00FF0000000000000000
310
00000000000000000000000000000000FFFFFF00FFFF00FF0000000000FFFFFFFFFFFFFFFFFFFFFFFFFFFFFFFFFFFFFFFFFFFF00FFFF000000000000000000000000000000000000000000000000000000000000FFFFFFFFFFFFFFFFFFFFFFFFFFFFFFFFFFFFFFFFFFFFFFFFFFFFFFFFFFFFFFFFFFFFFFFFFFFFFFFFFFFFFF
310
FFFFFFFFFFFFFFFFFFFFFFFFFFFFFFFFFFFFFFFFFFFFFFFFFFFFFFFFFFFFFFFFFFFFFFFFFFFFFFFFFFFFFFFFFFFFFFFFFFFFFFFFFFFFFFFFFFFFFFFFFFFFFFFFFFFFFFFFFFFFFFFFFFFFFFFFFFFFFFFFFFFFFFFFFFFFFFFFFFFFFFFFFFFFFFFFFFFFFFFFFFFFFFFFFFFFFFFFFFFFFFFFFFFFFFFFFFFFFFFFFFFFFFFFFFFFFF
310
FFFFFFFFFFFFFFFFFFFFFFFFFFFFFFFFFFFFFFFFFFFFFFFFFFFFFFFFFFFFFFFFFFFFFFFFFFFFFFFFFFFFFFFFFFFFFFFFFFFFFFFFFFFFFFFFFFFFFFFFFFFFFFFFFFFFFFFFFFFFFFFFFFFFFFFFFFFFFFFFFFFFFFFFFFFFFFFFFFFFFFFFFFFFFFFFFFFFFFFFFFFFFFFFFFFFFFFFFFFFFFFFFFFFFFFFFFFFFFFFFFFFFFFFFFFFFF
310
FFFFFFFFFFFFFFFFFFFFFFFFFFFFFFFFFFFFFFFFFFFFFFFFFFFFFFFFFFFFFFFFFFFFFFFFFFFFFFFFFFFFFFFFFFFFFFFFFFFFFFFFFFFFFFFF
102
{BLKREFS
331
2C90
331
2C96
102
}
  0
ENDTAB
  0
ENDSEC
  0
SECTION
  2
BLOCKS
  0
BLOCK
  5
24E7
330
24E6
100
AcDbEntity
  8
0
100
AcDbBlockBegin
  2
*Model_Space
 70
     0
 10
0.0
 20
0.0
 30
0.0
  3
*Model_Space
  1

  0
ENDBLK
  5
24E8
330
24E6
100
AcDbEntity
  8
0
100
AcDbBlockEnd
  0
BLOCK
  5
24E3
330
24E2
100
AcDbEntity
 67
     1
  8
0
100
AcDbBlockBegin
  2
*Paper_Space
 70
     0
 10
0.0
 20
0.0
 30
0.0
  3
*Paper_Space
  1

  0
ENDBLK
  5
24E4
330
24E2
100
AcDbEntity
 67
     1
  8
0
100
AcDbBlockEnd
  0
BLOCK
  5
2500
330
24FF
100
AcDbEntity
  8
0
100
AcDbBlockBegin
  2
$MODEL_SPACE
 70
     0
 10
0.0
 20
0.0
 30
0.0
  3
$MODEL_SPACE
  1

  0
ENDBLK
  5
2501
330
24FF
100
AcDbEntity
  8
0
100
AcDbBlockEnd
  0
BLOCK
  5
2503
330
2502
100
AcDbEntity
  8
0
100
AcDbBlockBegin
  2
$PAPER_SPACE
 70
     0
 10
0.0
 20
0.0
 30
0.0
  3
$PAPER_SPACE
  1

  0
ENDBLK
  5
2504
330
2502
100
AcDbEntity
  8
0
100
AcDbBlockEnd
  0
BLOCK
  5
2763
330
2760
100
AcDbEntity
  8
0
 62
     7
100
AcDbBlockBegin
  2
AI9-BLK14
 70
     0
 10
0.0
 20
0.0
 30
0.0
  3
AI9-BLK14
  1

  0
SPLINE
  5
2761
330
2760
100
AcDbEntity
  8
LAYER_1
 62
     7
100
AcDbSpline
210
0.0
220
0.0
230
1.0
 70
    11
 71
     3
 72
    23
 73
    19
 74
     0
 42
0.0000000001
 43
0.0000000001
 40
0.0
 40
0.0
 40
0.0
 40
0.0
 40
1.0
 40
1.0
 40
1.0
 40
2.0
 40
2.0
 40
2.0
 40
3.0
 40
3.0
 40
3.0
 40
4.0
 40
4.0
 40
4.0
 40
5.0
 40
5.0
 40
5.0
 40
6.0
 40
6.0
 40
6.0
 40
6.0
 10
-10.90321044921874
 20
10.88107571072048
 30
0.0
 10
-10.90321044921874
 20
10.88107571072048
 30
0.0
 10
-10.90321044921874
 20
-10.88107571072048
 30
0.0
 10
-10.90321044921874
 20
-10.88107571072048
 30
0.0
 10
-10.90321044921874
 20
-10.88107571072048
 30
0.0
 10
1.752692328559025
 20
-10.88107571072048
 30
0.0
 10
1.752692328559025
 20
-10.88107571072048
 30
0.0
 10
3.280592176649305
 20
-10.88107571072048
 30
0.0
 10
10.90321044921874
 20
-10.32383151584201
 30
0.0
 10
10.90321044921874
 20
0.6792867024739583
 30
0.0
 10
10.90321044921874
 20
10.61700914171006
 30
0.0
 10
2.773129611545138
 20
10.87952541775172
 30
0.0
 10
2.691136338975693
 20
10.88090345594618
 30
0.0
 10
2.691136338975693
 20
10.88090345594618
 30
0.0
 10
-9.903099229600693
 20
10.88107571072048
 30
0.0
 10
-9.903099229600693
 20
10.88107571072048
 30
0.0
 10
-9.903099229600693
 20
10.88107571072048
 30
0.0
 10
-10.90321044921874
 20
10.88107571072048
 30
0.0
 10
-10.90321044921874
 20
10.88107571072048
 30
0.0
  0
SPLINE
  5
2762
330
2760
100
AcDbEntity
  8
LAYER_1
 62
     7
100
AcDbSpline
210
0.0
220
0.0
230
1.0
 70
    11
 71
     3
 72
    20
 73
    16
 74
     0
 42
0.0000000001
 43
0.0000000001
 40
0.0
 40
0.0
 40
0.0
 40
0.0
 40
1.0
 40
1.0
 40
1.0
 40
2.0
 40
2.0
 40
2.0
 40
3.0
 40
3.0
 40
3.0
 40
4.0
 40
4.0
 40
4.0
 40
5.0
 40
5.0
 40
5.0
 40
5.0
 10
2.672877332899305
 20
8.881197781032986
 30
0.0
 10
2.905421278211805
 20
8.874307590060762
 30
0.0
 10
8.902988009982637
 20
8.616442192925347
 30
0.0
 10
8.902988009982637
 20
0.6792867024739583
 30
0.0
 10
8.902988009982637
 20
-8.191661919487842
 30
0.0
 10
3.430109320746526
 20
-8.881197781032986
 30
0.0
 10
1.752692328559025
 20
-8.881197781032986
 30
0.0
 10
1.752692328559025
 20
-8.881197781032986
 30
0.0
 10
-7.231427680121528
 20
-8.881197781032986
 30
0.0
 10
-8.902988009982637
 20
-8.881197781032986
 30
0.0
 10
-8.902988009982637
 20
-7.174497477213541
 30
0.0
 10
-8.902988009982637
 20
7.174497477213541
 30
0.0
 10
-8.902988009982637
 20
8.881197781032986
 30
0.0
 10
-7.208690049913191
 20
8.881197781032986
 30
0.0
 10
2.672877332899305
 20
8.881197781032986
 30
0.0
 10
2.672877332899305
 20
8.881197781032986
 30
0.0
  0
ENDBLK
  5
2764
330
2760
100
AcDbEntity
  8
0
100
AcDbBlockEnd
  0
BLOCK
  5
2768
330
2765
100
AcDbEntity
  8
0
 62
     7
100
AcDbBlockBegin
  2
AI9-BLK13
 70
     0
 10
0.0
 20
0.0
 30
0.0
  3
AI9-BLK13
  1

  0
LWPOLYLINE
  5
2766
330
2765
100
AcDbEntity
  8
LAYER_1
 62
     7
100
AcDbPolyline
 90
       12
 70
     1
 43
0.0
 10
-3.792361111111107
 20
10.7376736111111
 10
-2.469444444444443
 20
10.7376736111111
 10
-2.469444444444443
 20
1.874131944444444
 10
2.469444444444443
 20
1.874131944444444
 10
2.469444444444443
 20
10.7376736111111
 10
3.792361111111107
 20
10.7376736111111
 10
3.792361111111107
 20
-10.7376736111111
 10
2.469444444444443
 20
-10.7376736111111
 10
2.469444444444443
 20
-0.6835069444444444
 10
-2.469444444444443
 20
-0.6835069444444444
 10
-2.469444444444443
 20
-10.7376736111111
 10
-3.792361111111107
 20
-10.7376736111111
  0
HATCH
  5
2767
330
2765
100
AcDbEntity
  8
LAYER_1
 62
     7
100
AcDbHatch
 10
0.0
 20
0.0
 30
0.0
210
0.0
220
0.0
230
1.0
  2
SOLID
 70
     1
 71
     0
 91
        1
 92
        3
 72
     0
 73
     1
 93
       12
 10
-3.792361111111107
 20
10.7376736111111
 10
-2.469444444444443
 20
10.7376736111111
 10
-2.469444444444443
 20
1.874131944444444
 10
2.469444444444443
 20
1.874131944444444
 10
2.469444444444443
 20
10.7376736111111
 10
3.792361111111107
 20
10.7376736111111
 10
3.792361111111107
 20
-10.7376736111111
 10
2.469444444444443
 20
-10.7376736111111
 10
2.469444444444443
 20
-0.6835069444444444
 10
-2.469444444444443
 20
-0.6835069444444444
 10
-2.469444444444443
 20
-10.7376736111111
 10
-3.792361111111107
 20
-10.7376736111111
 97
        0
 75
     2
 76
     1
 98
        1
 10
0.0
 20
0.0
  0
ENDBLK
  5
2769
330
2765
100
AcDbEntity
  8
0
100
AcDbBlockEnd
  0
BLOCK
  5
276D
330
276A
100
AcDbEntity
  8
0
 62
     7
100
AcDbBlockBegin
  2
AI9-BLK11
 70
     0
 10
0.0
 20
0.0
 30
0.0
  3
AI9-BLK11
  1

  0
SPLINE
  5
276B
330
276A
100
AcDbEntity
  8
LAYER_1
 62
     7
100
AcDbSpline
210
0.0
220
0.0
230
1.0
 70
    11
 71
     3
 72
    26
 73
    22
 74
     0
 42
0.0000000001
 43
0.0000000001
 40
0.0
 40
0.0
 40
0.0
 40
0.0
 40
1.0
 40
1.0
 40
1.0
 40
2.0
 40
2.0
 40
2.0
 40
3.0
 40
3.0
 40
3.0
 40
4.0
 40
4.0
 40
4.0
 40
5.0
 40
5.0
 40
5.0
 40
6.0
 40
6.0
 40
6.0
 40
7.0
 40
7.0
 40
7.0
 40
7.0
 10
-2.645833333333333
 20
0.9039930555555551
 30
0.0
 10
-2.645833333333333
 20
0.9039930555555551
 30
0.0
 10
-2.645833333333333
 20
8.180034722222217
 30
0.0
 10
-2.645833333333333
 20
8.180034722222217
 30
0.0
 10
-2.645833333333333
 20
8.180034722222217
 30
0.0
 10
0.465087890625
 20
8.180034722222217
 30
0.0
 10
0.465087890625
 20
8.180034722222217
 30
0.0
 10
0.9026150173611108
 20
8.180034722222217
 30
0.0
 10
1.24988064236111
 20
8.034651692708331
 30
0.0
 10
1.506884765625
 20
7.745263671874997
 30
0.0
 10
2.001600477430554
 20
7.194048394097221
 30
0.0
 10
2.248958333333332
 20
6.160519748263887
 30
0.0
 10
2.248958333333332
 20
4.643299696180553
 30
0.0
 10
2.248958333333332
 20
3.232188585069443
 30
0.0
 10
2.072569444444444
 20
2.256537543402775
 30
0.0
 10
1.720480685763888
 20
1.715657552083333
 30
0.0
 10
1.368391927083333
 20
1.174088541666665
 30
0.0
 10
0.8929687499999998
 20
0.9039930555555551
 30
0.0
 10
0.2942111545138888
 20
0.9039930555555551
 30
0.0
 10
0.2942111545138888
 20
0.9039930555555551
 30
0.0
 10
-2.645833333333333
 20
0.9039930555555551
 30
0.0
 10
-2.645833333333333
 20
0.9039930555555551
 30
0.0
  0
SPLINE
  5
276C
330
276A
100
AcDbEntity
  8
LAYER_1
 62
     7
100
AcDbSpline
210
0.0
220
0.0
230
1.0
 70
    11
 71
     3
 72
    68
 73
    64
 74
     0
 42
0.0000000001
 43
0.0000000001
 40
0.0
 40
0.0
 40
0.0
 40
0.0
 40
1.0
 40
1.0
 40
1.0
 40
2.0
 40
2.0
 40
2.0
 40
3.0
 40
3.0
 40
3.0
 40
4.0
 40
4.0
 40
4.0
 40
5.0
 40
5.0
 40
5.0
 40
6.0
 40
6.0
 40
6.0
 40
7.0
 40
7.0
 40
7.0
 40
8.0
 40
8.0
 40
8.0
 40
9.0
 40
9.0
 40
9.0
 40
10.0
 40
10.0
 40
10.0
 40
11.0
 40
11.0
 40
11.0
 40
12.0
 40
12.0
 40
12.0
 40
13.0
 40
13.0
 40
13.0
 40
14.0
 40
14.0
 40
14.0
 40
15.0
 40
15.0
 40
15.0
 40
16.0
 40
16.0
 40
16.0
 40
17.0
 40
17.0
 40
17.0
 40
18.0
 40
18.0
 40
18.0
 40
19.0
 40
19.0
 40
19.0
 40
20.0
 40
20.0
 40
20.0
 40
21.0
 40
21.0
 40
21.0
 40
21.0
 10
-3.968749999999998
 20
-10.7376736111111
 30
0.0
 10
-3.968749999999998
 20
-10.7376736111111
 30
0.0
 10
-2.645833333333333
 20
-10.7376736111111
 30
0.0
 10
-2.645833333333333
 20
-10.7376736111111
 30
0.0
 10
-2.645833333333333
 20
-10.7376736111111
 30
0.0
 10
-2.645833333333333
 20
-1.521354166666665
 30
0.0
 10
-2.645833333333333
 20
-1.521354166666665
 30
0.0
 10
-2.645833333333333
 20
-1.521354166666665
 30
0.0
 10
0.2390896267361111
 20
-1.521354166666665
 30
0.0
 10
0.2390896267361111
 20
-1.521354166666665
 30
0.0
 10
0.7599880642361111
 20
-1.521354166666665
 30
0.0
 10
1.143771701388887
 20
-1.65295681423611
 30
0.0
 10
1.390440538194444
 20
-1.916162109374999
 30
0.0
 10
1.816254340277773
 20
-2.39434136284722
 30
0.0
 10
2.04363064236111
 20
-3.335541449652775
 30
0.0
 10
2.072569444444444
 20
-4.739762369791666
 30
0.0
 10
2.072569444444444
 20
-4.739762369791666
 30
0.0
 10
2.160763888888888
 20
-8.324039713541665
 30
0.0
 10
2.160763888888888
 20
-8.324039713541665
 30
0.0
 10
2.18005642361111
 20
-9.163264973958332
 30
0.0
 10
2.202794053819443
 20
-9.728949652777775
 30
0.0
 10
2.227598741319444
 20
-10.02109374999998
 30
0.0
 10
2.252403428819443
 20
-10.31392686631944
 30
0.0
 10
2.28892144097222
 20
-10.55301649305555
 30
0.0
 10
2.33853081597222
 20
-10.7376736111111
 30
0.0
 10
2.33853081597222
 20
-10.7376736111111
 30
0.0
 10
3.968749999999998
 20
-10.7376736111111
 30
0.0
 10
3.968749999999998
 20
-10.7376736111111
 30
0.0
 10
3.968749999999998
 20
-10.7376736111111
 30
0.0
 10
3.968749999999998
 20
-10.25260416666666
 30
0.0
 10
3.968749999999998
 20
-10.25260416666666
 30
0.0
 10
3.766867404513888
 20
-10.05830078125
 30
0.0
 10
3.625618489583333
 20
-9.621462673611112
 30
0.0
 10
3.545692274305555
 20
-8.942089843749997
 30
0.0
 10
3.49470486111111
 20
-8.543836805555555
 30
0.0
 10
3.459564887152775
 20
-7.937499999999999
 30
0.0
 10
3.439583333333333
 20
-7.121701388888887
 30
0.0
 10
3.439583333333333
 20
-7.121701388888887
 30
0.0
 10
3.395486111111106
 20
-4.232644314236106
 30
0.0
 10
3.395486111111106
 20
-4.232644314236106
 30
0.0
 10
3.375504557291666
 20
-2.981385633680555
 30
0.0
 10
3.26870659722222
 20
-2.077392578125
 30
0.0
 10
3.075781249999999
 20
-1.522043185763888
 30
0.0
 10
2.882166883680555
 20
-0.9666937934027776
 30
0.0
 10
2.592089843749999
 20
-0.5188313802083333
 30
0.0
 10
2.204861111111104
 20
-0.1770779079861111
 30
0.0
 10
2.63618706597222
 20
0.3197048611111111
 30
0.0
 10
2.971739366319443
 20
0.9770290798611107
 30
0.0
 10
3.211518012152775
 20
1.79558376736111
 30
0.0
 10
3.451296657986107
 20
2.613449435763888
 30
0.0
 10
3.571874999999999
 20
3.66558159722222
 30
0.0
 10
3.571874999999999
 20
4.951291232638888
 30
0.0
 10
3.571874999999999
 20
7.415912543402777
 30
0.0
 10
3.124701605902775
 20
9.106076388888887
 30
0.0
 10
2.231043836805555
 20
10.02178276909722
 30
0.0
 10
1.759754774305553
 20
10.498583984375
 30
0.0
 10
1.163753255208332
 20
10.7376736111111
 30
0.0
 10
0.443039279513889
 20
10.7376736111111
 30
0.0
 10
0.443039279513889
 20
10.7376736111111
 30
0.0
 10
-3.968749999999998
 20
10.7376736111111
 30
0.0
 10
-3.968749999999998
 20
10.7376736111111
 30
0.0
 10
-3.968749999999998
 20
10.7376736111111
 30
0.0
 10
-3.968749999999998
 20
-10.7376736111111
 30
0.0
 10
-3.968749999999998
 20
-10.7376736111111
 30
0.0
  0
ENDBLK
  5
276E
330
276A
100
AcDbEntity
  8
0
100
AcDbBlockEnd
  0
BLOCK
  5
2771
330
276F
100
AcDbEntity
  8
0
 62
     7
100
AcDbBlockBegin
  2
AI9-BLK10
 70
     0
 10
0.0
 20
0.0
 30
0.0
  3
AI9-BLK10
  1

  0
SPLINE
  5
2770
330
276F
100
AcDbEntity
  8
LAYER_1
 62
     7
100
AcDbSpline
210
0.0
220
0.0
230
1.0
 70
    11
 71
     3
 72
    59
 73
    55
 74
     0
 42
0.0000000001
 43
0.0000000001
 40
0.0
 40
0.0
 40
0.0
 40
0.0
 40
1.0
 40
1.0
 40
1.0
 40
2.0
 40
2.0
 40
2.0
 40
3.0
 40
3.0
 40
3.0
 40
4.0
 40
4.0
 40
4.0
 40
5.0
 40
5.0
 40
5.0
 40
6.0
 40
6.0
 40
6.0
 40
7.0
 40
7.0
 40
7.0
 40
8.0
 40
8.0
 40
8.0
 40
9.0
 40
9.0
 40
9.0
 40
10.0
 40
10.0
 40
10.0
 40
11.0
 40
11.0
 40
11.0
 40
12.0
 40
12.0
 40
12.0
 40
13.0
 40
13.0
 40
13.0
 40
14.0
 40
14.0
 40
14.0
 40
15.0
 40
15.0
 40
15.0
 40
16.0
 40
16.0
 40
16.0
 40
17.0
 40
17.0
 40
17.0
 40
18.0
 40
18.0
 40
18.0
 40
18.0
 10
-4.652256944444443
 20
10.7376736111111
 30
0.0
 10
-4.652256944444443
 20
10.7376736111111
 30
0.0
 10
-2.798795572916666
 20
10.7376736111111
 30
0.0
 10
-2.798795572916666
 20
10.7376736111111
 30
0.0
 10
-2.798795572916666
 20
10.7376736111111
 30
0.0
 10
0.0
 20
-7.419357638888887
 30
0.0
 10
0.0
 20
-7.419357638888887
 30
0.0
 10
0.0
 20
-7.419357638888887
 30
0.0
 10
2.793283420138888
 20
10.7376736111111
 30
0.0
 10
2.793283420138888
 20
10.7376736111111
 30
0.0
 10
2.793283420138888
 20
10.7376736111111
 30
0.0
 10
4.652256944444443
 20
10.7376736111111
 30
0.0
 10
4.652256944444443
 20
10.7376736111111
 30
0.0
 10
4.652256944444443
 20
10.7376736111111
 30
0.0
 10
4.652256944444443
 20
-10.7376736111111
 30
0.0
 10
4.652256944444443
 20
-10.7376736111111
 30
0.0
 10
4.652256944444443
 20
-10.7376736111111
 30
0.0
 10
3.41753472222222
 20
-10.7376736111111
 30
0.0
 10
3.41753472222222
 20
-10.7376736111111
 30
0.0
 10
3.41753472222222
 20
-10.7376736111111
 30
0.0
 10
3.41753472222222
 20
1.936832682291665
 30
0.0
 10
3.41753472222222
 20
1.936832682291665
 30
0.0
 10
3.41753472222222
 20
2.375048828124999
 30
0.0
 10
3.424424913194443
 20
3.101274956597221
 30
0.0
 10
3.439583333333333
 20
4.11482204861111
 30
0.0
 10
3.454052734374998
 20
5.128369140624998
 30
0.0
 10
3.461631944444443
 20
6.214952256944441
 30
0.0
 10
3.461631944444443
 20
7.375260416666666
 30
0.0
 10
3.461631944444443
 20
7.375260416666666
 30
0.0
 10
0.6538791232638889
 20
-10.7376736111111
 30
0.0
 10
0.6538791232638889
 20
-10.7376736111111
 30
0.0
 10
0.6538791232638889
 20
-10.7376736111111
 30
0.0
 10
-0.6628363715277778
 20
-10.7376736111111
 30
0.0
 10
-0.6628363715277778
 20
-10.7376736111111
 30
0.0
 10
-0.6628363715277778
 20
-10.7376736111111
 30
0.0
 10
-3.461631944444443
 20
7.375260416666666
 30
0.0
 10
-3.461631944444443
 20
7.375260416666666
 30
0.0
 10
-3.461631944444443
 20
7.375260416666666
 30
0.0
 10
-3.461631944444443
 20
6.717247178819441
 30
0.0
 10
-3.461631944444443
 20
6.717247178819441
 30
0.0
 10
-3.461631944444443
 20
6.190836588541666
 30
0.0
 10
-3.45474175347222
 20
5.389507378472222
 30
0.0
 10
-3.439583333333333
 20
4.312570529513888
 30
0.0
 10
-3.425113932291666
 20
3.235633680555555
 30
0.0
 10
-3.41753472222222
 20
2.44395073784722
 30
0.0
 10
-3.41753472222222
 20
1.936832682291665
 30
0.0
 10
-3.41753472222222
 20
1.936832682291665
 30
0.0
 10
-3.41753472222222
 20
-10.7376736111111
 30
0.0
 10
-3.41753472222222
 20
-10.7376736111111
 30
0.0
 10
-3.41753472222222
 20
-10.7376736111111
 30
0.0
 10
-4.652256944444443
 20
-10.7376736111111
 30
0.0
 10
-4.652256944444443
 20
-10.7376736111111
 30
0.0
 10
-4.652256944444443
 20
-10.7376736111111
 30
0.0
 10
-4.652256944444443
 20
10.7376736111111
 30
0.0
 10
-4.652256944444443
 20
10.7376736111111
 30
0.0
  0
ENDBLK
  5
2772
330
276F
100
AcDbEntity
  8
0
100
AcDbBlockEnd
  0
BLOCK
  5
2776
330
2773
100
AcDbEntity
  8
0
 62
     7
100
AcDbBlockBegin
  2
AI9-BLK9
 70
     0
 10
0.0
 20
0.0
 30
0.0
  3
AI9-BLK9
  1

  0
SPLINE
  5
2774
330
2773
100
AcDbEntity
  8
LAYER_1
 62
     7
100
AcDbSpline
210
0.0
220
0.0
230
1.0
 70
    11
 71
     3
 72
    29
 73
    25
 74
     0
 42
0.0000000001
 43
0.0000000001
 40
0.0
 40
0.0
 40
0.0
 40
0.0
 40
1.0
 40
1.0
 40
1.0
 40
2.0
 40
2.0
 40
2.0
 40
3.0
 40
3.0
 40
3.0
 40
4.0
 40
4.0
 40
4.0
 40
5.0
 40
5.0
 40
5.0
 40
6.0
 40
6.0
 40
6.0
 40
7.0
 40
7.0
 40
7.0
 40
8.0
 40
8.0
 40
8.0
 40
8.0
 10
0.0668348524305556
 20
-8.753298611111111
 30
0.0
 10
-0.9067491319444444
 20
-8.753298611111111
 30
0.0
 10
-1.60954861111111
 20
-7.936810980902778
 30
0.0
 10
-2.041563585069444
 20
-6.30383572048611
 30
0.0
 10
-2.474267578124999
 20
-4.670860460069443
 30
0.0
 10
-2.689930555555555
 20
-2.664436848958333
 30
0.0
 10
-2.689930555555555
 20
-0.28525390625
 30
0.0
 10
-2.689930555555555
 20
2.68855251736111
 30
0.0
 10
-2.439127604166666
 20
4.938199869791666
 30
0.0
 10
-1.937521701388888
 20
6.464377170138886
 30
0.0
 10
-1.43591579861111
 20
7.989865451388887
 30
0.0
 10
-0.7827256944444444
 20
8.753298611111111
 30
0.0
 10
0.0220486111111111
 20
8.753298611111111
 30
0.0
 10
0.8468044704861108
 20
8.753298611111111
 30
0.0
 10
1.49792751736111
 20
7.982975260416663
 30
0.0
 10
1.974728732638888
 20
6.442328559027776
 30
0.0
 10
2.451529947916665
 20
4.901681857638886
 30
0.0
 10
2.689930555555555
 20
2.868386501736111
 30
0.0
 10
2.689930555555555
 20
0.3438205295138888
 30
0.0
 10
2.689930555555555
 20
-2.045697699652774
 30
0.0
 10
2.483224826388884
 20
-4.15891927083333
 30
0.0
 10
2.071191406249999
 20
-5.996533203124998
 30
0.0
 10
1.65915798611111
 20
-7.834836154513887
 30
0.0
 10
0.9908094618055557
 20
-8.753298611111111
 30
0.0
 10
0.0668348524305556
 20
-8.753298611111111
 30
0.0
  0
SPLINE
  5
2775
330
2773
100
AcDbEntity
  8
LAYER_1
 62
     7
100
AcDbSpline
210
0.0
220
0.0
230
1.0
 70
    11
 71
     3
 72
    29
 73
    25
 74
     0
 42
0.0000000001
 43
0.0000000001
 40
0.0
 40
0.0
 40
0.0
 40
0.0
 40
1.0
 40
1.0
 40
1.0
 40
2.0
 40
2.0
 40
2.0
 40
3.0
 40
3.0
 40
3.0
 40
4.0
 40
4.0
 40
4.0
 40
5.0
 40
5.0
 40
5.0
 40
6.0
 40
6.0
 40
6.0
 40
7.0
 40
7.0
 40
7.0
 40
8.0
 40
8.0
 40
8.0
 40
8.0
 10
-0.0289388020833333
 20
11.35503472222222
 30
0.0
 10
-1.317404513888887
 20
11.35503472222222
 30
0.0
 10
-2.28892144097222
 20
10.02798394097222
 30
0.0
 10
-2.94280056423611
 20
7.374571397569441
 30
0.0
 10
-3.450607638888888
 20
5.30613606770833
 30
0.0
 10
-3.704166666666666
 20
2.81877712673611
 30
0.0
 10
-3.704166666666666
 20
-0.0881944444444445
 30
0.0
 10
-3.704166666666666
 20
-3.307291666666666
 30
0.0
 10
-3.406510416666666
 20
-5.97035047743055
 30
0.0
 10
-2.811197916666666
 20
-8.077370876736106
 30
0.0
 10
-2.147672526041664
 20
-10.26293945312499
 30
0.0
 10
-1.229899088541666
 20
-11.35503472222222
 30
0.0
 10
-0.0585666232638889
 20
-11.35503472222222
 30
0.0
 10
1.20027126736111
 20
-11.35503472222222
 30
0.0
 10
2.166276041666665
 20
-10.10653211805555
 30
0.0
 10
2.840136718749998
 20
-7.609526909722221
 30
0.0
 10
3.416156684027776
 20
-5.483213975694441
 30
0.0
 10
3.704166666666666
 20
-2.814643012152775
 30
0.0
 10
3.704166666666666
 20
0.3948079427083333
 30
0.0
 10
3.704166666666666
 20
3.360346137152776
 30
0.0
 10
3.449918619791666
 20
5.793961588541666
 30
0.0
 10
2.94280056423611
 20
7.696343315972222
 30
0.0
 10
2.298567708333333
 20
10.13547092013888
 30
0.0
 10
1.307758246527777
 20
11.35503472222222
 30
0.0
 10
-0.0289388020833333
 20
11.35503472222222
 30
0.0
  0
ENDBLK
  5
2777
330
2773
100
AcDbEntity
  8
0
100
AcDbBlockEnd
  0
BLOCK
  5
277B
330
2778
100
AcDbEntity
  8
0
 62
     7
100
AcDbBlockBegin
  2
AI9-BLK8
 70
     0
 10
0.0
 20
0.0
 30
0.0
  3
AI9-BLK8
  1

  0
LWPOLYLINE
  5
2779
330
2778
100
AcDbEntity
  8
LAYER_1
 62
     7
100
AcDbPolyline
 90
       10
 70
     1
 43
0.0
 10
-3.792361111111107
 20
10.7376736111111
 10
-2.268939887152773
 20
10.7376736111111
 10
2.557638888888888
 20
-6.505718315972222
 10
2.557638888888888
 20
10.7376736111111
 10
3.792361111111107
 20
10.7376736111111
 10
3.792361111111107
 20
-10.7376736111111
 10
2.32612847222222
 20
-10.7376736111111
 10
-2.557638888888888
 20
6.549815538194441
 10
-2.557638888888888
 20
-10.7376736111111
 10
-3.792361111111107
 20
-10.7376736111111
  0
HATCH
  5
277A
330
2778
100
AcDbEntity
  8
LAYER_1
 62
     7
100
AcDbHatch
 10
0.0
 20
0.0
 30
0.0
210
0.0
220
0.0
230
1.0
  2
SOLID
 70
     1
 71
     0
 91
        1
 92
        3
 72
     0
 73
     1
 93
       10
 10
-3.792361111111107
 20
10.7376736111111
 10
-2.268939887152773
 20
10.7376736111111
 10
2.557638888888888
 20
-6.505718315972222
 10
2.557638888888888
 20
10.7376736111111
 10
3.792361111111107
 20
10.7376736111111
 10
3.792361111111107
 20
-10.7376736111111
 10
2.32612847222222
 20
-10.7376736111111
 10
-2.557638888888888
 20
6.549815538194441
 10
-2.557638888888888
 20
-10.7376736111111
 10
-3.792361111111107
 20
-10.7376736111111
 97
        0
 75
     2
 76
     1
 98
        1
 10
0.0
 20
0.0
  0
ENDBLK
  5
277C
330
2778
100
AcDbEntity
  8
0
100
AcDbBlockEnd
  0
BLOCK
  5
2780
330
277D
100
AcDbEntity
  8
0
 62
     7
100
AcDbBlockBegin
  2
AI9-BLK7
 70
     0
 10
0.0
 20
0.0
 30
0.0
  3
AI9-BLK7
  1

  0
LWPOLYLINE
  5
277E
330
277D
100
AcDbEntity
  8
LAYER_1
 62
     7
100
AcDbPolyline
 90
        4
 70
     1
 43
0.0
 10
-0.6614583333333333
 20
10.7376736111111
 10
0.6614583333333333
 20
10.7376736111111
 10
0.6614583333333333
 20
-10.7376736111111
 10
-0.6614583333333333
 20
-10.7376736111111
  0
HATCH
  5
277F
330
277D
100
AcDbEntity
  8
LAYER_1
 62
     7
100
AcDbHatch
 10
0.0
 20
0.0
 30
0.0
210
0.0
220
0.0
230
1.0
  2
SOLID
 70
     1
 71
     0
 91
        1
 92
        3
 72
     0
 73
     1
 93
        4
 10
-0.6614583333333333
 20
10.7376736111111
 10
0.6614583333333333
 20
10.7376736111111
 10
0.6614583333333333
 20
-10.7376736111111
 10
-0.6614583333333333
 20
-10.7376736111111
 97
        0
 75
     2
 76
     1
 98
        1
 10
0.0
 20
0.0
  0
ENDBLK
  5
2781
330
277D
100
AcDbEntity
  8
0
100
AcDbBlockEnd
  0
BLOCK
  5
2784
330
2782
100
AcDbEntity
  8
0
 62
     7
100
AcDbBlockBegin
  2
AI9-BLK6
 70
     0
 10
0.0
 20
0.0
 30
0.0
  3
AI9-BLK6
  1

  0
SPLINE
  5
2783
330
2782
100
AcDbEntity
  8
LAYER_1
 62
     7
100
AcDbSpline
210
0.0
220
0.0
230
1.0
 70
    11
 71
     3
 72
    59
 73
    55
 74
     0
 42
0.0000000001
 43
0.0000000001
 40
0.0
 40
0.0
 40
0.0
 40
0.0
 40
1.0
 40
1.0
 40
1.0
 40
2.0
 40
2.0
 40
2.0
 40
3.0
 40
3.0
 40
3.0
 40
4.0
 40
4.0
 40
4.0
 40
5.0
 40
5.0
 40
5.0
 40
6.0
 40
6.0
 40
6.0
 40
7.0
 40
7.0
 40
7.0
 40
8.0
 40
8.0
 40
8.0
 40
9.0
 40
9.0
 40
9.0
 40
10.0
 40
10.0
 40
10.0
 40
11.0
 40
11.0
 40
11.0
 40
12.0
 40
12.0
 40
12.0
 40
13.0
 40
13.0
 40
13.0
 40
14.0
 40
14.0
 40
14.0
 40
15.0
 40
15.0
 40
15.0
 40
16.0
 40
16.0
 40
16.0
 40
17.0
 40
17.0
 40
17.0
 40
18.0
 40
18.0
 40
18.0
 40
18.0
 10
3.062689887152775
 20
9.168088107638887
 30
0.0
 10
3.735172526041666
 20
7.739062499999997
 30
0.0
 10
4.110687934027776
 20
6.116422526041666
 30
0.0
 10
4.189236111111108
 20
4.299479166666666
 30
0.0
 10
4.189236111111108
 20
4.299479166666666
 30
0.0
 10
2.866319444444443
 20
4.299479166666666
 30
0.0
 10
2.866319444444443
 20
4.299479166666666
 30
0.0
 10
2.720936414930555
 20
5.667871093749997
 30
0.0
 10
2.435682508680555
 20
6.752387152777776
 30
0.0
 10
2.009868706597218
 20
7.553027343749997
 30
0.0
 10
1.584054904513888
 20
8.352978515624997
 30
0.0
 10
0.9839192708333332
 20
8.753298611111111
 30
0.0
 10
0.2101508246527778
 20
8.753298611111111
 30
0.0
 10
-0.7386284722222222
 20
8.753298611111111
 30
0.0
 10
-1.503439670138888
 20
8.010536024305555
 30
0.0
 10
-2.083593749999999
 20
6.526388888888886
 30
0.0
 10
-2.664436848958333
 20
5.042241753472221
 30
0.0
 10
-2.954513888888888
 20
2.767100694444443
 30
0.0
 10
-2.954513888888888
 20
-0.2990342881944444
 30
0.0
 10
-2.954513888888888
 20
-2.811197916666666
 30
0.0
 10
-2.693375651041666
 20
-4.847938368055555
 30
0.0
 10
-2.17041015625
 20
-6.409944661458332
 30
0.0
 10
-1.648133680555553
 20
-7.972639973958332
 30
0.0
 10
-0.8640299479166666
 20
-8.753298611111111
 30
0.0
 10
0.1812120225694444
 20
-8.753298611111111
 30
0.0
 10
1.138948567708333
 20
-8.753298611111111
 30
0.0
 10
1.865174696180553
 20
-7.927853732638887
 30
0.0
 10
2.359201388888884
 20
-6.275585937499998
 30
0.0
 10
2.62998589409722
 20
-5.406043836805555
 30
0.0
 10
2.828423394097221
 20
-4.262272135416666
 30
0.0
 10
2.954513888888888
 20
-2.844270833333331
 30
0.0
 10
2.954513888888888
 20
-2.844270833333331
 30
0.0
 10
4.277430555555555
 20
-2.844270833333331
 30
0.0
 10
4.277430555555555
 20
-2.844270833333331
 30
0.0
 10
4.169943576388888
 20
-5.109765624999996
 30
0.0
 10
3.795117187499998
 20
-7.009391276041665
 30
0.0
 10
3.151573350694443
 20
-8.542458767361106
 30
0.0
 10
2.381249999999999
 20
-10.38834092881943
 30
0.0
 10
1.347721354166665
 20
-11.3109375
 30
0.0
 10
0.0509874131944445
 20
-11.3109375
 30
0.0
 10
-1.07004665798611
 20
-11.3109375
 30
0.0
 10
-2.010557725694444
 20
-10.55577256944443
 30
0.0
 10
-2.771234809027776
 20
-9.04475368923611
 30
0.0
 10
-3.775824652777775
 20
-7.046598307291666
 30
0.0
 10
-4.277430555555555
 20
-3.961170789930555
 30
0.0
 10
-4.277430555555555
 20
0.2115288628472222
 30
0.0
 10
-4.277430555555555
 20
3.379638671874998
 30
0.0
 10
-3.902604166666666
 20
5.977929687499997
 30
0.0
 10
-3.151573350694443
 20
8.005712890624996
 30
0.0
 10
-2.333018663194443
 20
10.20919596354165
 30
0.0
 10
-1.20647243923611
 20
11.3109375
 30
0.0
 10
0.2266872829861111
 20
11.3109375
 30
0.0
 10
1.444873046875
 20
11.3109375
 30
0.0
 10
2.390207248263884
 20
10.59642469618055
 30
0.0
 10
3.062689887152775
 20
9.168088107638887
 30
0.0
  0
ENDBLK
  5
2785
330
2782
100
AcDbEntity
  8
0
100
AcDbBlockEnd
  0
BLOCK
  5
2789
330
2786
100
AcDbEntity
  8
0
 62
     7
100
AcDbBlockBegin
  2
AI9-BLK5
 70
     0
 10
0.0
 20
0.0
 30
0.0
  3
AI9-BLK5
  1

  0
SPLINE
  5
2787
330
2786
100
AcDbEntity
  8
LAYER_1
 62
     7
100
AcDbSpline
210
0.0
220
0.0
230
1.0
 70
    11
 71
     3
 72
    32
 73
    28
 74
     0
 42
0.0000000001
 43
0.0000000001
 40
0.0
 40
0.0
 40
0.0
 40
0.0
 40
1.0
 40
1.0
 40
1.0
 40
2.0
 40
2.0
 40
2.0
 40
3.0
 40
3.0
 40
3.0
 40
4.0
 40
4.0
 40
4.0
 40
5.0
 40
5.0
 40
5.0
 40
6.0
 40
6.0
 40
6.0
 40
7.0
 40
7.0
 40
7.0
 40
8.0
 40
8.0
 40
8.0
 40
9.0
 40
9.0
 40
9.0
 40
9.0
 10
-2.62378472222222
 20
-8.268229166666666
 30
0.0
 10
-2.62378472222222
 20
-8.268229166666666
 30
0.0
 10
-2.62378472222222
 20
8.180034722222217
 30
0.0
 10
-2.62378472222222
 20
8.180034722222217
 30
0.0
 10
-2.62378472222222
 20
8.180034722222217
 30
0.0
 10
-0.3376193576388888
 20
8.180034722222217
 30
0.0
 10
-0.3376193576388888
 20
8.180034722222217
 30
0.0
 10
0.6972873263888888
 20
8.180034722222217
 30
0.0
 10
1.449007161458333
 20
7.445540364583332
 30
0.0
 10
1.918918185763885
 20
5.977929687499997
 30
0.0
 10
2.388829210069443
 20
4.510319010416666
 30
0.0
 10
2.62378472222222
 20
2.449462890624999
 30
0.0
 10
2.62378472222222
 20
-0.204638671875
 30
0.0
 10
2.62378472222222
 20
-0.8950358072916666
 30
0.0
 10
2.590022786458332
 20
-1.643310546874999
 30
0.0
 10
2.523187934027772
 20
-2.45015190972222
 30
0.0
 10
2.408121744791666
 20
-3.80200737847222
 30
0.0
 10
2.226220703124999
 20
-4.909950086805555
 30
0.0
 10
1.976795789930553
 20
-5.774669053819441
 30
0.0
 10
1.659847005208333
 20
-6.853672960069442
 30
0.0
 10
1.252636718749998
 20
-7.583344184027778
 30
0.0
 10
0.7544759114583333
 20
-7.962304687499997
 30
0.0
 10
0.4664659288194444
 20
-8.166254340277777
 30
0.0
 10
0.1074869791666666
 20
-8.268229166666666
 30
0.0
 10
-0.3231499565972222
 20
-8.268229166666666
 30
0.0
 10
-0.3231499565972222
 20
-8.268229166666666
 30
0.0
 10
-2.62378472222222
 20
-8.268229166666666
 30
0.0
 10
-2.62378472222222
 20
-8.268229166666666
 30
0.0
  0
SPLINE
  5
2788
330
2786
100
AcDbEntity
  8
LAYER_1
 62
     7
100
AcDbSpline
210
0.0
220
0.0
230
1.0
 70
    11
 71
     3
 72
    26
 73
    22
 74
     0
 42
0.0000000001
 43
0.0000000001
 40
0.0
 40
0.0
 40
0.0
 40
0.0
 40
1.0
 40
1.0
 40
1.0
 40
2.0
 40
2.0
 40
2.0
 40
3.0
 40
3.0
 40
3.0
 40
4.0
 40
4.0
 40
4.0
 40
5.0
 40
5.0
 40
5.0
 40
6.0
 40
6.0
 40
6.0
 40
7.0
 40
7.0
 40
7.0
 40
7.0
 10
-3.946701388888888
 20
-10.7376736111111
 30
0.0
 10
-3.946701388888888
 20
-10.7376736111111
 30
0.0
 10
-0.0943956163194444
 20
-10.7376736111111
 30
0.0
 10
-0.0943956163194444
 20
-10.7376736111111
 30
0.0
 10
1.546847873263885
 20
-10.7376736111111
 30
0.0
 10
2.705777994791666
 20
-9.11021050347222
 30
0.0
 10
3.381705729166666
 20
-5.854595269097222
 30
0.0
 10
3.757910156249999
 20
-4.01284722222222
 30
0.0
 10
3.946701388888888
 20
-1.951991102430555
 30
0.0
 10
3.946701388888888
 20
0.328662109375
 30
0.0
 10
3.946701388888888
 20
3.281797960069443
 30
0.0
 10
3.622862413194443
 20
5.703700086805552
 30
0.0
 10
2.976562499999998
 20
7.594368489583332
 30
0.0
 10
2.25171440972222
 20
9.689675564236106
 30
0.0
 10
1.233344184027777
 20
10.7376736111111
 30
0.0
 10
-0.0799262152777778
 20
10.7376736111111
 30
0.0
 10
-0.0799262152777778
 20
10.7376736111111
 30
0.0
 10
-3.946701388888888
 20
10.7376736111111
 30
0.0
 10
-3.946701388888888
 20
10.7376736111111
 30
0.0
 10
-3.946701388888888
 20
10.7376736111111
 30
0.0
 10
-3.946701388888888
 20
-10.7376736111111
 30
0.0
 10
-3.946701388888888
 20
-10.7376736111111
 30
0.0
  0
ENDBLK
  5
278A
330
2786
100
AcDbEntity
  8
0
100
AcDbBlockEnd
  0
BLOCK
  5
278E
330
278B
100
AcDbEntity
  8
0
 62
     7
100
AcDbBlockBegin
  2
AI9-BLK4
 70
     0
 10
0.0
 20
0.0
 30
0.0
  3
AI9-BLK4
  1

  0
SPLINE
  5
278C
330
278B
100
AcDbEntity
  8
LAYER_1
 62
     7
100
AcDbSpline
210
0.0
220
0.0
230
1.0
 70
    11
 71
     3
 72
    26
 73
    22
 74
     0
 42
0.0000000001
 43
0.0000000001
 40
0.0
 40
0.0
 40
0.0
 40
0.0
 40
1.0
 40
1.0
 40
1.0
 40
2.0
 40
2.0
 40
2.0
 40
3.0
 40
3.0
 40
3.0
 40
4.0
 40
4.0
 40
4.0
 40
5.0
 40
5.0
 40
5.0
 40
6.0
 40
6.0
 40
6.0
 40
7.0
 40
7.0
 40
7.0
 40
7.0
 10
-2.645833333333333
 20
0.9039930555555551
 30
0.0
 10
-2.645833333333333
 20
0.9039930555555551
 30
0.0
 10
-2.645833333333333
 20
8.180034722222217
 30
0.0
 10
-2.645833333333333
 20
8.180034722222217
 30
0.0
 10
-2.645833333333333
 20
8.180034722222217
 30
0.0
 10
0.465087890625
 20
8.180034722222217
 30
0.0
 10
0.465087890625
 20
8.180034722222217
 30
0.0
 10
0.9026150173611108
 20
8.180034722222217
 30
0.0
 10
1.24988064236111
 20
8.034651692708331
 30
0.0
 10
1.506884765625
 20
7.745263671874997
 30
0.0
 10
2.001600477430554
 20
7.194048394097221
 30
0.0
 10
2.248958333333332
 20
6.160519748263887
 30
0.0
 10
2.248958333333332
 20
4.643299696180553
 30
0.0
 10
2.248958333333332
 20
3.232188585069443
 30
0.0
 10
2.072569444444444
 20
2.256537543402775
 30
0.0
 10
1.720480685763888
 20
1.715657552083333
 30
0.0
 10
1.368391927083333
 20
1.174088541666665
 30
0.0
 10
0.8929687499999998
 20
0.9039930555555551
 30
0.0
 10
0.2942111545138888
 20
0.9039930555555551
 30
0.0
 10
0.2942111545138888
 20
0.9039930555555551
 30
0.0
 10
-2.645833333333333
 20
0.9039930555555551
 30
0.0
 10
-2.645833333333333
 20
0.9039930555555551
 30
0.0
  0
SPLINE
  5
278D
330
278B
100
AcDbEntity
  8
LAYER_1
 62
     7
100
AcDbSpline
210
0.0
220
0.0
230
1.0
 70
    11
 71
     3
 72
    68
 73
    64
 74
     0
 42
0.0000000001
 43
0.0000000001
 40
0.0
 40
0.0
 40
0.0
 40
0.0
 40
1.0
 40
1.0
 40
1.0
 40
2.0
 40
2.0
 40
2.0
 40
3.0
 40
3.0
 40
3.0
 40
4.0
 40
4.0
 40
4.0
 40
5.0
 40
5.0
 40
5.0
 40
6.0
 40
6.0
 40
6.0
 40
7.0
 40
7.0
 40
7.0
 40
8.0
 40
8.0
 40
8.0
 40
9.0
 40
9.0
 40
9.0
 40
10.0
 40
10.0
 40
10.0
 40
11.0
 40
11.0
 40
11.0
 40
12.0
 40
12.0
 40
12.0
 40
13.0
 40
13.0
 40
13.0
 40
14.0
 40
14.0
 40
14.0
 40
15.0
 40
15.0
 40
15.0
 40
16.0
 40
16.0
 40
16.0
 40
17.0
 40
17.0
 40
17.0
 40
18.0
 40
18.0
 40
18.0
 40
19.0
 40
19.0
 40
19.0
 40
20.0
 40
20.0
 40
20.0
 40
21.0
 40
21.0
 40
21.0
 40
21.0
 10
-3.968749999999998
 20
-10.7376736111111
 30
0.0
 10
-3.968749999999998
 20
-10.7376736111111
 30
0.0
 10
-2.645833333333333
 20
-10.7376736111111
 30
0.0
 10
-2.645833333333333
 20
-10.7376736111111
 30
0.0
 10
-2.645833333333333
 20
-10.7376736111111
 30
0.0
 10
-2.645833333333333
 20
-1.521354166666665
 30
0.0
 10
-2.645833333333333
 20
-1.521354166666665
 30
0.0
 10
-2.645833333333333
 20
-1.521354166666665
 30
0.0
 10
0.2390896267361111
 20
-1.521354166666665
 30
0.0
 10
0.2390896267361111
 20
-1.521354166666665
 30
0.0
 10
0.7599880642361111
 20
-1.521354166666665
 30
0.0
 10
1.143771701388887
 20
-1.65295681423611
 30
0.0
 10
1.390440538194444
 20
-1.916162109374999
 30
0.0
 10
1.816254340277773
 20
-2.39434136284722
 30
0.0
 10
2.04363064236111
 20
-3.335541449652775
 30
0.0
 10
2.072569444444444
 20
-4.739762369791666
 30
0.0
 10
2.072569444444444
 20
-4.739762369791666
 30
0.0
 10
2.160763888888888
 20
-8.324039713541665
 30
0.0
 10
2.160763888888888
 20
-8.324039713541665
 30
0.0
 10
2.18005642361111
 20
-9.163264973958332
 30
0.0
 10
2.202794053819443
 20
-9.728949652777775
 30
0.0
 10
2.227598741319444
 20
-10.02109374999998
 30
0.0
 10
2.252403428819443
 20
-10.31392686631944
 30
0.0
 10
2.28892144097222
 20
-10.55301649305555
 30
0.0
 10
2.33853081597222
 20
-10.7376736111111
 30
0.0
 10
2.33853081597222
 20
-10.7376736111111
 30
0.0
 10
3.968749999999998
 20
-10.7376736111111
 30
0.0
 10
3.968749999999998
 20
-10.7376736111111
 30
0.0
 10
3.968749999999998
 20
-10.7376736111111
 30
0.0
 10
3.968749999999998
 20
-10.25260416666666
 30
0.0
 10
3.968749999999998
 20
-10.25260416666666
 30
0.0
 10
3.766867404513888
 20
-10.05830078125
 30
0.0
 10
3.625618489583333
 20
-9.621462673611112
 30
0.0
 10
3.545692274305555
 20
-8.942089843749997
 30
0.0
 10
3.49470486111111
 20
-8.543836805555555
 30
0.0
 10
3.459564887152775
 20
-7.937499999999999
 30
0.0
 10
3.439583333333333
 20
-7.121701388888887
 30
0.0
 10
3.439583333333333
 20
-7.121701388888887
 30
0.0
 10
3.395486111111106
 20
-4.232644314236106
 30
0.0
 10
3.395486111111106
 20
-4.232644314236106
 30
0.0
 10
3.375504557291666
 20
-2.981385633680555
 30
0.0
 10
3.26870659722222
 20
-2.077392578125
 30
0.0
 10
3.075781249999999
 20
-1.522043185763888
 30
0.0
 10
2.882166883680555
 20
-0.9666937934027776
 30
0.0
 10
2.592089843749999
 20
-0.5188313802083333
 30
0.0
 10
2.204861111111104
 20
-0.1770779079861111
 30
0.0
 10
2.63618706597222
 20
0.3197048611111111
 30
0.0
 10
2.971739366319443
 20
0.9770290798611107
 30
0.0
 10
3.211518012152775
 20
1.79558376736111
 30
0.0
 10
3.451296657986107
 20
2.613449435763888
 30
0.0
 10
3.571874999999999
 20
3.66558159722222
 30
0.0
 10
3.571874999999999
 20
4.951291232638888
 30
0.0
 10
3.571874999999999
 20
7.415912543402777
 30
0.0
 10
3.124701605902775
 20
9.106076388888887
 30
0.0
 10
2.231043836805555
 20
10.02178276909722
 30
0.0
 10
1.759754774305553
 20
10.498583984375
 30
0.0
 10
1.163753255208332
 20
10.7376736111111
 30
0.0
 10
0.443039279513889
 20
10.7376736111111
 30
0.0
 10
0.443039279513889
 20
10.7376736111111
 30
0.0
 10
-3.968749999999998
 20
10.7376736111111
 30
0.0
 10
-3.968749999999998
 20
10.7376736111111
 30
0.0
 10
-3.968749999999998
 20
10.7376736111111
 30
0.0
 10
-3.968749999999998
 20
-10.7376736111111
 30
0.0
 10
-3.968749999999998
 20
-10.7376736111111
 30
0.0
  0
ENDBLK
  5
278F
330
278B
100
AcDbEntity
  8
0
100
AcDbBlockEnd
  0
BLOCK
  5
2793
330
2790
100
AcDbEntity
  8
0
 62
     7
100
AcDbBlockBegin
  2
AI9-BLK3
 70
     0
 10
0.0
 20
0.0
 30
0.0
  3
AI9-BLK3
  1

  0
LWPOLYLINE
  5
2791
330
2790
100
AcDbEntity
  8
LAYER_1
 62
     7
100
AcDbPolyline
 90
        4
 70
     1
 43
0.0
 10
-0.6613722059461809
 20
10.7376736111111
 10
0.6613722059461809
 20
10.7376736111111
 10
0.6613722059461809
 20
-10.7376736111111
 10
-0.6613722059461809
 20
-10.7376736111111
  0
HATCH
  5
2792
330
2790
100
AcDbEntity
  8
LAYER_1
 62
     7
100
AcDbHatch
 10
0.0
 20
0.0
 30
0.0
210
0.0
220
0.0
230
1.0
  2
SOLID
 70
     1
 71
     0
 91
        1
 92
        3
 72
     0
 73
     1
 93
        4
 10
-0.6613722059461809
 20
10.7376736111111
 10
0.6613722059461809
 20
10.7376736111111
 10
0.6613722059461809
 20
-10.7376736111111
 10
-0.6613722059461809
 20
-10.7376736111111
 97
        0
 75
     2
 76
     1
 98
        1
 10
0.0
 20
0.0
  0
ENDBLK
  5
2794
330
2790
100
AcDbEntity
  8
0
100
AcDbBlockEnd
  0
BLOCK
  5
2798
330
2795
100
AcDbEntity
  8
0
 62
     7
100
AcDbBlockBegin
  2
AI9-BLK2
 70
     0
 10
0.0
 20
0.0
 30
0.0
  3
AI9-BLK2
  1

  0
LWPOLYLINE
  5
2796
330
2795
100
AcDbEntity
  8
LAYER_1
 62
     7
100
AcDbPolyline
 90
        7
 70
     1
 43
0.0
 10
-2.785704210069443
 20
10.7376736111111
 10
0.0
 20
-7.550960286458332
 10
2.771234809027776
 20
10.7376736111111
 10
4.233333333333331
 20
10.7376736111111
 10
0.6910861545138888
 20
-10.7376736111111
 10
-0.7055555555555558
 20
-10.7376736111111
 10
-4.233333333333331
 20
10.7376736111111
  0
HATCH
  5
2797
330
2795
100
AcDbEntity
  8
LAYER_1
 62
     7
100
AcDbHatch
 10
0.0
 20
0.0
 30
0.0
210
0.0
220
0.0
230
1.0
  2
SOLID
 70
     1
 71
     0
 91
        1
 92
        3
 72
     0
 73
     1
 93
        7
 10
-2.785704210069443
 20
10.7376736111111
 10
0.0
 20
-7.550960286458332
 10
2.771234809027776
 20
10.7376736111111
 10
4.233333333333331
 20
10.7376736111111
 10
0.6910861545138888
 20
-10.7376736111111
 10
-0.7055555555555558
 20
-10.7376736111111
 10
-4.233333333333331
 20
10.7376736111111
 97
        0
 75
     2
 76
     1
 98
        1
 10
0.0
 20
0.0
  0
ENDBLK
  5
2799
330
2795
100
AcDbEntity
  8
0
100
AcDbBlockEnd
  0
BLOCK
  5
279D
330
279A
100
AcDbEntity
  8
0
 62
     7
100
AcDbBlockBegin
  2
AI9-BLK1
 70
     0
 10
0.0
 20
0.0
 30
0.0
  3
AI9-BLK1
  1

  0
LWPOLYLINE
  5
279B
330
279A
100
AcDbEntity
  8
LAYER_1
 62
     7
100
AcDbPolyline
 90
       12
 70
     1
 43
0.0
 10
-3.571874999999999
 20
10.7376736111111
 10
3.483680555555555
 20
10.7376736111111
 10
3.483680555555555
 20
8.091840277777777
 10
-2.248958333333332
 20
8.091840277777777
 10
-2.248958333333332
 20
1.565451388888888
 10
3.042708333333333
 20
1.565451388888888
 10
3.042708333333333
 20
-0.9039930555555551
 10
-2.248958333333332
 20
-0.9039930555555551
 10
-2.248958333333332
 20
-8.180034722222217
 10
3.571874999999999
 20
-8.180034722222217
 10
3.571874999999999
 20
-10.7376736111111
 10
-3.571874999999999
 20
-10.7376736111111
  0
HATCH
  5
279C
330
279A
100
AcDbEntity
  8
LAYER_1
 62
     7
100
AcDbHatch
 10
0.0
 20
0.0
 30
0.0
210
0.0
220
0.0
230
1.0
  2
SOLID
 70
     1
 71
     0
 91
        1
 92
        3
 72
     0
 73
     1
 93
       12
 10
-3.571874999999999
 20
10.7376736111111
 10
3.483680555555555
 20
10.7376736111111
 10
3.483680555555555
 20
8.091840277777777
 10
-2.248958333333332
 20
8.091840277777777
 10
-2.248958333333332
 20
1.565451388888888
 10
3.042708333333333
 20
1.565451388888888
 10
3.042708333333333
 20
-0.9039930555555551
 10
-2.248958333333332
 20
-0.9039930555555551
 10
-2.248958333333332
 20
-8.180034722222217
 10
3.571874999999999
 20
-8.180034722222217
 10
3.571874999999999
 20
-10.7376736111111
 10
-3.571874999999999
 20
-10.7376736111111
 97
        0
 75
     2
 76
     1
 98
        1
 10
0.0
 20
0.0
  0
ENDBLK
  5
279E
330
279A
100
AcDbEntity
  8
0
100
AcDbBlockEnd
  0
BLOCK
  5
27C2
330
279F
100
AcDbEntity
  8
0
100
AcDbBlockBegin
  2
HD_LLC_logo_OT5
 70
     0
 10
0.0
 20
0.0
 30
0.0
  3
HD_LLC_logo_OT5
  1

  0
SPLINE
  5
27A0
102
{ACAD_REACTORS
330
27C0
102
}
330
279F
100
AcDbEntity
  8
LAYER_1
 62
     7
100
AcDbSpline
210
0.0
220
0.0
230
1.0
 70
    11
 71
     3
 72
   113
 73
   109
 74
     0
 42
0.0000000001
 43
0.0000000001
 40
0.0
 40
0.0
 40
0.0
 40
0.0
 40
1.0
 40
1.0
 40
1.0
 40
2.0
 40
2.0
 40
2.0
 40
3.0
 40
3.0
 40
3.0
 40
4.0
 40
4.0
 40
4.0
 40
5.0
 40
5.0
 40
5.0
 40
6.0
 40
6.0
 40
6.0
 40
7.0
 40
7.0
 40
7.0
 40
8.0
 40
8.0
 40
8.0
 40
9.0
 40
9.0
 40
9.0
 40
10.0
 40
10.0
 40
10.0
 40
11.0
 40
11.0
 40
11.0
 40
12.0
 40
12.0
 40
12.0
 40
13.0
 40
13.0
 40
13.0
 40
14.0
 40
14.0
 40
14.0
 40
15.0
 40
15.0
 40
15.0
 40
16.0
 40
16.0
 40
16.0
 40
17.0
 40
17.0
 40
17.0
 40
18.0
 40
18.0
 40
18.0
 40
19.0
 40
19.0
 40
19.0
 40
20.0
 40
20.0
 40
20.0
 40
21.0
 40
21.0
 40
21.0
 40
22.0
 40
22.0
 40
22.0
 40
23.0
 40
23.0
 40
23.0
 40
24.0
 40
24.0
 40
24.0
 40
25.0
 40
25.0
 40
25.0
 40
26.0
 40
26.0
 40
26.0
 40
27.0
 40
27.0
 40
27.0
 40
28.0
 40
28.0
 40
28.0
 40
29.0
 40
29.0
 40
29.0
 40
30.0
 40
30.0
 40
30.0
 40
31.0
 40
31.0
 40
31.0
 40
32.0
 40
32.0
 40
32.0
 40
33.0
 40
33.0
 40
33.0
 40
34.0
 40
34.0
 40
34.0
 40
35.0
 40
35.0
 40
35.0
 40
36.0
 40
36.0
 40
36.0
 40
36.0
 10
193.3039632161458
 20
186.1548733181423
 30
0.0
 10
193.3039632161458
 20
186.1860514322916
 30
0.0
 10
193.3039632161458
 20
219.6932223849826
 30
0.0
 10
193.3039632161458
 20
219.6932223849826
 30
0.0
 10
193.3039632161458
 20
219.6932223849826
 30
0.0
 10
193.2974175347219
 20
219.7488606770833
 30
0.0
 10
193.2974175347219
 20
219.7488606770833
 30
0.0
 10
191.5293945312499
 20
235.455740017361
 30
0.0
 10
175.1458984374999
 20
235.2467949761284
 30
0.0
 10
174.9808783637151
 20
235.2428331163193
 30
0.0
 10
174.9808783637151
 20
235.2428331163193
 30
0.0
 10
125.8827555338541
 20
235.2430053710937
 30
0.0
 10
125.8827555338541
 20
235.2430053710937
 30
0.0
 10
125.8827555338541
 20
235.2430053710937
 30
0.0
 10
125.8827555338541
 20
255.5278998480901
 30
0.0
 10
125.8827555338541
 20
255.5278998480901
 30
0.0
 10
125.8827555338541
 20
255.5278998480901
 30
0.0
 10
84.5626247829861
 20
255.5278998480901
 30
0.0
 10
84.5626247829861
 20
255.5278998480901
 30
0.0
 10
84.5626247829861
 20
255.5278998480901
 30
0.0
 10
84.55711263020829
 20
233.7919311523436
 30
0.0
 10
84.55711263020829
 20
233.7919311523436
 30
0.0
 10
84.55711263020829
 20
233.7919311523436
 30
0.0
 10
64.42052951388888
 20
233.7919311523436
 30
0.0
 10
64.42052951388888
 20
233.7919311523436
 30
0.0
 10
64.42052951388888
 20
233.7919311523436
 30
0.0
 10
64.41501736111111
 20
255.5278998480901
 30
0.0
 10
64.41501736111111
 20
255.5278998480901
 30
0.0
 10
64.41501736111111
 20
255.5278998480901
 30
0.0
 10
23.91757541232637
 20
255.5278998480901
 30
0.0
 10
23.91757541232637
 20
255.5278998480901
 30
0.0
 10
23.91757541232637
 20
255.5278998480901
 30
0.0
 10
23.91757541232637
 20
233.2393378363715
 30
0.0
 10
23.91757541232637
 20
233.2393378363715
 30
0.0
 10
23.91757541232637
 20
233.2393378363715
 30
0.0
 10
43.65624999999999
 20
233.2393378363715
 30
0.0
 10
43.65624999999999
 20
233.2393378363715
 30
0.0
 10
43.65624999999999
 20
233.2393378363715
 30
0.0
 10
43.65624999999999
 20
211.5188720703125
 30
0.0
 10
43.65624999999999
 20
211.5188720703125
 30
0.0
 10
43.65624999999999
 20
211.5188720703125
 30
0.0
 10
23.91757541232637
 20
211.5188720703125
 30
0.0
 10
23.91757541232637
 20
211.5188720703125
 30
0.0
 10
23.91757541232637
 20
211.5188720703125
 30
0.0
 10
23.91757541232637
 20
189.2303100585936
 30
0.0
 10
23.91757541232637
 20
189.2303100585936
 30
0.0
 10
23.91757541232637
 20
189.2303100585936
 30
0.0
 10
64.41501736111111
 20
189.2303100585936
 30
0.0
 10
64.41501736111111
 20
189.2303100585936
 30
0.0
 10
64.41501736111111
 20
189.2303100585936
 30
0.0
 10
64.42052951388888
 20
211.069976128472
 30
0.0
 10
64.42052951388888
 20
211.069976128472
 30
0.0
 10
64.42052951388888
 20
211.069976128472
 30
0.0
 10
84.55711263020829
 20
211.069976128472
 30
0.0
 10
84.55711263020829
 20
211.069976128472
 30
0.0
 10
84.55711263020829
 20
211.069976128472
 30
0.0
 10
84.5626247829861
 20
189.2303100585936
 30
0.0
 10
84.5626247829861
 20
189.2303100585936
 30
0.0
 10
84.5626247829861
 20
189.2303100585936
 30
0.0
 10
125.8827555338541
 20
189.2303100585936
 30
0.0
 10
125.8827555338541
 20
189.2303100585936
 30
0.0
 10
125.8827555338541
 20
189.2303100585936
 30
0.0
 10
125.8827555338541
 20
211.5188720703125
 30
0.0
 10
125.8827555338541
 20
211.5188720703125
 30
0.0
 10
125.8827555338541
 20
211.5188720703125
 30
0.0
 10
105.3213921440971
 20
211.5188720703125
 30
0.0
 10
105.3213921440971
 20
211.5188720703125
 30
0.0
 10
105.3213921440971
 20
211.5188720703125
 30
0.0
 10
105.3213921440971
 20
233.2393378363715
 30
0.0
 10
105.3213921440971
 20
233.2393378363715
 30
0.0
 10
105.3213921440971
 20
233.2393378363715
 30
0.0
 10
175.0046495225693
 20
233.243127441406
 30
0.0
 10
175.0046495225693
 20
233.243127441406
 30
0.0
 10
175.6268337673611
 20
233.2560465494791
 30
0.0
 10
189.7165852864583
 20
233.3962619357638
 30
0.0
 10
191.3037407769094
 20
219.5690266927083
 30
0.0
 10
191.3037407769094
 20
219.4332899305555
 30
0.0
 10
191.3037407769094
 20
186.1142211914062
 30
0.0
 10
191.3037407769094
 20
186.1142211914062
 30
0.0
 10
191.3037407769094
 20
186.1142211914062
 30
0.0
 10
191.3051188151039
 20
186.0880384657115
 30
0.0
 10
191.3051188151039
 20
186.0880384657115
 30
0.0
 10
191.3054633246526
 20
186.0787367078991
 30
0.0
 10
191.3109754774304
 20
185.9566080729166
 30
0.0
 10
191.3109754774304
 20
185.7399115668401
 30
0.0
 10
191.3109754774304
 20
184.2090833875865
 30
0.0
 10
191.0488037109374
 20
177.9643310546874
 30
0.0
 10
186.9866916232638
 20
173.5652886284722
 30
0.0
 10
184.2540418836804
 20
170.6064683702255
 30
0.0
 10
180.3224989149304
 20
169.0308539496526
 30
0.0
 10
175.300927734375
 20
168.8825425889756
 30
0.0
 10
175.300927734375
 20
168.8825425889756
 30
0.0
 10
107.0094889322916
 20
168.8828870985243
 30
0.0
 10
107.0094889322916
 20
168.8828870985243
 30
0.0
 10
107.0094889322916
 20
168.8828870985243
 30
0.0
 10
107.0094889322916
 20
166.8830091688368
 30
0.0
 10
107.0094889322916
 20
166.8830091688368
 30
0.0
 10
107.0094889322916
 20
166.8830091688368
 30
0.0
 10
175.3305555555555
 20
166.8830091688368
 30
0.0
 10
175.3305555555555
 20
166.8830091688368
 30
0.0
 10
180.9467502170138
 20
167.0485460069444
 30
0.0
 10
185.3571614583333
 20
168.8448187934026
 30
0.0
 10
188.4687717013888
 20
172.2223904079861
 30
0.0
 10
192.9649658203124
 20
177.1034016927083
 30
0.0
 10
193.3136094835069
 20
183.7202243381076
 30
0.0
 10
193.3136094835069
 20
185.6520616319443
 30
0.0
 10
193.3136094835069
 20
185.9247409396701
 30
0.0
 10
193.3070638020833
 20
186.0868326822916
 30
0.0
 10
193.3039632161458
 20
186.1548733181423
 30
0.0
  0
INSERT
  5
27A1
102
{ACAD_REACTORS
330
27C1
102
}
330
279F
100
AcDbEntity
  8
LAYER_1
 62
     7
100
AcDbBlockReference
  2
AI9-BLK14
 10
159.5625257703993
 20
200.5118781195744
 30
0.0
  0
INSERT
  5
27A2
330
279F
100
AcDbEntity
  8
LAYER_1
 62
     7
100
AcDbBlockReference
  2
AI9-BLK13
 10
27.69615614149305
 20
179.2145562065971
 30
0.0
 42
0.9200000000000001
  0
INSERT
  5
27A3
102
{ACAD_REACTORS
330
27AE
102
}
330
279F
100
AcDbEntity
  8
LAYER_1
 62
     7
100
AcDbBlockReference
  2
AI9-BLK11
 10
44.76591525607638
 20
179.2145562065971
 30
0.0
 42
0.9200000000000001
  0
INSERT
  5
27A4
102
{ACAD_REACTORS
330
27BC
102
}
330
279F
100
AcDbEntity
  8
LAYER_1
 62
     7
100
AcDbBlockReference
  2
AI9-BLK10
 10
54.04665798611111
 20
179.2145562065971
 30
0.0
 42
0.9200000000000001
  0
INSERT
  5
27A5
102
{ACAD_REACTORS
330
27BB
102
}
330
279F
100
AcDbEntity
  8
LAYER_1
 62
     7
100
AcDbBlockReference
  2
AI9-BLK9
 10
62.79013807508679
 20
179.2145562065971
 30
0.0
 42
0.9
  0
INSERT
  5
27A6
330
279F
100
AcDbEntity
  8
LAYER_1
 62
     7
100
AcDbBlockReference
  2
AI9-BLK8
 10
71.03046196831595
 20
179.2145562065971
 30
0.0
 42
0.9200000000000001
  0
INSERT
  5
27A7
330
279F
100
AcDbEntity
  8
LAYER_1
 62
     7
100
AcDbBlockReference
  2
AI9-BLK7
 10
76.93793945312498
 20
179.2145562065971
 30
0.0
 42
0.9200000000000001
  0
INSERT
  5
27A8
102
{ACAD_REACTORS
330
27AF
102
}
330
279F
100
AcDbEntity
  8
LAYER_1
 62
     7
100
AcDbBlockReference
  2
AI9-BLK6
 10
82.55602891710069
 20
179.2145562065971
 30
0.0
 42
0.9
  0
INSERT
  5
27A9
102
{ACAD_REACTORS
330
27BD
102
}
330
279F
100
AcDbEntity
  8
LAYER_1
 62
     7
100
AcDbBlockReference
  2
AI9-BLK5
 10
94.32430284288193
 20
179.2145562065971
 30
0.0
 42
0.9200000000000001
  0
INSERT
  5
27AA
102
{ACAD_REACTORS
330
27BE
102
}
330
279F
100
AcDbEntity
  8
LAYER_1
 62
     7
100
AcDbBlockReference
  2
AI9-BLK4
 10
103.2081705729166
 20
179.2145562065971
 30
0.0
 42
0.9200000000000001
  0
INSERT
  5
27AB
330
279F
100
AcDbEntity
  8
LAYER_1
 62
     7
100
AcDbBlockReference
  2
AI9-BLK3
 10
108.850978597005
 20
179.2145562065971
 30
0.0
 42
0.9200000000000001
  0
INSERT
  5
27AC
330
279F
100
AcDbEntity
  8
LAYER_1
 62
     7
100
AcDbBlockReference
  2
AI9-BLK2
 10
114.2045708550346
 20
179.2145562065971
 30
0.0
 42
0.9200000000000001
  0
INSERT
  5
27AD
330
279F
100
AcDbEntity
  8
LAYER_1
 62
     7
100
AcDbBlockReference
  2
AI9-BLK1
 10
122.4125108506944
 20
179.2145562065971
 30
0.0
 42
0.9200000000000001
  0
HATCH
  5
27AE
330
279F
100
AcDbEntity
  8
0
  6
Continuous
100
AcDbHatch
 10
0.0
 20
0.0
 30
0.0
210
0.0
220
0.0
230
1.0
  2
SOLID
 70
     1
 71
     1
 91
        2
 92
       16
 93
        1
 72
     4
 94
        3
 73
     0
 74
     0
 95
       26
 96
       22
 40
0.0
 40
0.0
 40
0.0
 40
0.0
 40
1.0
 40
1.0
 40
1.0
 40
2.0
 40
2.0
 40
2.0
 40
3.0
 40
3.0
 40
3.0
 40
4.0
 40
4.0
 40
4.0
 40
5.0
 40
5.0
 40
5.0
 40
6.0
 40
6.0
 40
6.0
 40
7.0
 40
7.0
 40
7.0
 40
7.0
 10
42.12008192274304
 20
180.046229817708
 10
42.12008192274304
 20
180.046229817708
 10
42.12008192274304
 20
186.7401881510414
 10
42.12008192274304
 20
186.7401881510414
 10
42.12008192274304
 20
186.7401881510414
 10
45.23100314670138
 20
186.7401881510414
 10
45.23100314670138
 20
186.7401881510414
 10
45.66853027343749
 20
186.7401881510414
 10
46.01579589843749
 20
186.6064357638887
 10
46.27280002170138
 20
186.3401987847216
 10
46.76751573350694
 20
185.8330807291664
 10
47.01487358940972
 20
184.8822343749995
 10
47.01487358940972
 20
183.4863919270832
 10
47.01487358940972
 20
182.188169704861
 10
46.83848470052082
 20
181.2905707465276
 10
46.48639594184028
 20
180.7929611545137
 10
46.13430718315971
 20
180.2947176649304
 10
45.65888400607638
 20
180.046229817708
 10
45.06012641059028
 20
180.046229817708
 10
45.06012641059028
 20
180.046229817708
 10
42.12008192274304
 20
180.046229817708
 10
42.12008192274304
 20
180.046229817708
 97
        1
330
27A3
 92
        1
 93
        1
 72
     4
 94
        3
 73
     0
 74
     0
 95
       68
 96
       64
 40
0.0
 40
0.0
 40
0.0
 40
0.0
 40
1.0
 40
1.0
 40
1.0
 40
2.0
 40
2.0
 40
2.0
 40
3.0
 40
3.0
 40
3.0
 40
4.0
 40
4.0
 40
4.0
 40
5.0
 40
5.0
 40
5.0
 40
6.0
 40
6.0
 40
6.0
 40
7.0
 40
7.0
 40
7.0
 40
8.0
 40
8.0
 40
8.0
 40
9.0
 40
9.0
 40
9.0
 40
10.0
 40
10.0
 40
10.0
 40
11.0
 40
11.0
 40
11.0
 40
12.0
 40
12.0
 40
12.0
 40
13.0
 40
13.0
 40
13.0
 40
14.0
 40
14.0
 40
14.0
 40
15.0
 40
15.0
 40
15.0
 40
16.0
 40
16.0
 40
16.0
 40
17.0
 40
17.0
 40
17.0
 40
18.0
 40
18.0
 40
18.0
 40
19.0
 40
19.0
 40
19.0
 40
20.0
 40
20.0
 40
20.0
 40
21.0
 40
21.0
 40
21.0
 40
21.0
 10
40.79716525607638
 20
169.3358964843748
 10
40.79716525607638
 20
169.3358964843748
 10
42.12008192274304
 20
169.3358964843748
 10
42.12008192274304
 20
169.3358964843748
 10
42.12008192274304
 20
169.3358964843748
 10
42.12008192274304
 20
177.8149103732637
 10
42.12008192274304
 20
177.8149103732637
 10
42.12008192274304
 20
177.8149103732637
 10
45.00500488281249
 20
177.8149103732637
 10
45.00500488281249
 20
177.8149103732637
 10
45.52590332031249
 20
177.8149103732637
 10
45.90968695746528
 20
177.6938359374998
 10
46.15635579427083
 20
177.4516870659717
 10
46.58216959635415
 20
177.0117621527776
 10
46.80954589843749
 20
176.1458580729164
 10
46.83848470052082
 20
174.8539748263887
 10
46.83848470052082
 20
174.8539748263887
 10
46.92667914496527
 20
171.5564396701385
 10
46.92667914496527
 20
171.5564396701385
 10
46.94597167968749
 20
170.7843524305554
 10
46.96870930989581
 20
170.2639225260415
 10
46.99351399739582
 20
169.9951499565971
 10
47.01831868489581
 20
169.725743489583
 10
47.0548366970486
 20
169.5057810329859
 10
47.10444607204859
 20
169.3358964843748
 10
47.10444607204859
 20
169.3358964843748
 10
48.73466525607638
 20
169.3358964843748
 10
48.73466525607638
 20
169.3358964843748
 10
48.73466525607638
 20
169.3358964843748
 10
48.73466525607638
 20
169.7821603732633
 10
48.73466525607638
 20
169.7821603732633
 10
48.53278266059028
 20
169.9609194878471
 10
48.39153374565971
 20
170.3628105468748
 10
48.31160753038194
 20
170.9878335503471
 10
48.26062011718749
 20
171.3542263454858
 10
48.22548014322915
 20
171.9120562065971
 10
48.20549858940971
 20
172.6625909288193
 10
48.20549858940971
 20
172.6625909288193
 10
48.16140136718749
 20
175.3205234374999
 10
48.16140136718749
 20
175.3205234374999
 10
48.14141981336803
 20
176.4716814236109
 10
48.03462185329859
 20
177.3033550347219
 10
47.84169650607638
 20
177.814276475694
 10
47.64808213975693
 20
178.3251979166665
 10
47.35800509982638
 20
178.7372313368054
 10
46.97077636718749
 20
179.0516445312498
 10
47.4021023220486
 20
179.5086846788193
 10
47.73765462239582
 20
180.1134229600693
 10
47.97743326822915
 20
180.866493272569
 10
48.21721191406249
 20
181.6189296874999
 10
48.33779025607638
 20
182.5868912760411
 10
48.33779025607638
 20
183.7697441406248
 10
48.33779025607638
 20
186.0371957465273
 10
47.89061686197913
 20
187.5921464843749
 10
46.99695909288194
 20
188.4345963541665
 10
46.52567003038194
 20
188.8732534722221
 10
45.92966851128472
 20
189.0932159288193
 10
45.20895453559027
 20
189.0932159288193
 10
45.20895453559027
 20
189.0932159288193
 10
40.79716525607638
 20
189.0932159288193
 10
40.79716525607638
 20
189.0932159288193
 10
40.79716525607638
 20
189.0932159288193
 10
40.79716525607638
 20
169.3358964843748
 10
40.79716525607638
 20
169.3358964843748
 97
        0
 75
     0
 76
     1
 98
        0
  0
HATCH
  5
27AF
330
279F
100
AcDbEntity
  8
0
  6
Continuous
100
AcDbHatch
 10
0.0
 20
0.0
 30
0.0
210
0.0
220
0.0
230
1.0
  2
SOLID
 70
     1
 71
     1
 91
        1
 92
        1
 93
        1
 72
     4
 94
        3
 73
     0
 74
     0
 95
       59
 96
       55
 40
0.0
 40
0.0
 40
0.0
 40
0.0
 40
1.0
 40
1.0
 40
1.0
 40
2.0
 40
2.0
 40
2.0
 40
3.0
 40
3.0
 40
3.0
 40
4.0
 40
4.0
 40
4.0
 40
5.0
 40
5.0
 40
5.0
 40
6.0
 40
6.0
 40
6.0
 40
7.0
 40
7.0
 40
7.0
 40
8.0
 40
8.0
 40
8.0
 40
9.0
 40
9.0
 40
9.0
 40
10.0
 40
10.0
 40
10.0
 40
11.0
 40
11.0
 40
11.0
 40
12.0
 40
12.0
 40
12.0
 40
13.0
 40
13.0
 40
13.0
 40
14.0
 40
14.0
 40
14.0
 40
15.0
 40
15.0
 40
15.0
 40
16.0
 40
16.0
 40
16.0
 40
17.0
 40
17.0
 40
17.0
 40
18.0
 40
18.0
 40
18.0
 40
18.0
 10
85.61871880425345
 20
187.4658355034721
 10
86.29120144314232
 20
186.1797124565971
 10
86.66671685112847
 20
184.7193364800346
 10
86.7452650282118
 20
183.0840874565969
 10
86.7452650282118
 20
183.0840874565969
 10
85.42234836154511
 20
183.0840874565969
 10
85.42234836154511
 20
183.0840874565969
 10
85.27696533203123
 20
184.3156401909719
 10
84.99171142578125
 20
185.2917046440971
 10
84.56589762369791
 20
186.0122808159719
 10
84.14008382161458
 20
186.7322368706594
 10
83.53994818793401
 20
187.0925249565969
 10
82.76617974175342
 20
187.0925249565969
 10
81.81740044487847
 20
187.0925249565969
 10
81.05258924696178
 20
186.4240386284721
 10
80.47243516710068
 20
185.0883062065971
 10
79.89159206814234
 20
183.7525737847219
 10
79.6015150282118
 20
181.7049468315971
 10
79.6015150282118
 20
178.9454253472221
 10
79.6015150282118
 20
176.6844780815969
 10
79.86265326605901
 20
174.8514116753471
 10
80.38561876085069
 20
173.4456060112846
 10
80.90789523654512
 20
172.0391802300344
 10
81.69199896918403
 20
171.3365874565971
 10
82.73724093967013
 20
171.3365874565971
 10
83.69497748480901
 20
171.3365874565971
 10
84.42120361328125
 20
172.0794878472221
 10
84.91523030598958
 20
173.5665288628469
 10
85.18601481119791
 20
174.3491167534719
 10
85.38445231119791
 20
175.3785112847221
 10
85.51054280598959
 20
176.6547124565971
 10
85.51054280598959
 20
176.6547124565971
 10
86.83345947265625
 20
176.6547124565971
 10
86.83345947265625
 20
176.6547124565971
 10
86.72597249348957
 20
174.6157671440971
 10
86.35114610460069
 20
172.9061040581596
 10
85.70760226779514
 20
171.526343315972
 10
84.93727891710069
 20
169.8650493706596
 10
83.90375027126735
 20
169.0347124565971
 10
82.60701633029514
 20
169.0347124565971
 10
81.48598225911458
 20
169.0347124565971
 10
80.54547119140625
 20
169.7143608940971
 10
79.78479410807292
 20
171.0742778862845
 10
78.78020426432292
 20
172.8726177300344
 10
78.27859836154512
 20
175.6495024956596
 10
78.27859836154512
 20
179.4049321831594
 10
78.27859836154512
 20
182.2562310112846
 10
78.65342475043402
 20
184.5946929253469
 10
79.40445556640622
 20
186.4196978081596
 10
80.22301025390625
 20
188.4028325737846
 10
81.34955647786458
 20
189.3943999565971
 10
82.78271620008679
 20
189.3943999565971
 10
84.00090196397568
 20
189.3943999565971
 10
84.94623616536458
 20
188.7513384331594
 10
85.61871880425345
 20
187.4658355034721
 97
        1
330
27A8
 75
     0
 76
     1
 98
        1
 10
0.0
 20
0.0
  0
LINE
  5
27B0
102
{ACAD_REACTORS
330
27BF
102
}
330
279F
100
AcDbEntity
  8
LAYER_1
 62
     7
100
AcDbLine
 10
34.65766059027778
 20
177.4497853732638
 30
0.0
 11
36.19830729166666
 21
186.1658769531249
 31
0.0
  0
LINE
  5
27B1
102
{ACAD_REACTORS
330
27BF
102
}
330
279F
100
AcDbEntity
  8
LAYER_1
 62
     7
100
AcDbLine
 10
36.19830729166666
 20
186.1658769531249
 30
0.0
 11
37.67556423611111
 21
177.4497853732638
 31
0.0
  0
LINE
  5
27B2
102
{ACAD_REACTORS
330
27BF
102
}
330
279F
100
AcDbEntity
  8
LAYER_1
 62
     7
100
AcDbLine
 10
37.67556423611111
 20
177.4497853732638
 30
0.0
 11
34.65766059027778
 21
177.4497853732638
 31
0.0
  0
LINE
  5
27B3
102
{ACAD_REACTORS
330
27BF
102
}
330
279F
100
AcDbEntity
  8
LAYER_1
 62
     7
100
AcDbLine
 10
31.83957248263888
 20
169.3358964843748
 30
0.0
 11
33.22450086805555
 21
169.3358964843748
 31
0.0
  0
LINE
  5
27B4
102
{ACAD_REACTORS
330
27BF
102
}
330
279F
100
AcDbEntity
  8
LAYER_1
 62
     7
100
AcDbLine
 10
33.22450086805555
 20
169.3358964843748
 30
0.0
 11
34.27043185763887
 21
175.2590353732638
 31
0.0
  0
LINE
  5
27B5
102
{ACAD_REACTORS
330
27BF
102
}
330
279F
100
AcDbEntity
  8
LAYER_1
 62
     7
100
AcDbLine
 10
34.27043185763887
 20
175.2590353732638
 30
0.0
 11
38.04694552951389
 21
175.2590353732638
 31
0.0
  0
LINE
  5
27B6
102
{ACAD_REACTORS
330
27BF
102
}
330
279F
100
AcDbEntity
  8
LAYER_1
 62
     7
100
AcDbLine
 10
38.04694552951389
 20
175.2590353732638
 30
0.0
 11
39.05015733506942
 21
169.3358964843748
 31
0.0
  0
LINE
  5
27B7
102
{ACAD_REACTORS
330
27BF
102
}
330
279F
100
AcDbEntity
  8
LAYER_1
 62
     7
100
AcDbLine
 10
39.05015733506942
 20
169.3358964843748
 30
0.0
 11
40.43508572048611
 21
169.3358964843748
 31
0.0
  0
LINE
  5
27B8
102
{ACAD_REACTORS
330
27BF
102
}
330
279F
100
AcDbEntity
  8
LAYER_1
 62
     7
100
AcDbLine
 10
40.43508572048611
 20
169.3358964843748
 30
0.0
 11
36.952783203125
 21
189.0932159288193
 31
0.0
  0
LINE
  5
27B9
102
{ACAD_REACTORS
330
27BF
102
}
330
279F
100
AcDbEntity
  8
LAYER_1
 62
     7
100
AcDbLine
 10
36.952783203125
 20
189.0932159288193
 30
0.0
 11
35.47828233506943
 21
189.0932159288193
 31
0.0
  0
LINE
  5
27BA
102
{ACAD_REACTORS
330
27BF
102
}
330
279F
100
AcDbEntity
  8
LAYER_1
 62
     7
100
AcDbLine
 10
35.47828233506943
 20
189.0932159288193
 30
0.0
 11
31.83957248263888
 21
169.3358964843748
 31
0.0
  0
HATCH
  5
27BB
330
279F
100
AcDbEntity
  8
0
  6
Continuous
100
AcDbHatch
 10
0.0
 20
0.0
 30
0.0
210
0.0
220
0.0
230
1.0
  2
SOLID
 70
     1
 71
     1
 91
        2
 92
       16
 93
        1
 72
     4
 94
        3
 73
     0
 74
     0
 95
       29
 96
       25
 40
0.0
 40
0.0
 40
0.0
 40
0.0
 40
1.0
 40
1.0
 40
1.0
 40
2.0
 40
2.0
 40
2.0
 40
3.0
 40
3.0
 40
3.0
 40
4.0
 40
4.0
 40
4.0
 40
5.0
 40
5.0
 40
5.0
 40
6.0
 40
6.0
 40
6.0
 40
7.0
 40
7.0
 40
7.0
 40
8.0
 40
8.0
 40
8.0
 40
8.0
 10
62.85697292751734
 20
171.3365874565971
 10
61.88338894314235
 20
171.3365874565971
 10
61.18058946397566
 20
172.0714263237844
 10
60.74857449001735
 20
173.5411040581594
 10
60.31587049696178
 20
175.0107817925344
 10
60.10020751953123
 20
176.8165630425341
 10
60.10020751953123
 20
178.9578276909721
 10
60.10020751953123
 20
181.6342534722221
 10
60.35101047092013
 20
183.6589360894094
 10
60.85261637369789
 20
185.0324956597219
 10
61.35422227647566
 20
186.4054351128471
 10
62.00741238064235
 20
187.0925249565969
 10
62.81218668619789
 20
187.0925249565969
 10
63.6369425455729
 20
187.0925249565969
 10
64.28806559244789
 20
186.3992339409721
 10
64.76486680772568
 20
185.0126519097221
 10
65.24166802300347
 20
183.6260698784719
 10
65.48006863064235
 20
181.7961040581594
 10
65.48006863064235
 20
179.5239946831596
 10
65.48006863064235
 20
177.3734282769096
 10
65.27336290147568
 20
175.4715288628467
 10
64.86132948133678
 20
173.8176763237846
 10
64.4492960611979
 20
172.1632036675344
 10
63.78094753689235
 20
171.3365874565971
 10
62.85697292751734
 20
171.3365874565971
 97
        1
330
27A5
 92
        1
 93
        1
 72
     4
 94
        3
 73
     0
 74
     0
 95
       29
 96
       25
 40
0.0
 40
0.0
 40
0.0
 40
0.0
 40
1.0
 40
1.0
 40
1.0
 40
2.0
 40
2.0
 40
2.0
 40
3.0
 40
3.0
 40
3.0
 40
4.0
 40
4.0
 40
4.0
 40
5.0
 40
5.0
 40
5.0
 40
6.0
 40
6.0
 40
6.0
 40
7.0
 40
7.0
 40
7.0
 40
8.0
 40
8.0
 40
8.0
 40
8.0
 10
62.76119927300346
 20
189.4340874565971
 10
61.47273356119789
 20
189.4340874565971
 10
60.50121663411457
 20
188.2397417534719
 10
59.84733751085068
 20
185.8516704644094
 10
59.3395304361979
 20
183.9900786675344
 10
59.08597140842012
 20
181.7514556206596
 10
59.08597140842012
 20
179.1351812065971
 10
59.08597140842012
 20
176.2379937065971
 10
59.3836276584201
 20
173.8412407769094
 10
59.9789401584201
 20
171.9449224175346
 10
60.6424655490451
 20
169.9779106987846
 10
61.5602389865451
 20
168.9950249565971
 10
62.7315714518229
 20
168.9950249565971
 10
63.9904093424479
 20
168.9950249565971
 10
64.95641411675345
 20
170.1186773003469
 10
65.63027479383679
 20
172.3659819878471
 10
66.20629475911457
 20
174.2796636284719
 10
66.49430474175345
 20
176.6813774956591
 10
66.49430474175345
 20
179.5698833550344
 10
66.49430474175345
 20
182.2388677300341
 10
66.24005669487845
 20
184.4291216362844
 10
65.73293863932289
 20
186.1412651909719
 10
65.08870578342011
 20
188.3364800347219
 10
64.09789632161457
 20
189.4340874565971
 10
62.76119927300346
 20
189.4340874565971
 97
        0
 75
     0
 76
     1
 98
        0
  0
HATCH
  5
27BC
330
279F
100
AcDbEntity
  8
0
  6
Continuous
100
AcDbHatch
 10
0.0
 20
0.0
 30
0.0
210
0.0
220
0.0
230
1.0
  2
SOLID
 70
     1
 71
     1
 91
        1
 92
        1
 93
        1
 72
     4
 94
        3
 73
     0
 74
     0
 95
       59
 96
       55
 40
0.0
 40
0.0
 40
0.0
 40
0.0
 40
1.0
 40
1.0
 40
1.0
 40
2.0
 40
2.0
 40
2.0
 40
3.0
 40
3.0
 40
3.0
 40
4.0
 40
4.0
 40
4.0
 40
5.0
 40
5.0
 40
5.0
 40
6.0
 40
6.0
 40
6.0
 40
7.0
 40
7.0
 40
7.0
 40
8.0
 40
8.0
 40
8.0
 40
9.0
 40
9.0
 40
9.0
 40
10.0
 40
10.0
 40
10.0
 40
11.0
 40
11.0
 40
11.0
 40
12.0
 40
12.0
 40
12.0
 40
13.0
 40
13.0
 40
13.0
 40
14.0
 40
14.0
 40
14.0
 40
15.0
 40
15.0
 40
15.0
 40
16.0
 40
16.0
 40
16.0
 40
17.0
 40
17.0
 40
17.0
 40
18.0
 40
18.0
 40
18.0
 40
18.0
 10
49.39440104166666
 20
189.0932159288193
 10
49.39440104166666
 20
189.0932159288193
 10
51.24786241319444
 20
189.0932159288193
 10
51.24786241319444
 20
189.0932159288193
 10
51.24786241319444
 20
189.0932159288193
 10
54.04665798611111
 20
172.3887471788193
 10
54.04665798611111
 20
172.3887471788193
 10
54.04665798611111
 20
172.3887471788193
 10
56.83994140624999
 20
189.0932159288193
 10
56.83994140624999
 20
189.0932159288193
 10
56.83994140624999
 20
189.0932159288193
 10
58.69891493055553
 20
189.0932159288193
 10
58.69891493055553
 20
189.0932159288193
 10
58.69891493055553
 20
189.0932159288193
 10
58.69891493055553
 20
169.3358964843748
 10
58.69891493055553
 20
169.3358964843748
 10
58.69891493055553
 20
169.3358964843748
 10
57.46419270833333
 20
169.3358964843748
 10
57.46419270833333
 20
169.3358964843748
 10
57.46419270833333
 20
169.3358964843748
 10
57.46419270833333
 20
180.9964422743054
 10
57.46419270833333
 20
180.9964422743054
 10
57.46419270833333
 20
181.3996011284721
 10
57.47108289930555
 20
182.0677291666664
 10
57.48624131944444
 20
183.0001924913193
 10
57.50071072048609
 20
183.9326558159721
 10
57.50828993055553
 20
184.932312282986
 10
57.50828993055553
 20
185.9997957899304
 10
57.50828993055553
 20
185.9997957899304
 10
54.700537109375
 20
169.3358964843748
 10
54.700537109375
 20
169.3358964843748
 10
54.700537109375
 20
169.3358964843748
 10
53.38382161458333
 20
169.3358964843748
 10
53.38382161458333
 20
169.3358964843748
 10
53.38382161458333
 20
169.3358964843748
 10
50.58502604166665
 20
185.9997957899304
 10
50.58502604166665
 20
185.9997957899304
 10
50.58502604166665
 20
185.9997957899304
 10
50.58502604166665
 20
185.3944236111109
 10
50.58502604166665
 20
185.3944236111109
 10
50.58502604166665
 20
184.9101258680554
 10
50.59191623263888
 20
184.1729029947915
 10
50.60707465277777
 20
183.1821210937498
 10
50.62154405381942
 20
182.1913391927082
 10
50.62912326388889
 20
181.4629908854165
 10
50.62912326388889
 20
180.9964422743054
 10
50.62912326388889
 20
180.9964422743054
 10
50.62912326388889
 20
169.3358964843748
 10
50.62912326388889
 20
169.3358964843748
 10
50.62912326388889
 20
169.3358964843748
 10
49.39440104166666
 20
169.3358964843748
 10
49.39440104166666
 20
169.3358964843748
 10
49.39440104166666
 20
169.3358964843748
 10
49.39440104166666
 20
189.0932159288193
 10
49.39440104166666
 20
189.0932159288193
 97
        1
330
27A4
 75
     0
 76
     1
 98
        1
 10
0.0
 20
0.0
  0
HATCH
  5
27BD
330
279F
100
AcDbEntity
  8
0
  6
Continuous
100
AcDbHatch
 10
0.0
 20
0.0
 30
0.0
210
0.0
220
0.0
230
1.0
  2
SOLID
 70
     1
 71
     1
 91
        2
 92
       16
 93
        1
 72
     4
 94
        3
 73
     0
 74
     0
 95
       32
 96
       28
 40
0.0
 40
0.0
 40
0.0
 40
0.0
 40
1.0
 40
1.0
 40
1.0
 40
2.0
 40
2.0
 40
2.0
 40
3.0
 40
3.0
 40
3.0
 40
4.0
 40
4.0
 40
4.0
 40
5.0
 40
5.0
 40
5.0
 40
6.0
 40
6.0
 40
6.0
 40
7.0
 40
7.0
 40
7.0
 40
8.0
 40
8.0
 40
8.0
 40
9.0
 40
9.0
 40
9.0
 40
9.0
 10
91.70051812065969
 20
171.6077853732634
 10
91.70051812065969
 20
171.6077853732634
 10
91.70051812065969
 20
186.7401881510414
 10
91.70051812065969
 20
186.7401881510414
 10
91.70051812065969
 20
186.7401881510414
 10
93.98668348524305
 20
186.7401881510414
 10
93.98668348524305
 20
186.7401881510414
 10
95.02159016927082
 20
186.7401881510414
 10
95.77331000434028
 20
186.0644533420137
 10
96.24322102864582
 20
184.7142515190969
 10
96.71313205295138
 20
183.3640496961804
 10
96.94808756510417
 20
181.4680620659721
 10
96.94808756510417
 20
179.0262886284719
 10
96.94808756510417
 20
178.3911232638887
 10
96.91432562934028
 20
177.7027105034721
 10
96.84749077690971
 20
176.9604164496524
 10
96.7324245876736
 20
175.7167094184024
 10
96.55052354600693
 20
174.6974021267359
 10
96.30109863281248
 20
173.901860677083
 10
95.98414984809028
 20
172.9091770833332
 10
95.57693956163193
 20
172.2378795572914
 10
95.07877875434026
 20
171.8892358940971
 10
94.79076877170138
 20
171.7016022135415
 10
94.43178982204859
 20
171.6077853732634
 10
94.00115288628471
 20
171.6077853732634
 10
94.00115288628471
 20
171.6077853732634
 10
91.70051812065969
 20
171.6077853732634
 10
91.70051812065969
 20
171.6077853732634
 97
        1
330
27A9
 92
        1
 93
        1
 72
     4
 94
        3
 73
     0
 74
     0
 95
       26
 96
       22
 40
0.0
 40
0.0
 40
0.0
 40
0.0
 40
1.0
 40
1.0
 40
1.0
 40
2.0
 40
2.0
 40
2.0
 40
3.0
 40
3.0
 40
3.0
 40
4.0
 40
4.0
 40
4.0
 40
5.0
 40
5.0
 40
5.0
 40
6.0
 40
6.0
 40
6.0
 40
7.0
 40
7.0
 40
7.0
 40
7.0
 10
90.37760145399305
 20
169.3358964843748
 10
90.37760145399305
 20
169.3358964843748
 10
94.22990722656248
 20
169.3358964843748
 10
94.22990722656248
 20
169.3358964843748
 10
95.87115071614581
 20
169.3358964843748
 10
97.03008083767359
 20
170.8331625434026
 10
97.70600857204859
 20
173.8283285590274
 10
98.08221299913194
 20
175.5227367621523
 10
98.27100423177082
 20
177.4187243923609
 10
98.27100423177082
 20
179.5169253472221
 10
98.27100423177082
 20
182.233810329861
 10
97.94716525607638
 20
184.4619602864582
 10
97.30086534288195
 20
186.2013752170135
 10
96.57601725260416
 20
188.1290577256939
 10
95.5576470269097
 20
189.0932159288193
 10
94.24437662760416
 20
189.0932159288193
 10
94.24437662760416
 20
189.0932159288193
 10
90.37760145399305
 20
189.0932159288193
 10
90.37760145399305
 20
189.0932159288193
 10
90.37760145399305
 20
189.0932159288193
 10
90.37760145399305
 20
169.3358964843748
 10
90.37760145399305
 20
169.3358964843748
 97
        0
 75
     0
 76
     1
 98
        0
  0
HATCH
  5
27BE
330
279F
100
AcDbEntity
  8
0
  6
Continuous
100
AcDbHatch
 10
0.0
 20
0.0
 30
0.0
210
0.0
220
0.0
230
1.0
  2
SOLID
 70
     1
 71
     1
 91
        2
 92
       16
 93
        1
 72
     4
 94
        3
 73
     0
 74
     0
 95
       26
 96
       22
 40
0.0
 40
0.0
 40
0.0
 40
0.0
 40
1.0
 40
1.0
 40
1.0
 40
2.0
 40
2.0
 40
2.0
 40
3.0
 40
3.0
 40
3.0
 40
4.0
 40
4.0
 40
4.0
 40
5.0
 40
5.0
 40
5.0
 40
6.0
 40
6.0
 40
6.0
 40
7.0
 40
7.0
 40
7.0
 40
7.0
 10
100.5623372395832
 20
180.046229817708
 10
100.5623372395832
 20
180.046229817708
 10
100.5623372395832
 20
186.7401881510414
 10
100.5623372395832
 20
186.7401881510414
 10
100.5623372395832
 20
186.7401881510414
 10
103.6732584635416
 20
186.7401881510414
 10
103.6732584635416
 20
186.7401881510414
 10
104.1107855902777
 20
186.7401881510414
 10
104.4580512152777
 20
186.6064357638887
 10
104.7150553385415
 20
186.3401987847216
 10
105.2097710503471
 20
185.8330807291664
 10
105.4571289062495
 20
184.8822343749995
 10
105.4571289062495
 20
183.4863919270832
 10
105.4571289062495
 20
182.188169704861
 10
105.280740017361
 20
181.2905707465276
 10
104.9286512586804
 20
180.7929611545137
 10
104.5765624999999
 20
180.2947176649304
 10
104.1011393229166
 20
180.046229817708
 10
103.5023817274304
 20
180.046229817708
 10
103.5023817274304
 20
180.046229817708
 10
100.5623372395832
 20
180.046229817708
 10
100.5623372395832
 20
180.046229817708
 97
        1
330
27AA
 92
        1
 93
        1
 72
     4
 94
        3
 73
     0
 74
     0
 95
       68
 96
       64
 40
0.0
 40
0.0
 40
0.0
 40
0.0
 40
1.0
 40
1.0
 40
1.0
 40
2.0
 40
2.0
 40
2.0
 40
3.0
 40
3.0
 40
3.0
 40
4.0
 40
4.0
 40
4.0
 40
5.0
 40
5.0
 40
5.0
 40
6.0
 40
6.0
 40
6.0
 40
7.0
 40
7.0
 40
7.0
 40
8.0
 40
8.0
 40
8.0
 40
9.0
 40
9.0
 40
9.0
 40
10.0
 40
10.0
 40
10.0
 40
11.0
 40
11.0
 40
11.0
 40
12.0
 40
12.0
 40
12.0
 40
13.0
 40
13.0
 40
13.0
 40
14.0
 40
14.0
 40
14.0
 40
15.0
 40
15.0
 40
15.0
 40
16.0
 40
16.0
 40
16.0
 40
17.0
 40
17.0
 40
17.0
 40
18.0
 40
18.0
 40
18.0
 40
19.0
 40
19.0
 40
19.0
 40
20.0
 40
20.0
 40
20.0
 40
21.0
 40
21.0
 40
21.0
 40
21.0
 10
99.23942057291661
 20
169.3358964843748
 10
99.23942057291661
 20
169.3358964843748
 10
100.5623372395832
 20
169.3358964843748
 10
100.5623372395832
 20
169.3358964843748
 10
100.5623372395832
 20
169.3358964843748
 10
100.5623372395832
 20
177.8149103732637
 10
100.5623372395832
 20
177.8149103732637
 10
100.5623372395832
 20
177.8149103732637
 10
103.4472601996527
 20
177.8149103732637
 10
103.4472601996527
 20
177.8149103732637
 10
103.9681586371527
 20
177.8149103732637
 10
104.3519422743053
 20
177.6938359374998
 10
104.5986111111109
 20
177.4516870659717
 10
105.0244249131943
 20
177.0117621527776
 10
105.2518012152777
 20
176.1458580729164
 10
105.280740017361
 20
174.8539748263887
 10
105.280740017361
 20
174.8539748263887
 10
105.3689344618053
 20
171.5564396701385
 10
105.3689344618053
 20
171.5564396701385
 10
105.3882269965277
 20
170.7843524305554
 10
105.4109646267359
 20
170.2639225260415
 10
105.4357693142359
 20
169.9951499565971
 10
105.4605740017358
 20
169.725743489583
 10
105.4970920138888
 20
169.5057810329859
 10
105.5467013888887
 20
169.3358964843748
 10
105.5467013888887
 20
169.3358964843748
 10
107.1769205729166
 20
169.3358964843748
 10
107.1769205729166
 20
169.3358964843748
 10
107.1769205729166
 20
169.3358964843748
 10
107.1769205729166
 20
169.7821603732633
 10
107.1769205729166
 20
169.7821603732633
 10
106.9750379774303
 20
169.9609194878471
 10
106.8337890624996
 20
170.3628105468748
 10
106.7538628472221
 20
170.9878335503471
 10
106.7028754340274
 20
171.3542263454858
 10
106.6677354600692
 20
171.9120562065971
 10
106.6477539062496
 20
172.6625909288193
 10
106.6477539062496
 20
172.6625909288193
 10
106.6036566840277
 20
175.3205234374999
 10
106.6036566840277
 20
175.3205234374999
 10
106.5836751302082
 20
176.4716814236109
 10
106.4768771701387
 20
177.3033550347219
 10
106.2839518229166
 20
177.814276475694
 10
106.0903374565971
 20
178.3251979166665
 10
105.8002604166666
 20
178.7372313368054
 10
105.4130316840276
 20
179.0516445312498
 10
105.8443576388885
 20
179.5086846788193
 10
106.179909939236
 20
180.1134229600693
 10
106.4196885850692
 20
180.866493272569
 10
106.6594672309027
 20
181.6189296874999
 10
106.7800455729166
 20
182.5868912760411
 10
106.7800455729166
 20
183.7697441406248
 10
106.7800455729166
 20
186.0371957465273
 10
106.3328721788193
 20
187.5921464843749
 10
105.4392144097221
 20
188.4345963541665
 10
104.9679253472221
 20
188.8732534722221
 10
104.3719238281249
 20
189.0932159288193
 10
103.6512098524303
 20
189.0932159288193
 10
103.6512098524303
 20
189.0932159288193
 10
99.23942057291661
 20
189.0932159288193
 10
99.23942057291661
 20
189.0932159288193
 10
99.23942057291661
 20
189.0932159288193
 10
99.23942057291661
 20
169.3358964843748
 10
99.23942057291661
 20
169.3358964843748
 97
        0
 75
     0
 76
     1
 98
        0
  0
HATCH
  5
27BF
330
279F
100
AcDbEntity
  8
0
  6
Continuous
100
AcDbHatch
 10
0.0
 20
0.0
 30
0.0
210
0.0
220
0.0
230
1.0
  2
SOLID
 70
     1
 71
     1
 91
        2
 92
        1
 93
        8
 72
     1
 10
35.47828233506943
 20
189.0932159288193
 11
31.83957248263888
 21
169.3358964843748
 72
     1
 10
31.83957248263888
 20
169.3358964843748
 11
33.22450086805555
 21
169.3358964843748
 72
     1
 10
33.22450086805555
 20
169.3358964843748
 11
34.27043185763887
 21
175.2590353732638
 72
     1
 10
34.27043185763887
 20
175.2590353732638
 11
38.04694552951389
 21
175.2590353732638
 72
     1
 10
38.04694552951389
 20
175.2590353732638
 11
39.05015733506942
 21
169.3358964843748
 72
     1
 10
39.05015733506942
 20
169.3358964843748
 11
40.43508572048611
 21
169.3358964843748
 72
     1
 10
40.43508572048611
 20
169.3358964843748
 11
36.952783203125
 21
189.0932159288193
 72
     1
 10
36.952783203125
 20
189.0932159288193
 11
35.47828233506943
 21
189.0932159288193
 97
        8
330
27BA
330
27B3
330
27B4
330
27B5
330
27B6
330
27B7
330
27B8
330
27B9
 92
       16
 93
        3
 72
     1
 10
37.67556423611111
 20
177.4497853732638
 11
34.65766059027778
 21
177.4497853732638
 72
     1
 10
34.65766059027778
 20
177.4497853732638
 11
36.19830729166666
 21
186.1658769531249
 72
     1
 10
36.19830729166666
 20
186.1658769531249
 11
37.67556423611111
 21
177.4497853732638
 97
        3
330
27B2
330
27B0
330
27B1
 75
     0
 76
     1
 98
        1
 10
0.0
 20
0.0
  0
HATCH
  5
27C0
330
279F
100
AcDbEntity
  8
0
  6
Continuous
100
AcDbHatch
 10
0.0
 20
0.0
 30
0.0
210
0.0
220
0.0
230
1.0
  2
SOLID
 70
     1
 71
     1
 91
        1
 92
        1
 93
        1
 72
     4
 94
        3
 73
     0
 74
     0
 95
      113
 96
      109
 40
0.0
 40
0.0
 40
0.0
 40
0.0
 40
1.0
 40
1.0
 40
1.0
 40
2.0
 40
2.0
 40
2.0
 40
3.0
 40
3.0
 40
3.0
 40
4.0
 40
4.0
 40
4.0
 40
5.0
 40
5.0
 40
5.0
 40
6.0
 40
6.0
 40
6.0
 40
7.0
 40
7.0
 40
7.0
 40
8.0
 40
8.0
 40
8.0
 40
9.0
 40
9.0
 40
9.0
 40
10.0
 40
10.0
 40
10.0
 40
11.0
 40
11.0
 40
11.0
 40
12.0
 40
12.0
 40
12.0
 40
13.0
 40
13.0
 40
13.0
 40
14.0
 40
14.0
 40
14.0
 40
15.0
 40
15.0
 40
15.0
 40
16.0
 40
16.0
 40
16.0
 40
17.0
 40
17.0
 40
17.0
 40
18.0
 40
18.0
 40
18.0
 40
19.0
 40
19.0
 40
19.0
 40
20.0
 40
20.0
 40
20.0
 40
21.0
 40
21.0
 40
21.0
 40
22.0
 40
22.0
 40
22.0
 40
23.0
 40
23.0
 40
23.0
 40
24.0
 40
24.0
 40
24.0
 40
25.0
 40
25.0
 40
25.0
 40
26.0
 40
26.0
 40
26.0
 40
27.0
 40
27.0
 40
27.0
 40
28.0
 40
28.0
 40
28.0
 40
29.0
 40
29.0
 40
29.0
 40
30.0
 40
30.0
 40
30.0
 40
31.0
 40
31.0
 40
31.0
 40
32.0
 40
32.0
 40
32.0
 40
33.0
 40
33.0
 40
33.0
 40
34.0
 40
34.0
 40
34.0
 40
35.0
 40
35.0
 40
35.0
 40
36.0
 40
36.0
 40
36.0
 40
36.0
 10
193.3039632161458
 20
186.1548733181423
 10
193.3039632161458
 20
186.1860514322916
 10
193.3039632161458
 20
219.6932223849826
 10
193.3039632161458
 20
219.6932223849826
 10
193.3039632161458
 20
219.6932223849826
 10
193.2974175347219
 20
219.7488606770833
 10
193.2974175347219
 20
219.7488606770833
 10
191.5293945312499
 20
235.455740017361
 10
175.1458984374999
 20
235.2467949761284
 10
174.9808783637151
 20
235.2428331163193
 10
174.9808783637151
 20
235.2428331163193
 10
125.8827555338541
 20
235.2430053710937
 10
125.8827555338541
 20
235.2430053710937
 10
125.8827555338541
 20
235.2430053710937
 10
125.8827555338541
 20
255.5278998480901
 10
125.8827555338541
 20
255.5278998480901
 10
125.8827555338541
 20
255.5278998480901
 10
84.5626247829861
 20
255.5278998480901
 10
84.5626247829861
 20
255.5278998480901
 10
84.5626247829861
 20
255.5278998480901
 10
84.55711263020829
 20
233.7919311523436
 10
84.55711263020829
 20
233.7919311523436
 10
84.55711263020829
 20
233.7919311523436
 10
64.42052951388888
 20
233.7919311523436
 10
64.42052951388888
 20
233.7919311523436
 10
64.42052951388888
 20
233.7919311523436
 10
64.41501736111111
 20
255.5278998480901
 10
64.41501736111111
 20
255.5278998480901
 10
64.41501736111111
 20
255.5278998480901
 10
23.91757541232637
 20
255.5278998480901
 10
23.91757541232637
 20
255.5278998480901
 10
23.91757541232637
 20
255.5278998480901
 10
23.91757541232637
 20
233.2393378363715
 10
23.91757541232637
 20
233.2393378363715
 10
23.91757541232637
 20
233.2393378363715
 10
43.65624999999999
 20
233.2393378363715
 10
43.65624999999999
 20
233.2393378363715
 10
43.65624999999999
 20
233.2393378363715
 10
43.65624999999999
 20
211.5188720703125
 10
43.65624999999999
 20
211.5188720703125
 10
43.65624999999999
 20
211.5188720703125
 10
23.91757541232637
 20
211.5188720703125
 10
23.91757541232637
 20
211.5188720703125
 10
23.91757541232637
 20
211.5188720703125
 10
23.91757541232637
 20
189.2303100585936
 10
23.91757541232637
 20
189.2303100585936
 10
23.91757541232637
 20
189.2303100585936
 10
64.41501736111111
 20
189.2303100585936
 10
64.41501736111111
 20
189.2303100585936
 10
64.41501736111111
 20
189.2303100585936
 10
64.42052951388888
 20
211.069976128472
 10
64.42052951388888
 20
211.069976128472
 10
64.42052951388888
 20
211.069976128472
 10
84.55711263020829
 20
211.069976128472
 10
84.55711263020829
 20
211.069976128472
 10
84.55711263020829
 20
211.069976128472
 10
84.5626247829861
 20
189.2303100585936
 10
84.5626247829861
 20
189.2303100585936
 10
84.5626247829861
 20
189.2303100585936
 10
125.8827555338541
 20
189.2303100585936
 10
125.8827555338541
 20
189.2303100585936
 10
125.8827555338541
 20
189.2303100585936
 10
125.8827555338541
 20
211.5188720703125
 10
125.8827555338541
 20
211.5188720703125
 10
125.8827555338541
 20
211.5188720703125
 10
105.3213921440971
 20
211.5188720703125
 10
105.3213921440971
 20
211.5188720703125
 10
105.3213921440971
 20
211.5188720703125
 10
105.3213921440971
 20
233.2393378363715
 10
105.3213921440971
 20
233.2393378363715
 10
105.3213921440971
 20
233.2393378363715
 10
175.0046495225693
 20
233.243127441406
 10
175.0046495225693
 20
233.243127441406
 10
175.6268337673611
 20
233.2560465494791
 10
189.7165852864583
 20
233.3962619357638
 10
191.3037407769094
 20
219.5690266927083
 10
191.3037407769094
 20
219.4332899305555
 10
191.3037407769094
 20
186.1142211914062
 10
191.3037407769094
 20
186.1142211914062
 10
191.3037407769094
 20
186.1142211914062
 10
191.3051188151039
 20
186.0880384657115
 10
191.3051188151039
 20
186.0880384657115
 10
191.3054633246526
 20
186.0787367078991
 10
191.3109754774304
 20
185.9566080729166
 10
191.3109754774304
 20
185.7399115668401
 10
191.3109754774304
 20
184.2090833875865
 10
191.0488037109374
 20
177.9643310546874
 10
186.9866916232638
 20
173.5652886284722
 10
184.2540418836804
 20
170.6064683702255
 10
180.3224989149304
 20
169.0308539496526
 10
175.300927734375
 20
168.8825425889756
 10
175.300927734375
 20
168.8825425889756
 10
107.0094889322916
 20
168.8828870985243
 10
107.0094889322916
 20
168.8828870985243
 10
107.0094889322916
 20
168.8828870985243
 10
107.0094889322916
 20
166.8830091688368
 10
107.0094889322916
 20
166.8830091688368
 10
107.0094889322916
 20
166.8830091688368
 10
175.3305555555555
 20
166.8830091688368
 10
175.3305555555555
 20
166.8830091688368
 10
180.9467502170138
 20
167.0485460069444
 10
185.3571614583333
 20
168.8448187934026
 10
188.4687717013888
 20
172.2223904079861
 10
192.9649658203124
 20
177.1034016927083
 10
193.3136094835069
 20
183.7202243381076
 10
193.3136094835069
 20
185.6520616319443
 10
193.3136094835069
 20
185.9247409396701
 10
193.3070638020833
 20
186.0868326822916
 10
193.3039632161458
 20
186.1548733181423
 97
        1
330
27A0
 75
     0
 76
     1
 98
        1
 10
0.0
 20
0.0
  0
HATCH
  5
27C1
330
279F
100
AcDbEntity
  8
0
  6
Continuous
100
AcDbHatch
 10
0.0
 20
0.0
 30
0.0
210
0.0
220
0.0
230
1.0
  2
SOLID
 70
     1
 71
     1
 91
        2
 92
        1
 93
        1
 72
     4
 94
        3
 73
     0
 74
     0
 95
       23
 96
       19
 40
0.0
 40
0.0
 40
0.0
 40
0.0
 40
1.0
 40
1.0
 40
1.0
 40
2.0
 40
2.0
 40
2.0
 40
3.0
 40
3.0
 40
3.0
 40
4.0
 40
4.0
 40
4.0
 40
5.0
 40
5.0
 40
5.0
 40
6.0
 40
6.0
 40
6.0
 40
6.0
 10
148.6593153211804
 20
211.3929538302948
 10
148.6593153211804
 20
211.3929538302948
 10
148.6593153211804
 20
189.6308024088539
 10
148.6593153211804
 20
189.6308024088539
 10
148.6593153211804
 20
189.6308024088539
 10
161.3152180989583
 20
189.6308024088539
 10
161.3152180989583
 20
189.6308024088539
 10
162.8431179470483
 20
189.6308024088539
 10
170.4657362196178
 20
190.1880466037321
 10
170.4657362196178
 20
201.1911648220483
 10
170.4657362196178
 20
211.1288872612844
 10
162.3356553819444
 20
211.3914035373261
 10
162.2536621093749
 20
211.3927815755205
 10
162.2536621093749
 20
211.3927815755205
 10
149.6594265407986
 20
211.3929538302948
 10
149.6594265407986
 20
211.3929538302948
 10
149.6594265407986
 20
211.3929538302948
 10
148.6593153211804
 20
211.3929538302948
 10
148.6593153211804
 20
211.3929538302948
 97
        1
330
27A1
 92
       16
 93
        1
 72
     4
 94
        3
 73
     0
 74
     0
 95
       20
 96
       16
 40
0.0
 40
0.0
 40
0.0
 40
0.0
 40
1.0
 40
1.0
 40
1.0
 40
2.0
 40
2.0
 40
2.0
 40
3.0
 40
3.0
 40
3.0
 40
4.0
 40
4.0
 40
4.0
 40
5.0
 40
5.0
 40
5.0
 40
5.0
 10
162.2354031032983
 20
209.3930759006072
 10
162.467947048611
 20
209.3861857096351
 10
168.4655137803819
 20
209.1283203124997
 10
168.4655137803819
 20
201.1911648220483
 10
168.4655137803819
 20
192.3202162000865
 10
162.9926350911458
 20
191.6306803385413
 10
161.3152180989583
 20
191.6306803385413
 10
161.3152180989583
 20
191.6306803385413
 10
152.3310980902776
 20
191.6306803385413
 10
150.6595377604166
 20
191.6306803385413
 10
150.6595377604166
 20
193.3373806423608
 10
150.6595377604166
 20
207.6863755967879
 10
150.6595377604166
 20
209.3930759006072
 10
152.3538357204859
 20
209.3930759006072
 10
162.2354031032983
 20
209.3930759006072
 10
162.2354031032983
 20
209.3930759006072
 97
        0
 75
     0
 76
     1
 98
        0
  0
ENDBLK
  5
27C3
330
279F
100
AcDbEntity
  8
0
100
AcDbBlockEnd
  0
BLOCK
  5
27C6
330
27C4
100
AcDbEntity
  8
0
100
AcDbBlockBegin
  2
HD logo-new
 70
     0
 10
0.0
 20
0.0
 30
0.0
  3
HD logo-new
  1

  0
INSERT
  5
27C5
330
27C4
100
AcDbEntity
  8
0
 62
     3
100
AcDbBlockReference
  2
HD_LLC_logo_OT5
 10
-27.1607188578505
 20
-68.37367811463031
 30
0.0
 41
0.2999999999999971
 42
0.3000000000000007
 43
0.3
  0
ENDBLK
  5
27C7
330
27C4
100
AcDbEntity
  8
0
100
AcDbBlockEnd
  0
BLOCK
  5
27CA
330
27C8
100
AcDbEntity
  8
0
100
AcDbBlockBegin
  2
HD Logo
 70
     0
 10
0.0
 20
0.0
 30
0.0
  3
HD Logo
  1

  0
INSERT
  5
27C9
330
27C8
100
AcDbEntity
  8
0
100
AcDbBlockReference
  2
HD logo-new
 10
0.9700256734946606
 20
7.273795608420527
 30
0.0
  0
ENDBLK
  5
27CB
330
27C8
100
AcDbEntity
  8
0
100
AcDbBlockEnd
  0
BLOCK
  5
27D6
330
27D4
100
AcDbEntity
  8
0
100
AcDbBlockBegin
  2
Harmonic Drive LLC
 70
     0
 10
0.0
 20
0.0
 30
0.0
  3
Harmonic Drive LLC
  1

  0
MTEXT
  5
27D5
330
27D4
100
AcDbEntity
  8
0
100
AcDbMText
 10
189.3064368747374
 20
-164.4147342669637
 30
0.0
 40
3.5
 41
76.932
 71
     5
 72
     5
  1
Harmonic Drive LLC\P800-921-3332\Pwww.harmonicdrive.net
 73
     1
 44
1.0
  0
ENDBLK
  5
27D7
330
27D4
100
AcDbEntity
  8
0
100
AcDbBlockEnd
  0
BLOCK
  5
2C7C
330
2C7A
100
AcDbEntity
  8
0
100
AcDbBlockBegin
  2
HD LLC
 70
     0
 10
0.0
 20
0.0
 30
0.0
  3
HD LLC
  1

  0
MTEXT
  5
2C7B
330
2C7A
100
AcDbEntity
  8
0
100
AcDbMText
 10
-2.314970886968865
 20
1.247205085865914
 30
0.0
 40
5.675387507387601
 41
236.1828726592229
 71
     5
 72
     5
  1
Harmonic Drive LLC\P800-921-3332\Pwww.harmonicdrive.net
 73
     1
 44
1.0
  0
ENDBLK
  5
2C7D
330
2C7A
100
AcDbEntity
  8
0
100
AcDbBlockEnd
  0
BLOCK
  5
2C8D
330
2C8A
100
AcDbEntity
  8
0
100
AcDbBlockBegin
  2
NTC
 70
     0
 10
0.0
 20
0.0
 30
0.0
  3
NTC
  1

  0
LWPOLYLINE
  5
2C8B
330
2C8A
100
AcDbEntity
  8
0
100
AcDbPolyline
 90
        8
 70
     1
 43
0.0
 10
4.581008201925953
 20
-10.78862239032818
 10
319.3921777697513
 20
-10.78862239032818
 42
-0.4142135623730951
 10
324.9046777697513
 20
-16.30112239032816
 10
324.9046777697513
 20
-117.4075202476924
 42
-0.4142135623730951
 10
319.3921777697513
 20
-122.9200202476925
 10
4.581008201925838
 20
-122.9200202476925
 42
-0.4142135623730951
 10
-0.9314917980741483
 20
-117.4075202476924
 10
-0.9314917980740915
 20
-16.30112239032816
 42
-0.4142135623730951
  0
MTEXT
  5
2C8C
330
2C8A
100
AcDbEntity
  8
0
  6
Continuous
370
    30
100
AcDbMText
 10
21.65307678143926
 20
-17.4535155144544
 30
0.0
 40
8.75
 41
294.5432999999998
 71
     1
 72
     5
  3
{\fTxt|b1|i0|c0|p2;Notice:\P\Ftxt.shx;\H0.5714x;All specifications and dimensions shown in the drawing are subject to change without notice. This drawing is the property of Harmonic Drive LLC.   This data is believed to be accurate, however, Harmonic
  1
 Drive LLC assumes no liability for any errors or omissions in the specifications, models, or drawings.\P\PHarmonic Drive LLC\PTel: 800-921-3332\Pwww.harmonicdrive.net}
 73
     1
 44
1.0
  0
ENDBLK
  5
2C8E
330
2C8A
100
AcDbEntity
  8
0
100
AcDbBlockEnd
  0
ENDSEC
  0
SECTION
  2
ENTITIES
  0
TEXT
  5
2757
330
24E6
100
AcDbEntity
  8
1
 62
     3
100
AcDbText
 10
-163.4730043479255
 20
-136.0046242052247
 30
0.0
 40
5.0
  1
 
 41
0.9
100
AcDbText
  0
TEXT
  5
2A32
330
24E6
100
AcDbEntity
  8
1
 62
     0
100
AcDbText
 10
511.6027356120171
 20
707.3746722295358
 30
0.0
 40
10.55170138548673
  1
REMARKS:  M.H.C = MINIMUM HOUSING CLEARANCE
 41
0.9
 72
     1
 11
649.3261800207363
 21
712.6505229222791
 31
0.0
100
AcDbText
 73
     2
  0
LINE
  5
2A33
330
24E6
100
AcDbEntity
  8
1
  6
CENTER
 62
     3
100
AcDbLine
 10
604.0128089499508
 20
913.5706325694494
 30
0.0
 11
617.5674888355209
 21
913.5706325694494
 31
0.0
  0
ARC
  5
2A34
330
24E6
100
AcDbEntity
  8
1
  6
CENTER
 62
     3
100
AcDbCircle
 10
350.0750235761914
 20
913.5706325694494
 30
0.0
 40
109.0
100
AcDbArc
 50
280.5728895899421
 51
79.42711041005792
  0
ARC
  5
2A35
330
24E6
100
AcDbEntity
  8
1
 62
     7
100
AcDbCircle
 10
350.0750235761914
 20
913.5706325694494
 30
0.0
 40
116.5
100
AcDbArc
 50
279.8851527476267
 51
80.1148472523733
  0
ARC
  5
2A36
330
24E6
100
AcDbEntity
  8
1
 62
     7
100
AcDbCircle
 10
350.0750235761914
 20
913.5706325694494
 30
0.0
 40
101.5000000000001
100
AcDbArc
 50
281.3641727599426
 51
78.63582724005739
  0
ARC
  5
2A37
330
24E6
100
AcDbEntity
  8
1
 62
     7
100
AcDbCircle
 10
350.0750235761914
 20
913.5706325694494
 30
0.0
 40
101.5000000000002
100
AcDbArc
 50
78.63582724005739
 51
281.3641727599426
  0
ARC
  5
2A38
330
24E6
100
AcDbEntity
  8
1
  6
CENTER
 62
     3
100
AcDbCircle
 10
350.0750235761914
 20
913.5706325694494
 30
0.0
 40
109.0
100
AcDbArc
 50
79.42711041005792
 51
280.5728895899421
  0
ARC
  5
2A39
330
24E6
100
AcDbEntity
  8
1
 62
     7
100
AcDbCircle
 10
350.0750235761914
 20
913.5706325694494
 30
0.0
 40
116.5
100
AcDbArc
 50
80.1148472523733
 51
279.8851527476267
  0
LINE
  5
2A3A
330
24E6
100
AcDbEntity
  8
1
  6
CENTER
 62
     3
100
AcDbLine
 10
350.0750235761914
 20
789.0706325694495
 30
0.0
 11
350.0750235761914
 21
1038.070632569449
 31
0.0
  0
CIRCLE
  5
2A3B
330
24E6
100
AcDbEntity
  8
1
 62
     7
100
AcDbCircle
 10
308.3625294483967
 20
812.8677635257192
 30
0.0
 40
4.500000000000006
  0
LINE
  5
2A3C
330
24E6
100
AcDbEntity
  8
1
  6
CENTER
 62
     3
100
AcDbLine
 10
305.7794162799321
 20
806.6315766812678
 30
0.0
 11
310.9456426168611
 21
819.1039503701704
 31
0.0
  0
CIRCLE
  5
2A3D
330
24E6
100
AcDbEntity
  8
1
 62
     7
100
AcDbCircle
 10
350.0750235761914
 20
804.5706325694494
 30
0.0
 40
4.500000000000084
  0
CIRCLE
  5
2A3E
330
24E6
100
AcDbEntity
  8
1
 62
     7
100
AcDbCircle
 10
391.7875177039858
 20
812.8677635257192
 30
0.0
 40
4.500000000000036
  0
LINE
  5
2A3F
330
24E6
100
AcDbEntity
  8
1
  6
CENTER
 62
     3
100
AcDbLine
 10
389.2044045355215
 20
819.1039503701704
 30
0.0
 11
394.3706308724504
 21
806.6315766812678
 31
0.0
  0
ARC
  5
2A40
330
24E6
100
AcDbEntity
  8
1
 62
     7
100
AcDbCircle
 10
350.0750235761914
 20
913.5706325694494
 30
0.0
 40
71.16098272255264
100
AcDbArc
 50
73.67694535566101
 51
89.69888483872118
  0
ARC
  5
2A41
330
24E6
100
AcDbEntity
  8
1
 62
     7
100
AcDbCircle
 10
350.0750235761914
 20
913.5706325694494
 30
0.0
 40
71.1609827225527
100
AcDbArc
 50
89.69888483872118
 51
286.3230546443389
  0
LINE
  5
2A42
330
24E6
100
AcDbEntity
  8
1
  6
CENTER
 62
     3
100
AcDbLine
 10
225.5750235761913
 20
913.5706325694494
 30
0.0
 11
479.0750235761912
 21
913.5706325694494
 31
0.0
  0
CIRCLE
  5
2A43
330
24E6
100
AcDbEntity
  8
1
 62
     7
100
AcDbCircle
 10
273.0003844268575
 20
990.6452717187828
 30
0.0
 40
4.500000000000117
  0
LINE
  5
2A44
330
24E6
100
AcDbEntity
  8
1
  6
CENTER
 62
     3
100
AcDbLine
 10
268.2274136538485
 20
995.4182424917922
 30
0.0
 11
277.7733551998667
 21
985.8723009457737
 31
0.0
  0
CIRCLE
  5
2A45
330
24E6
100
AcDbEntity
  8
1
 62
     7
100
AcDbCircle
 10
249.3721545324612
 20
871.8581384416546
 30
0.0
 40
4.500000000000016
  0
CIRCLE
  5
2A46
330
24E6
100
AcDbEntity
  8
1
 62
     7
100
AcDbCircle
 10
249.3721545324609
 20
955.283126697244
 30
0.0
 40
4.499999999999983
  0
LINE
  5
2A47
330
24E6
100
AcDbEntity
  8
1
  6
CENTER
 62
     3
100
AcDbLine
 10
243.13596768801
 20
869.2750252731903
 30
0.0
 11
255.6083413769124
 21
874.441251610119
 31
0.0
  0
LINE
  5
2A48
330
24E6
100
AcDbEntity
  8
1
  6
CENTER
 62
     3
100
AcDbLine
 10
243.13596768801
 20
957.8662398657085
 30
0.0
 11
255.6083413769121
 21
952.7000135287797
 31
0.0
  0
CIRCLE
  5
2A49
330
24E6
100
AcDbEntity
  8
1
 62
     7
100
AcDbCircle
 10
241.0750235761913
 20
913.5706325694494
 30
0.0
 40
4.5
  0
CIRCLE
  5
2A4A
330
24E6
100
AcDbEntity
  8
1
 62
     7
100
AcDbCircle
 10
273.0003844268576
 20
836.4959934201158
 30
0.0
 40
4.500000000000056
  0
LINE
  5
2A4B
330
24E6
100
AcDbEntity
  8
1
  6
CENTER
 62
     3
100
AcDbLine
 10
268.2274136538485
 20
831.7230226471064
 30
0.0
 11
277.7733551998667
 21
841.2689641931249
 31
0.0
  0
CIRCLE
  5
2A4C
330
24E6
100
AcDbEntity
  8
1
 62
     7
100
AcDbCircle
 10
308.3625294483964
 20
1014.273501613179
 30
0.0
 40
4.500000000000044
  0
LINE
  5
2A4D
330
24E6
100
AcDbEntity
  8
1
  6
CENTER
 62
     3
100
AcDbLine
 10
305.7794162799321
 20
1020.50968845763
 30
0.0
 11
310.9456426168611
 21
1008.037314768728
 31
0.0
  0
CIRCLE
  5
2A4E
330
24E6
100
AcDbEntity
  8
1
 62
     7
100
AcDbCircle
 10
350.0750235761914
 20
1022.570632569449
 30
0.0
 40
4.5
  0
CIRCLE
  5
2A4F
330
24E6
100
AcDbEntity
  8
1
 62
     7
100
AcDbCircle
 10
427.149662725525
 20
990.6452717187828
 30
0.0
 40
4.500000000000157
  0
LINE
  5
2A50
330
24E6
100
AcDbEntity
  8
1
  6
CENTER
 62
     3
100
AcDbLine
 10
422.3766919525157
 20
985.8723009457737
 30
0.0
 11
431.9226334985341
 21
995.4182424917922
 31
0.0
  0
CIRCLE
  5
2A51
330
24E6
100
AcDbEntity
  8
1
 62
     7
100
AcDbCircle
 10
459.0750235761912
 20
913.5706325694494
 30
0.0
 40
4.5
  0
ARC
  5
2A52
330
24E6
100
AcDbEntity
  8
1
 62
     7
100
AcDbCircle
 10
350.0750235761914
 20
913.5706325694494
 30
0.0
 40
71.16098272255264
100
AcDbArc
 50
286.3230546443389
 51
73.67694535566101
  0
CIRCLE
  5
2A53
330
24E6
100
AcDbEntity
  8
1
 62
     7
100
AcDbCircle
 10
427.1496627255248
 20
836.4959934201158
 30
0.0
 40
4.500000000000056
  0
LINE
  5
2A54
330
24E6
100
AcDbEntity
  8
1
  6
CENTER
 62
     3
100
AcDbLine
 10
422.3766919525156
 20
841.2689641931249
 30
0.0
 11
431.9226334985341
 21
831.7230226471064
 31
0.0
  0
CIRCLE
  5
2A55
330
24E6
100
AcDbEntity
  8
1
 62
     7
100
AcDbCircle
 10
450.7778926199215
 20
871.8581384416546
 30
0.0
 40
4.500000000000004
  0
LINE
  5
2A56
330
24E6
100
AcDbEntity
  8
1
  6
CENTER
 62
     3
100
AcDbLine
 10
444.5417057754703
 20
874.441251610119
 30
0.0
 11
457.0140794643727
 21
869.2750252731903
 31
0.0
  0
CIRCLE
  5
2A57
330
24E6
100
AcDbEntity
  8
1
 62
     7
100
AcDbCircle
 10
450.7778926199215
 20
955.283126697244
 30
0.0
 40
4.499999999999999
  0
LINE
  5
2A58
330
24E6
100
AcDbEntity
  8
1
  6
CENTER
 62
     3
100
AcDbLine
 10
444.5417057754703
 20
952.7000135287797
 30
0.0
 11
457.0140794643727
 21
957.8662398657085
 31
0.0
  0
CIRCLE
  5
2A59
330
24E6
100
AcDbEntity
  8
1
 62
     7
100
AcDbCircle
 10
391.787517703986
 20
1014.273501613179
 30
0.0
 40
4.500000000000044
  0
LINE
  5
2A5A
330
24E6
100
AcDbEntity
  8
1
  6
CENTER
 62
     3
100
AcDbLine
 10
389.2044045355215
 20
1008.037314768728
 30
0.0
 11
394.3706308724504
 21
1020.50968845763
 31
0.0
  0
CIRCLE
  5
2A5B
330
24E6
100
AcDbEntity
  8
1
 62
     7
100
AcDbCircle
 10
885.3138617482818
 20
826.0706325694494
 30
0.0
 40
5.5
  0
CIRCLE
  5
2A5C
330
24E6
100
AcDbEntity
  8
1
 62
     3
100
AcDbCircle
 10
907.9605281947527
 20
829.0521227691563
 30
0.0
 40
5.0
  0
CIRCLE
  5
2A5D
330
24E6
100
AcDbEntity
  8
1
 62
     7
100
AcDbCircle
 10
907.9605281947527
 20
829.0521227691563
 30
0.0
 40
5.5
  0
CIRCLE
  5
2A5E
330
24E6
100
AcDbEntity
  8
1
 62
     7
100
AcDbCircle
 10
907.9605281947527
 20
829.0521227691563
 30
0.0
 40
4.0
  0
ARC
  5
2A5F
330
24E6
100
AcDbEntity
  8
1
 62
     7
100
AcDbCircle
 10
885.3138617482821
 20
913.5706325694494
 30
0.0
 40
71.16800000000009
100
AcDbArc
 50
223.3319181353414
 51
0.0
  0
ARC
  5
2A60
330
24E6
100
AcDbEntity
  8
1
 62
     7
100
AcDbCircle
 10
885.3138617482821
 20
913.5706325694494
 30
0.0
 40
97.5000000000001
100
AcDbArc
 50
237.9308144609969
 51
90.0
  0
ARC
  5
2A61
330
24E6
100
AcDbEntity
  8
1
  6
CENTER
 62
     3
100
AcDbCircle
 10
885.3138617482821
 20
913.5706325694494
 30
0.0
 40
87.49999999999998
100
AcDbArc
 50
233.7277980871297
 51
0.0
  0
LINE
  5
2A62
330
24E6
100
AcDbEntity
  8
1
  6
PHANTOM
 62
     4
100
AcDbLine
 10
620.540488835521
 20
836.5706325694494
 30
0.0
 11
620.540488835521
 21
816.5706325694495
 31
0.0
  0
LINE
  5
2A63
330
24E6
100
AcDbEntity
  8
1
 62
     7
100
AcDbLine
 10
660.6404888355209
 20
835.2706325694494
 30
0.0
 11
660.6404888355209
 21
816.4706325694494
 31
0.0
  0
LINE
  5
2A64
330
24E6
100
AcDbEntity
  8
1
  6
CENTER
 62
     3
100
AcDbLine
 10
885.3138617482821
 20
986.4156325694493
 30
0.0
 11
885.3138617482818
 21
804.7530349466448
 31
0.0
  0
LINE
  5
2A65
330
24E6
100
AcDbEntity
  8
1
  6
DASHDOT
 62
     3
100
AcDbLine
 10
910.0957853168484
 20
821.0832347022714
 30
0.0
 11
905.825271072657
 21
837.021010836041
 31
0.0
  0
LINE
  5
2A66
330
24E6
100
AcDbEntity
  8
1
 62
     7
100
AcDbLine
 10
685.6404888355208
 20
836.5706325694494
 30
0.0
 11
685.6404888355208
 21
816.4706325694494
 31
0.0
  0
LINE
  5
2A67
330
24E6
100
AcDbEntity
  8
1
 62
     7
100
AcDbLine
 10
618.440488835521
 20
837.9126325694494
 30
0.0
 11
618.440488835521
 21
809.0706325694494
 31
0.0
  0
LINE
  5
2A68
330
24E6
100
AcDbEntity
  8
1
 62
     7
100
AcDbLine
 10
617.5674888355209
 20
838.2056325694493
 30
0.0
 11
617.5674888355209
 21
812.6506325694494
 31
0.0
  0
LINE
  5
2A69
330
24E6
100
AcDbEntity
  8
1
 62
     7
100
AcDbLine
 10
612.6404888355209
 20
913.5706325694494
 30
0.0
 11
612.6404888355209
 21
811.6706325694494
 31
0.0
  0
TEXT
  5
2A6A
330
24E6
100
AcDbEntity
  8
1
 62
     0
100
AcDbText
 10
827.2292164621152
 20
746.2625482387495
 30
0.0
 40
9.876034068518036
  1
SHF-58-XXX-2A-GR.dxf
 41
0.9
100
AcDbText
  0
LINE
  5
2A6B
330
24E6
100
AcDbEntity
  8
1
 62
     7
100
AcDbLine
 10
685.2404888355209
 20
816.0706325694494
 30
0.0
 11
661.0404888355209
 21
816.0706325694494
 31
0.0
  0
LINE
  5
2A6C
330
24E6
100
AcDbEntity
  8
1
  6
CENTER
 62
     3
100
AcDbLine
 10
657.140488835521
 20
826.0706325694494
 30
0.0
 11
694.7254888355208
 21
826.0706325694494
 31
0.0
  0
LINE
  5
2A6D
330
24E6
100
AcDbEntity
  8
1
 62
     7
100
AcDbLine
 10
660.6404888355209
 20
820.5706325694494
 30
0.0
 11
685.6404888355208
 21
820.5706325694494
 31
0.0
  0
LINE
  5
2A6E
330
24E6
100
AcDbEntity
  8
1
 62
     7
100
AcDbLine
 10
618.440488835521
 20
809.0706325694494
 30
0.0
 11
618.440488835521
 21
800.0706325694496
 31
0.0
  0
LINE
  5
2A6F
330
24E6
100
AcDbEntity
  8
1
 62
     7
100
AcDbLine
 10
612.6404888355209
 20
800.0706325694496
 30
0.0
 11
612.6404888355209
 21
809.0706325694494
 31
0.0
  0
LINE
  5
2A70
330
24E6
100
AcDbEntity
  8
1
  6
CENTER
 62
     3
100
AcDbLine
 10
619.0204888355211
 20
804.5706325694494
 30
0.0
 11
612.0604888355209
 21
804.5706325694494
 31
0.0
  0
LINE
  5
2A71
330
24E6
100
AcDbEntity
  8
1
 62
     7
100
AcDbLine
 10
618.440488835521
 20
800.0706325694496
 30
0.0
 11
612.6404888355209
 21
800.0706325694496
 31
0.0
  0
LINE
  5
2A72
330
24E6
100
AcDbEntity
  8
1
 62
     7
100
AcDbLine
 10
613.140488835521
 20
797.0706325694496
 30
0.0
 11
618.040488835521
 21
797.0706325694496
 31
0.0
  0
LINE
  5
2A73
330
24E6
100
AcDbEntity
  8
1
 62
     7
100
AcDbLine
 10
612.6404888355209
 20
797.5706325694496
 30
0.0
 11
612.6404888355209
 21
800.0706325694496
 31
0.0
  0
LINE
  5
2A74
330
24E6
100
AcDbEntity
  8
1
 62
     7
100
AcDbLine
 10
612.6404888355209
 20
797.4706325694494
 30
0.0
 11
612.6404888355209
 21
797.5706325694496
 31
0.0
  0
LINE
  5
2A75
330
24E6
100
AcDbEntity
  8
1
 62
     7
100
AcDbLine
 10
613.040488835521
 20
797.0706325694496
 30
0.0
 11
613.140488835521
 21
797.0706325694496
 31
0.0
  0
LINE
  5
2A76
330
24E6
100
AcDbEntity
  8
1
 62
     7
100
AcDbLine
 10
612.6404888355209
 20
797.4706325694494
 30
0.0
 11
613.040488835521
 21
797.0706325694496
 31
0.0
  0
LINE
  5
2A77
330
24E6
100
AcDbEntity
  8
1
 62
     7
100
AcDbLine
 10
618.440488835521
 20
800.0706325694496
 30
0.0
 11
618.440488835521
 21
797.4706325694494
 31
0.0
  0
LINE
  5
2A78
330
24E6
100
AcDbEntity
  8
1
 62
     7
100
AcDbLine
 10
618.440488835521
 20
797.4706325694494
 30
0.0
 11
618.040488835521
 21
797.0706325694496
 31
0.0
  0
ARC
  5
2A79
330
24E6
100
AcDbEntity
  8
1
 62
     7
100
AcDbCircle
 10
616.987488835521
 20
812.6506325694494
 30
0.0
 40
0.5800000000000978
100
AcDbArc
 50
270.0
 51
0.0
  0
LINE
  5
2A7A
330
24E6
100
AcDbEntity
  8
1
 62
     7
100
AcDbLine
 10
618.440488835521
 20
809.0706325694494
 30
0.0
 11
612.6404888355209
 21
809.0706325694494
 31
0.0
  0
LINE
  5
2A7B
330
24E6
100
AcDbEntity
  8
1
 62
     7
100
AcDbLine
 10
616.987488835521
 20
812.0706325694495
 30
0.0
 11
613.040488835521
 21
812.0706325694495
 31
0.0
  0
LINE
  5
2A7C
330
24E6
100
AcDbEntity
  8
1
 62
     7
100
AcDbLine
 10
612.6404888355209
 20
809.0706325694494
 30
0.0
 11
612.6404888355209
 21
811.6706325694494
 31
0.0
  0
LINE
  5
2A7D
330
24E6
100
AcDbEntity
  8
1
 62
     7
100
AcDbLine
 10
612.6404888355209
 20
811.6706325694494
 30
0.0
 11
613.040488835521
 21
812.0706325694495
 31
0.0
  0
LINE
  5
2A7E
330
24E6
100
AcDbEntity
  8
1
 62
     7
100
AcDbLine
 10
660.6404888355209
 20
816.4706325694494
 30
0.0
 11
661.0404888355209
 21
816.0706325694494
 31
0.0
  0
LINE
  5
2A7F
330
24E6
100
AcDbEntity
  8
1
 62
     7
100
AcDbLine
 10
685.2404888355209
 20
816.0706325694494
 30
0.0
 11
685.6404888355208
 21
816.4706325694494
 31
0.0
  0
TEXT
  5
2A80
330
24E6
100
AcDbEntity
  8
1
 62
     0
100
AcDbText
 10
875.2926833506768
 20
725.1575109364154
 30
0.0
 40
9.0
  1
2002/3
 41
0.9
 72
     1
 11
892.3675953552489
 21
729.6575109364155
 31
0.0
100
AcDbText
 73
     2
  0
CIRCLE
  5
2A81
330
24E6
100
AcDbEntity
  8
1
 62
     7
100
AcDbCircle
 10
885.3138617482821
 20
913.5706325694494
 30
0.0
 40
51.85699999999989
  0
ARC
  5
2A82
330
24E6
100
AcDbEntity
  8
1
 62
     7
100
AcDbCircle
 10
853.2945008273484
 20
966.2242283746266
 30
0.0
 40
7.334999999999863
100
AcDbArc
 50
176.2614795317296
 51
255.4083626630813
  0
ARC
  5
2A83
330
24E6
100
AcDbEntity
  8
1
 62
     7
100
AcDbCircle
 10
885.3138617482821
 20
913.5706325694494
 30
0.0
 40
56.76500000000014
100
AcDbArc
 50
126.6283546686965
 51
131.6325148965171
  0
ARC
  5
2A84
330
24E6
100
AcDbEntity
  8
1
 62
     7
100
AcDbCircle
 10
846.423067179189
 20
865.7674242797893
 30
0.0
 40
7.33499999999999
100
AcDbArc
 50
285.8266969230326
 51
4.973580054384648
  0
ARC
  5
2A85
330
24E6
100
AcDbEntity
  8
1
 62
     7
100
AcDbCircle
 10
885.3138617482821
 20
913.5706325694494
 30
0.0
 40
66.11000000000001
100
AcDbArc
 50
236.081410284984
 51
241.309894062847
  0
ARC
  5
2A86
330
24E6
100
AcDbEntity
  8
1
 62
     7
100
AcDbCircle
 10
885.3138617482821
 20
913.5706325694494
 30
0.0
 40
55.54000000000013
100
AcDbArc
 50
202.4196460349205
 51
0.0
  0
ARC
  5
2A87
330
24E6
100
AcDbEntity
  8
1
 62
     7
100
AcDbCircle
 10
885.3138617482821
 20
913.5706325694494
 30
0.0
 40
55.53999999999991
100
AcDbArc
 50
0.0
 51
158.7591571987541
  0
ARC
  5
2A88
330
24E6
100
AcDbEntity
  8
1
 62
     7
100
AcDbCircle
 10
885.3138617482821
 20
913.5706325694494
 30
0.0
 40
67.62000000000009
100
AcDbArc
 50
220.0434697887709
 51
0.0
  0
ARC
  5
2A89
330
24E6
100
AcDbEntity
  8
1
 62
     7
100
AcDbCircle
 10
885.3138617482821
 20
913.5706325694494
 30
0.0
 40
67.61999999999989
100
AcDbArc
 50
0.0
 51
139.7040216489821
  0
ARC
  5
2A8A
330
24E6
100
AcDbEntity
  8
1
 62
     7
100
AcDbCircle
 10
885.3138617482821
 20
913.5706325694494
 30
0.0
 40
71.16799999999989
100
AcDbArc
 50
0.0
 51
136.6680818646585
  0
ARC
  5
2A8B
330
24E6
100
AcDbEntity
  8
1
 62
     7
100
AcDbCircle
 10
846.423067179189
 20
865.7674242797893
 30
0.0
 40
6.746874999999969
100
AcDbArc
 50
259.5824033543613
 51
26.66851081750445
  0
ARC
  5
2A8C
330
24E6
100
AcDbEntity
  8
1
 62
     7
100
AcDbCircle
 10
853.2945008273484
 20
966.2242283746266
 30
0.0
 40
6.746875000000073
100
AcDbArc
 50
150.0171859630567
 51
277.1032934262019
  0
ARC
  5
2A8D
330
24E6
100
AcDbEntity
  8
1
 62
     7
100
AcDbCircle
 10
853.2945008273484
 20
966.2242283746266
 30
0.0
 40
6.746875000000073
100
AcDbArc
 50
150.0171859630567
 51
277.1032934262019
  0
ARC
  5
2A8E
330
24E6
100
AcDbEntity
  8
1
 62
     7
100
AcDbCircle
 10
885.3138617482821
 20
913.5706325694494
 30
0.0
 40
97.50000000000014
100
AcDbArc
 50
90.0
 51
122.069185539003
  0
ARC
  5
2A8F
330
24E6
100
AcDbEntity
  8
1
  6
CENTER
 62
     3
100
AcDbCircle
 10
885.3138617482821
 20
913.5706325694494
 30
0.0
 40
87.49999999999987
100
AcDbArc
 50
0.0
 51
126.2722019128702
  0
ARC
  5
2A90
330
24E6
100
AcDbEntity
  8
1
 62
     7
100
AcDbCircle
 10
885.3138617482821
 20
913.5706325694494
 30
0.0
 40
74.2000000000001
100
AcDbArc
 50
90.0
 51
134.2401709810514
  0
ARC
  5
2A91
330
24E6
100
AcDbEntity
  8
1
 62
     7
100
AcDbCircle
 10
885.3138617482821
 20
913.5706325694494
 30
0.0
 40
74.2000000000001
100
AcDbArc
 50
225.7598290189485
 51
90.0
  0
ARC
  5
2A92
330
24E6
100
AcDbEntity
  8
1
 62
     7
100
AcDbCircle
 10
885.3138617482821
 20
913.5706325694494
 30
0.0
 40
72.84500000000014
100
AcDbArc
 50
90.0
 51
135.2874169775083
  0
ARC
  5
2A93
330
24E6
100
AcDbEntity
  8
1
 62
     7
100
AcDbCircle
 10
885.3138617482821
 20
913.5706325694494
 30
0.0
 40
72.8450000000001
100
AcDbArc
 50
224.7125830224916
 51
90.0
  0
LINE
  5
2A94
330
24E6
100
AcDbEntity
  8
1
  6
CENTER
 62
     3
100
AcDbLine
 10
777.0388880215051
 20
913.5706325694494
 30
0.0
 11
972.8138617482821
 21
913.5706325694494
 31
0.0
  0
CIRCLE
  5
2A95
330
24E6
100
AcDbEntity
  8
1
 62
     7
100
AcDbCircle
 10
841.5638617482821
 20
989.3478554005875
 30
0.0
 40
5.499999999999983
  0
ARC
  5
2A96
330
24E6
100
AcDbEntity
  8
1
 62
     7
100
AcDbCircle
 10
885.3138617482821
 20
913.5706325694494
 30
0.0
 40
97.5000000000001
100
AcDbArc
 50
122.069185539003
 51
237.9308144609969
  0
LINE
  5
2A97
330
24E6
100
AcDbEntity
  8
1
  6
DASHDOT
 62
     3
100
AcDbLine
 10
845.6888617482821
 20
982.2031458193661
 30
0.0
 11
837.438861748282
 21
996.4925649818095
 31
0.0
  0
LINE
  5
2A98
330
24E6
100
AcDbEntity
  8
1
 62
     7
100
AcDbLine
 10
660.6404888355209
 20
991.8706325694493
 30
0.0
 11
660.6404888355209
 21
996.0706325694493
 31
0.0
  0
LINE
  5
2A99
330
24E6
100
AcDbEntity
  8
1
 62
     7
100
AcDbLine
 10
685.6404888355208
 20
1010.670632569449
 30
0.0
 11
685.6404888355208
 21
988.1906325694492
 31
0.0
  0
LINE
  5
2A9A
330
24E6
100
AcDbEntity
  8
1
 62
     7
100
AcDbLine
 10
618.440488835521
 20
1018.070632569449
 30
0.0
 11
618.440488835521
 21
989.2286325694493
 31
0.0
  0
LINE
  5
2A9B
330
24E6
100
AcDbEntity
  8
1
  6
DASHDOT
 62
     3
100
AcDbLine
 10
837.438861748282
 20
996.4925649818095
 30
0.0
 11
845.6888617482821
 21
982.2031458193661
 31
0.0
  0
LINE
  5
2A9C
330
24E6
100
AcDbEntity
  8
1
 62
     7
100
AcDbLine
 10
617.5674888355209
 20
1014.490632569449
 30
0.0
 11
617.5674888355209
 21
988.9356325694496
 31
0.0
  0
LINE
  5
2A9D
330
24E6
100
AcDbEntity
  8
1
 62
     7
100
AcDbLine
 10
612.6404888355209
 20
1015.470632569449
 30
0.0
 11
612.6404888355209
 21
913.5706325694494
 31
0.0
  0
LINE
  5
2A9E
330
24E6
100
AcDbEntity
  8
1
  6
PHANTOM
 62
     4
100
AcDbLine
 10
615.540488835521
 20
999.0706325694493
 30
0.0
 11
615.540488835521
 21
979.0706325694491
 31
0.0
  0
LINE
  5
2A9F
330
24E6
100
AcDbEntity
  8
1
  6
PHANTOM
 62
     4
100
AcDbLine
 10
620.540488835521
 20
1010.570632569449
 30
0.0
 11
620.540488835521
 21
990.5706325694492
 31
0.0
  0
LINE
  5
2AA0
330
24E6
100
AcDbEntity
  8
1
 62
     7
100
AcDbLine
 10
688.1404888355208
 20
924.1536378137077
 30
0.0
 11
688.1404888355208
 21
902.5706325694493
 31
0.0
  0
LINE
  5
2AA1
330
24E6
100
AcDbEntity
  8
1
 62
     7
100
AcDbLine
 10
653.2404888355209
 20
924.1536378137077
 30
0.0
 11
653.2404888355209
 21
892.3206325694494
 31
0.0
  0
LINE
  5
2AA2
330
24E6
100
AcDbEntity
  8
1
 62
     7
100
AcDbLine
 10
617.5674888355209
 20
913.5706325694494
 30
0.0
 11
617.5674888355209
 21
838.2056325694493
 31
0.0
  0
ARC
  5
2AA3
330
24E6
100
AcDbEntity
  8
1
 62
     7
100
AcDbCircle
 10
673.4604888355208
 20
851.9376325694494
 30
0.0
 40
6.746875000000049
100
AcDbArc
 50
115.5911803747711
 51
242.6927910401599
  0
LINE
  5
2AA4
330
24E6
100
AcDbEntity
  8
1
 62
     7
100
AcDbLine
 10
670.5461969377133
 20
858.0226325694495
 30
0.0
 11
666.8954888355209
 21
858.0226325694495
 31
0.0
  0
LINE
  5
2AA5
330
24E6
100
AcDbEntity
  8
1
 62
     7
100
AcDbLine
 10
673.4604888355208
 20
861.7056325694495
 30
0.0
 11
666.8954888355209
 21
861.7056325694495
 31
0.0
  0
LINE
  5
2AA6
330
24E6
100
AcDbEntity
  8
1
 62
     7
100
AcDbLine
 10
670.3652833067031
 20
845.9426325694494
 30
0.0
 11
663.2704888355209
 21
845.9426325694494
 31
0.0
  0
LINE
  5
2AA7
330
24E6
100
AcDbEntity
  8
1
 62
     7
100
AcDbLine
 10
673.4604888355208
 20
842.3946325694494
 30
0.0
 11
663.7704888355209
 21
842.3946325694494
 31
0.0
  0
LINE
  5
2AA8
330
24E6
100
AcDbEntity
  8
1
 62
     7
100
AcDbLine
 10
656.0153615116395
 20
839.3706325694495
 30
0.0
 11
685.1114890982085
 21
839.3706325694495
 31
0.0
  0
LINE
  5
2AA9
330
24E6
100
AcDbEntity
  8
1
 62
     7
100
AcDbLine
 10
653.2404888355209
 20
902.5706325694493
 30
0.0
 11
688.1404888355208
 21
902.5706325694493
 31
0.0
  0
LINE
  5
2AAA
330
24E6
100
AcDbEntity
  8
1
 62
     7
100
AcDbLine
 10
660.040488835521
 20
893.5706325694495
 30
0.0
 11
680.8404888355205
 21
893.5706325694495
 31
0.0
  0
LINE
  5
2AAB
330
24E6
100
AcDbEntity
  8
1
 62
     7
100
AcDbLine
 10
672.2254888355206
 20
893.3206325694495
 30
0.0
 11
665.5404888355209
 21
893.3206325694495
 31
0.0
  0
LINE
  5
2AAC
330
24E6
100
AcDbEntity
  8
1
 62
     7
100
AcDbLine
 10
672.2254888355206
 20
886.3206325694495
 30
0.0
 11
665.5404888355209
 21
886.3206325694495
 31
0.0
  0
LINE
  5
2AAD
330
24E6
100
AcDbEntity
  8
1
 62
     7
100
AcDbLine
 10
665.5404888355209
 20
861.7136325694493
 30
0.0
 11
680.8404888355205
 21
861.7136325694493
 31
0.0
  0
LINE
  5
2AAE
330
24E6
100
AcDbEntity
  8
1
 62
     7
100
AcDbLine
 10
666.8954888355208
 20
861.7136325694493
 30
0.0
 11
680.025488835521
 21
861.7136325694493
 31
0.0
  0
LINE
  5
2AAF
330
24E6
100
AcDbEntity
  8
1
 62
     7
100
AcDbLine
 10
657.4154888355209
 20
840.7256325694493
 30
0.0
 11
683.865488835521
 21
840.7256325694493
 31
0.0
  0
LINE
  5
2AB0
330
24E6
100
AcDbEntity
  8
1
 62
     7
100
AcDbLine
 10
660.6404888355209
 20
831.5706325694494
 30
0.0
 11
685.6404888355208
 21
831.5706325694494
 31
0.0
  0
LINE
  5
2AB1
330
24E6
100
AcDbEntity
  8
1
 62
     7
100
AcDbLine
 10
622.065488835521
 20
842.4106325694495
 30
0.0
 11
684.1404888355208
 21
842.4106325694495
 31
0.0
  0
LINE
  5
2AB2
330
24E6
100
AcDbEntity
  8
1
 62
     7
100
AcDbLine
 10
659.5748175703997
 20
839.4449409308466
 30
0.0
 11
671.1404888355208
 21
839.3036325694495
 31
0.0
  0
LINE
  5
2AB3
330
24E6
100
AcDbEntity
  8
1
 62
     7
100
AcDbLine
 10
653.2404888355209
 20
868.6123185441216
 30
0.0
 11
653.2404888355209
 21
892.3206325694494
 31
0.0
  0
LINE
  5
2AB4
330
24E6
100
AcDbEntity
  8
1
 62
     7
100
AcDbLine
 10
653.5404888355209
 20
886.0706325694494
 30
0.0
 11
653.5404888355209
 21
868.6123185441216
 31
0.0
  0
LINE
  5
2AB5
330
24E6
100
AcDbEntity
  8
1
 62
     7
100
AcDbLine
 10
665.5404888355209
 20
886.3206325694495
 30
0.0
 11
665.5404888355209
 21
868.3206325694495
 31
0.0
  0
LINE
  5
2AB6
330
24E6
100
AcDbEntity
  8
1
 62
     7
100
AcDbLine
 10
660.040488835521
 20
886.0706325694494
 30
0.0
 11
660.040488835521
 21
868.3206325694495
 31
0.0
  0
LINE
  5
2AB7
330
24E6
100
AcDbEntity
  8
1
  6
PHANTOM
 62
     4
100
AcDbLine
 10
641.3404888355209
 20
836.5706325694494
 30
0.0
 11
620.540488835521
 21
836.5706325694494
 31
0.0
  0
LINE
  5
2AB8
330
24E6
100
AcDbEntity
  8
1
 62
     7
100
AcDbLine
 10
644.1354888355209
 20
841.5376325694493
 30
0.0
 11
621.772488835521
 21
841.5376325694493
 31
0.0
  0
LINE
  5
2AB9
330
24E6
100
AcDbEntity
  8
1
  6
PHANTOM
 62
     4
100
AcDbLine
 10
634.7404888355209
 20
848.0706325694495
 30
0.0
 11
615.540488835521
 21
848.0706325694495
 31
0.0
  0
LINE
  5
2ABA
330
24E6
100
AcDbEntity
  8
1
  6
PHANTOM
 62
     4
100
AcDbLine
 10
615.540488835521
 20
848.0706325694495
 30
0.0
 11
615.540488835521
 21
828.0706325694493
 31
0.0
  0
ARC
  5
2ABB
330
24E6
100
AcDbEntity
  8
1
 62
     7
100
AcDbCircle
 10
621.772488835521
 20
838.2056325694493
 30
0.0
 40
4.205000000000095
100
AcDbArc
 50
90.0
 51
180.0
  0
ARC
  5
2ABC
330
24E6
100
AcDbEntity
  8
1
 62
     7
100
AcDbCircle
 10
622.065488835521
 20
837.9126325694494
 30
0.0
 40
3.625
100
AcDbArc
 50
90.0
 51
180.0
  0
LINE
  5
2ABD
330
24E6
100
AcDbEntity
  8
1
 62
     7
100
AcDbLine
 10
664.0736138355205
 20
852.0739116412242
 30
0.0
 11
664.0736138355205
 21
848.0526325694494
 31
0.0
  0
LINE
  5
2ABE
330
24E6
100
AcDbEntity
  8
1
 62
     7
100
AcDbLine
 10
666.5136138355205
 20
847.4526325694494
 30
0.0
 11
666.5136138355205
 21
856.7976325694495
 31
0.0
  0
LINE
  5
2ABF
330
24E6
100
AcDbEntity
  8
1
 62
     7
100
AcDbLine
 10
662.9704888355206
 20
845.6426325694494
 30
0.0
 11
662.9704888355206
 21
856.4072727587985
 31
0.0
  0
ARC
  5
2AC0
330
24E6
100
AcDbEntity
  8
1
 62
     7
100
AcDbCircle
 10
644.1354888355209
 20
783.5376325694494
 30
0.0
 40
58.00000000000006
100
AcDbArc
 50
74.56200881538085
 51
90.0
  0
LINE
  5
2AC1
330
24E6
100
AcDbEntity
  8
1
 62
     7
100
AcDbLine
 10
655.640488835521
 20
838.9506325694496
 30
0.0
 11
655.640488835521
 21
836.3706325694495
 31
0.0
  0
ARC
  5
2AC2
330
24E6
100
AcDbEntity
  8
1
 62
     7
100
AcDbCircle
 10
660.340488835521
 20
835.2706325694494
 30
0.0
 40
0.3000000000000114
100
AcDbArc
 50
0.0
 51
90.0
  0
LINE
  5
2AC3
330
24E6
100
AcDbEntity
  8
1
 62
     7
100
AcDbLine
 10
660.340488835521
 20
835.5706325694495
 30
0.0
 11
656.440488835521
 21
835.5706325694495
 31
0.0
  0
LINE
  5
2AC4
330
24E6
100
AcDbEntity
  8
1
 62
     7
100
AcDbLine
 10
656.440488835521
 20
835.5706325694495
 30
0.0
 11
655.640488835521
 21
836.3706325694495
 31
0.0
  0
LINE
  5
2AC5
330
24E6
100
AcDbEntity
  8
1
 62
     7
100
AcDbLine
 10
655.640488835521
 20
838.9506325694496
 30
0.0
 11
657.4154888355209
 21
840.7256325694493
 31
0.0
  0
ARC
  5
2AC6
330
24E6
100
AcDbEntity
  8
1
 62
     7
100
AcDbCircle
 10
664.6736138355208
 20
848.0526325694494
 30
0.0
 40
0.6000000000000192
100
AcDbArc
 50
180.0
 51
270.0
  0
LINE
  5
2AC7
330
24E6
100
AcDbEntity
  8
1
 62
     7
100
AcDbLine
 10
668.3771399973112
 20
847.5014307193642
 30
0.0
 11
666.5136138355205
 21
847.4526325694494
 31
0.0
  0
LINE
  5
2AC8
330
24E6
100
AcDbEntity
  8
1
 62
     7
100
AcDbLine
 10
666.5136138355205
 20
847.4526325694494
 30
0.0
 11
664.6736138355208
 21
847.4526325694494
 31
0.0
  0
LINE
  5
2AC9
330
24E6
100
AcDbEntity
  8
1
 62
     7
100
AcDbLine
 10
663.7704888355209
 20
842.3946325694494
 30
0.0
 11
662.9704888355206
 21
842.8565127848012
 31
0.0
  0
LINE
  5
2ACA
330
24E6
100
AcDbEntity
  8
1
 62
     7
100
AcDbLine
 10
663.2704888355209
 20
845.9426325694494
 30
0.0
 11
662.9704888355206
 21
845.6426325694494
 31
0.0
  0
LINE
  5
2ACB
330
24E6
100
AcDbEntity
  8
1
 62
     7
100
AcDbLine
 10
662.9704888355206
 20
845.6426325694494
 30
0.0
 11
662.9704888355206
 21
842.8565127848012
 31
0.0
  0
LINE
  5
2ACC
330
24E6
100
AcDbEntity
  8
1
 62
     7
100
AcDbLine
 10
660.040488835521
 20
868.3206325694495
 30
0.0
 11
653.5404888355209
 21
868.3206325694495
 31
0.0
  0
LINE
  5
2ACD
330
24E6
100
AcDbEntity
  8
1
 62
     7
100
AcDbLine
 10
653.5404888355209
 20
868.6123185441216
 30
0.0
 11
653.5404888355209
 21
868.3206325694495
 31
0.0
  0
LINE
  5
2ACE
330
24E6
100
AcDbEntity
  8
1
 62
     7
100
AcDbLine
 10
653.5404888355209
 20
868.6123185441216
 30
0.0
 11
653.2404888355209
 21
868.6123185441216
 31
0.0
  0
LINE
  5
2ACF
330
24E6
100
AcDbEntity
  8
1
 62
     7
100
AcDbLine
 10
666.8954888355209
 20
858.0226325694495
 30
0.0
 11
666.0954888355206
 21
858.8226325694495
 31
0.0
  0
LINE
  5
2AD0
330
24E6
100
AcDbEntity
  8
1
 62
     7
100
AcDbLine
 10
662.4254888355209
 20
868.3206325694495
 30
0.0
 11
662.4254888355209
 21
853.5706325694494
 31
0.0
  0
LINE
  5
2AD1
330
24E6
100
AcDbEntity
  8
1
 62
     7
100
AcDbLine
 10
660.4404888355206
 20
868.3206325694495
 30
0.0
 11
660.4404888355206
 21
853.5706325694494
 31
0.0
  0
LINE
  5
2AD2
330
24E6
100
AcDbEntity
  8
1
 62
     7
100
AcDbLine
 10
662.4254888355209
 20
853.5706325694494
 30
0.0
 11
660.4404888355206
 21
853.5706325694494
 31
0.0
  0
ARC
  5
2AD3
330
24E6
100
AcDbEntity
  8
1
 62
     7
100
AcDbCircle
 10
664.171790467338
 20
856.1976325694494
 30
0.0
 40
0.5999999999999872
100
AcDbArc
 50
90.0
 51
187.0000000000059
  0
LINE
  5
2AD4
330
24E6
100
AcDbEntity
  8
1
 62
     7
100
AcDbLine
 10
666.5136138355205
 20
856.7976325694495
 30
0.0
 11
668.780668084079
 21
856.7976325694495
 31
0.0
  0
LINE
  5
2AD5
330
24E6
100
AcDbEntity
  8
1
 62
     7
100
AcDbLine
 10
666.5136138355205
 20
856.7976325694495
 30
0.0
 11
664.171790467338
 21
856.7976325694495
 31
0.0
  0
LINE
  5
2AD6
330
24E6
100
AcDbEntity
  8
1
 62
     7
100
AcDbLine
 10
664.0736138355205
 20
852.0739116412242
 30
0.0
 11
663.5762627763532
 21
856.1245109634063
 31
0.0
  0
LINE
  5
2AD7
330
24E6
100
AcDbEntity
  8
1
 62
     7
100
AcDbLine
 10
662.4254888355209
 20
868.3206325694495
 30
0.0
 11
665.5404888355209
 21
868.3206325694495
 31
0.0
  0
LINE
  5
2AD8
330
24E6
100
AcDbEntity
  8
1
 62
     7
100
AcDbLine
 10
660.040488835521
 20
868.3206325694495
 30
0.0
 11
660.4404888355206
 21
868.3206325694495
 31
0.0
  0
LINE
  5
2AD9
330
24E6
100
AcDbEntity
  8
1
 62
     7
100
AcDbLine
 10
666.0954888355206
 20
860.9056325694494
 30
0.0
 11
666.8954888355209
 21
861.7056325694495
 31
0.0
  0
LINE
  5
2ADA
330
24E6
100
AcDbEntity
  8
1
 62
     7
100
AcDbLine
 10
666.0954888355206
 20
858.8226325694495
 30
0.0
 11
666.0954888355206
 21
860.9056325694494
 31
0.0
  0
LINE
  5
2ADB
330
24E6
100
AcDbEntity
  8
1
 62
     7
100
AcDbLine
 10
665.5404888355209
 20
868.3206325694495
 30
0.0
 11
665.5404888355209
 21
861.7136325694493
 31
0.0
  0
LINE
  5
2ADC
330
24E6
100
AcDbEntity
  8
1
 62
     7
100
AcDbLine
 10
660.040488835521
 20
890.0706325694494
 30
0.0
 11
660.040488835521
 21
886.0706325694494
 31
0.0
  0
LINE
  5
2ADD
330
24E6
100
AcDbEntity
  8
1
 62
     7
100
AcDbLine
 10
665.5404888355209
 20
893.3206325694495
 30
0.0
 11
665.5404888355209
 21
886.3206325694495
 31
0.0
  0
LINE
  5
2ADE
330
24E6
100
AcDbEntity
  8
1
 62
     7
100
AcDbLine
 10
665.0254888355204
 20
893.5706325694495
 30
0.0
 11
665.0254888355204
 21
886.0706325694494
 31
0.0
  0
LINE
  5
2ADF
330
24E6
100
AcDbEntity
  8
1
 62
     7
100
AcDbLine
 10
653.5404888355209
 20
886.0706325694494
 30
0.0
 11
660.040488835521
 21
886.0706325694494
 31
0.0
  0
LINE
  5
2AE0
330
24E6
100
AcDbEntity
  8
1
 62
     7
100
AcDbLine
 10
665.0254888355204
 20
886.0706325694494
 30
0.0
 11
665.5404888355209
 21
886.0706325694494
 31
0.0
  0
LINE
  5
2AE1
330
24E6
100
AcDbEntity
  8
1
 62
     7
100
AcDbLine
 10
653.2404888355209
 20
892.3206325694494
 30
0.0
 11
660.040488835521
 21
892.3206325694494
 31
0.0
  0
LINE
  5
2AE2
330
24E6
100
AcDbEntity
  8
1
 62
     7
100
AcDbLine
 10
665.5404888355209
 20
893.3206325694495
 30
0.0
 11
660.040488835521
 21
893.3206325694495
 31
0.0
  0
LINE
  5
2AE3
330
24E6
100
AcDbEntity
  8
1
 62
     7
100
AcDbLine
 10
660.040488835521
 20
892.3206325694494
 30
0.0
 11
660.040488835521
 21
890.0706325694494
 31
0.0
  0
LINE
  5
2AE4
330
24E6
100
AcDbEntity
  8
1
 62
     7
100
AcDbLine
 10
660.040488835521
 20
893.5706325694495
 30
0.0
 11
660.040488835521
 21
893.3206325694495
 31
0.0
  0
LINE
  5
2AE5
330
24E6
100
AcDbEntity
  8
1
 62
     7
100
AcDbLine
 10
660.5404888355209
 20
893.5706325694495
 30
0.0
 11
660.5404888355209
 21
890.0706325694494
 31
0.0
  0
LINE
  5
2AE6
330
24E6
100
AcDbEntity
  8
1
 62
     7
100
AcDbLine
 10
660.040488835521
 20
893.3206325694495
 30
0.0
 11
660.040488835521
 21
892.3206325694494
 31
0.0
  0
LINE
  5
2AE7
330
24E6
100
AcDbEntity
  8
1
 62
     7
100
AcDbLine
 10
660.5404888355209
 20
890.0706325694494
 30
0.0
 11
660.040488835521
 21
890.0706325694494
 31
0.0
  0
LINE
  5
2AE8
330
24E6
100
AcDbEntity
  8
1
 62
     7
100
AcDbLine
 10
665.5404888355209
 20
893.5706325694495
 30
0.0
 11
665.5404888355209
 21
893.3206325694495
 31
0.0
  0
LINE
  5
2AE9
330
24E6
100
AcDbEntity
  8
1
 62
     7
100
AcDbLine
 10
680.8404888355205
 20
888.5706325694494
 30
0.0
 11
680.8404888355205
 21
861.7136325694493
 31
0.0
  0
ARC
  5
2AEA
330
24E6
100
AcDbEntity
  8
1
 62
     7
100
AcDbCircle
 10
673.4604888355208
 20
851.9376325694494
 30
0.0
 40
6.746874999999952
100
AcDbArc
 50
297.3072089598399
 51
64.40881962522881
  0
LINE
  5
2AEB
330
24E6
100
AcDbEntity
  8
1
 62
     7
100
AcDbLine
 10
683.9504888355208
 20
856.4072727587985
 30
0.0
 11
683.9504888355208
 21
845.6426325694494
 31
0.0
  0
LINE
  5
2AEC
330
24E6
100
AcDbEntity
  8
1
 62
     7
100
AcDbLine
 10
685.6404888355208
 20
861.7136325694493
 30
0.0
 11
685.6404888355208
 21
842.0473315305102
 31
0.0
  0
LINE
  5
2AED
330
24E6
100
AcDbEntity
  8
1
  6
DIVIDE
 62
     7
100
AcDbLine
 10
688.1404888355208
 20
836.5706325694494
 30
0.0
 11
688.1404888355208
 21
857.3252062888579
 31
0.0
  0
LINE
  5
2AEE
330
24E6
100
AcDbEntity
  8
1
 62
     7
100
AcDbLine
 10
683.865488835521
 20
840.7256325694493
 30
0.0
 11
685.6404888355208
 21
838.9506325694496
 31
0.0
  0
LINE
  5
2AEF
330
24E6
100
AcDbEntity
  8
1
 62
     7
100
AcDbLine
 10
685.3561896223939
 20
842.3469203909366
 30
0.0
 11
684.1404888355208
 21
842.4106325694495
 31
0.0
  0
LINE
  5
2AF0
330
24E6
100
AcDbEntity
  8
1
 62
     7
100
AcDbLine
 10
685.5526208698768
 20
841.2727646038053
 30
0.0
 11
683.6464079918567
 21
839.3665517257852
 31
0.0
  0
LINE
  5
2AF1
330
24E6
100
AcDbEntity
  8
1
 62
     7
100
AcDbLine
 10
683.150488835521
 20
842.3946325694494
 30
0.0
 11
673.4604888355208
 21
842.3946325694494
 31
0.0
  0
LINE
  5
2AF2
330
24E6
100
AcDbEntity
  8
1
 62
     7
100
AcDbLine
 10
683.6504888355209
 20
845.9426325694494
 30
0.0
 11
676.5556943643387
 21
845.9426325694494
 31
0.0
  0
LINE
  5
2AF3
330
24E6
100
AcDbEntity
  8
1
 62
     7
100
AcDbLine
 10
671.1404888355208
 20
839.3036325694495
 30
0.0
 11
678.1004888355206
 21
839.3036325694495
 31
0.0
  0
ARC
  5
2AF4
330
24E6
100
AcDbEntity
  8
1
 62
     7
100
AcDbCircle
 10
673.4604888355208
 20
851.9376325694494
 30
0.0
 40
6.746874999999986
100
AcDbArc
 50
270.0
 51
297.3072089598399
  0
ARC
  5
2AF5
330
24E6
100
AcDbEntity
  8
1
 62
     7
100
AcDbCircle
 10
673.4604888355208
 20
851.9376325694494
 30
0.0
 40
6.746874999999985
100
AcDbArc
 50
242.6927910401599
 51
270.0
  0
LINE
  5
2AF6
330
24E6
100
AcDbEntity
  8
1
 62
     7
100
AcDbLine
 10
683.9504888355208
 20
842.8565127848012
 30
0.0
 11
683.9504888355208
 21
845.6426325694494
 31
0.0
  0
LINE
  5
2AF7
330
24E6
100
AcDbEntity
  8
1
 62
     7
100
AcDbLine
 10
683.9504888355208
 20
845.6426325694494
 30
0.0
 11
683.6504888355209
 21
845.9426325694494
 31
0.0
  0
LINE
  5
2AF8
330
24E6
100
AcDbEntity
  8
1
 62
     7
100
AcDbLine
 10
683.9504888355208
 20
842.8565127848012
 30
0.0
 11
683.150488835521
 21
842.3946325694494
 31
0.0
  0
LINE
  5
2AF9
330
24E6
100
AcDbEntity
  8
1
 62
     7
100
AcDbLine
 10
683.6464079918567
 20
839.3665517257852
 30
0.0
 11
678.1004888355206
 21
839.3036325694495
 31
0.0
  0
LINE
  5
2AFA
330
24E6
100
AcDbEntity
  8
1
 62
     7
100
AcDbLine
 10
685.6404888355208
 20
838.9506325694496
 30
0.0
 11
685.6404888355208
 21
836.5706325694494
 31
0.0
  0
LINE
  5
2AFB
330
24E6
100
AcDbEntity
  8
1
  6
DIVIDE
 62
     7
100
AcDbLine
 10
685.6404888355208
 20
836.5706325694494
 30
0.0
 11
688.1404888355208
 21
836.5706325694494
 31
0.0
  0
ARC
  5
2AFC
330
24E6
100
AcDbEntity
  8
1
 62
     7
100
AcDbCircle
 10
685.340488835521
 20
842.0473315305102
 30
0.0
 40
0.3000000000000114
100
AcDbArc
 50
0.0
 51
86.99999999999423
  0
ARC
  5
2AFD
330
24E6
100
AcDbEntity
  8
1
 62
     7
100
AcDbCircle
 10
685.340488835521
 20
841.4848966381613
 30
0.0
 40
0.3000000000000194
100
AcDbArc
 50
315.0000000000184
 51
0.0
  0
LINE
  5
2AFE
330
24E6
100
AcDbEntity
  8
1
 62
     7
100
AcDbLine
 10
685.6404888355208
 20
842.0473315305102
 30
0.0
 11
685.6404888355208
 21
841.4848966381613
 31
0.0
  0
ARC
  5
2AFF
330
24E6
100
AcDbEntity
  8
1
 62
     7
100
AcDbCircle
 10
673.4604888355208
 20
851.9376325694494
 30
0.0
 40
6.746875000000022
100
AcDbArc
 50
64.40881962522881
 51
90.0
  0
ARC
  5
2B00
330
24E6
100
AcDbEntity
  8
1
 62
     7
100
AcDbCircle
 10
673.4604888355208
 20
851.9376325694494
 30
0.0
 40
6.746875000000017
100
AcDbArc
 50
90.0
 51
115.5911803747711
  0
LINE
  5
2B01
330
24E6
100
AcDbEntity
  8
1
 62
     7
100
AcDbLine
 10
680.8254888355208
 20
858.8226325694495
 30
0.0
 11
680.025488835521
 21
858.0226325694495
 31
0.0
  0
LINE
  5
2B02
330
24E6
100
AcDbEntity
  8
1
 62
     7
100
AcDbLine
 10
680.025488835521
 20
858.0226325694495
 30
0.0
 11
676.3747807333281
 21
858.0226325694495
 31
0.0
  0
LINE
  5
2B03
330
24E6
100
AcDbEntity
  8
1
 62
     7
100
AcDbLine
 10
680.025488835521
 20
861.7056325694495
 30
0.0
 11
673.4604888355208
 21
861.7056325694495
 31
0.0
  0
LINE
  5
2B04
330
24E6
100
AcDbEntity
  8
1
 62
     7
100
AcDbLine
 10
680.8254888355208
 20
860.9056325694494
 30
0.0
 11
680.8254888355208
 21
858.8226325694495
 31
0.0
  0
LINE
  5
2B05
330
24E6
100
AcDbEntity
  8
1
 62
     7
100
AcDbLine
 10
680.025488835521
 20
861.7056325694495
 30
0.0
 11
680.8254888355208
 21
860.9056325694494
 31
0.0
  0
LINE
  5
2B06
330
24E6
100
AcDbEntity
  8
1
 62
     7
100
AcDbLine
 10
683.025488835521
 20
893.4206325694495
 30
0.0
 11
683.025488835521
 21
888.5706325694494
 31
0.0
  0
LINE
  5
2B07
330
24E6
100
AcDbEntity
  8
1
 62
     7
100
AcDbLine
 10
672.2254888355206
 20
893.3206325694495
 30
0.0
 11
672.2254888355206
 21
886.3206325694495
 31
0.0
  0
LINE
  5
2B08
330
24E6
100
AcDbEntity
  8
1
 62
     7
100
AcDbLine
 10
672.2254888355206
 20
893.3206325694495
 30
0.0
 11
672.2254888355206
 21
886.3206325694495
 31
0.0
  0
LINE
  5
2B09
330
24E6
100
AcDbEntity
  8
1
 62
     7
100
AcDbLine
 10
680.8404888355205
 20
893.3206325694495
 30
0.0
 11
680.8404888355205
 21
888.5706325694494
 31
0.0
  0
LINE
  5
2B0A
330
24E6
100
AcDbEntity
  8
1
 62
     7
100
AcDbLine
 10
684.840488835521
 20
889.1365974318899
 30
0.0
 11
684.840488835521
 21
893.5706325694495
 31
0.0
  0
LINE
  5
2B0B
330
24E6
100
AcDbEntity
  8
1
 62
     7
100
AcDbLine
 10
684.840488835521
 20
889.1365974318899
 30
0.0
 11
684.840488835521
 21
894.5706325694494
 31
0.0
  0
LINE
  5
2B0C
330
24E6
100
AcDbEntity
  8
1
 62
     7
100
AcDbLine
 10
683.025488835521
 20
888.5706325694494
 30
0.0
 11
680.8404888355205
 21
888.5706325694494
 31
0.0
  0
LINE
  5
2B0D
330
24E6
100
AcDbEntity
  8
1
 62
     7
100
AcDbLine
 10
684.840488835521
 20
889.1365974318899
 30
0.0
 11
683.025488835521
 21
889.1365974318899
 31
0.0
  0
LINE
  5
2B0E
330
24E6
100
AcDbEntity
  8
1
 62
     7
100
AcDbLine
 10
684.840488835521
 20
893.5706325694495
 30
0.0
 11
687.7404888355211
 21
893.5706325694495
 31
0.0
  0
LINE
  5
2B0F
330
24E6
100
AcDbEntity
  8
1
 62
     7
100
AcDbLine
 10
680.8404888355205
 20
893.3206325694495
 30
0.0
 11
672.2254888355206
 21
893.3206325694495
 31
0.0
  0
LINE
  5
2B10
330
24E6
100
AcDbEntity
  8
1
 62
     7
100
AcDbLine
 10
672.2254888355206
 20
893.5706325694495
 30
0.0
 11
672.2254888355206
 21
893.3206325694495
 31
0.0
  0
LINE
  5
2B11
330
24E6
100
AcDbEntity
  8
1
 62
     7
100
AcDbLine
 10
680.8404888355205
 20
893.5706325694495
 30
0.0
 11
683.025488835521
 21
893.5706325694495
 31
0.0
  0
LINE
  5
2B12
330
24E6
100
AcDbEntity
  8
1
 62
     7
100
AcDbLine
 10
680.8404888355205
 20
893.3206325694495
 30
0.0
 11
680.8404888355205
 21
893.5706325694495
 31
0.0
  0
LINE
  5
2B13
330
24E6
100
AcDbEntity
  8
1
 62
     7
100
AcDbLine
 10
683.025488835521
 20
893.4206325694495
 30
0.0
 11
680.8404888355205
 21
893.4206325694495
 31
0.0
  0
LINE
  5
2B14
330
24E6
100
AcDbEntity
  8
1
 62
     7
100
AcDbLine
 10
683.025488835521
 20
894.5706325694494
 30
0.0
 11
683.025488835521
 21
893.4206325694495
 31
0.0
  0
LINE
  5
2B15
330
24E6
100
AcDbEntity
  8
1
 62
     7
100
AcDbLine
 10
684.840488835521
 20
894.5706325694494
 30
0.0
 11
683.025488835521
 21
894.5706325694494
 31
0.0
  0
LINE
  5
2B16
330
24E6
100
AcDbEntity
  8
1
 62
     7
100
AcDbLine
 10
688.1404888355208
 20
902.5706325694493
 30
0.0
 11
688.1404888355208
 21
893.9706325694494
 31
0.0
  0
LINE
  5
2B17
330
24E6
100
AcDbEntity
  8
1
 62
     7
100
AcDbLine
 10
688.1404888355208
 20
893.9706325694494
 30
0.0
 11
687.7404888355211
 21
893.5706325694495
 31
0.0
  0
ARC
  5
2B18
330
24E6
100
AcDbEntity
  8
1
 62
     7
100
AcDbCircle
 10
673.4604888355208
 20
975.1876325694492
 30
0.0
 40
6.746875000000008
100
AcDbArc
 50
117.30720895984
 51
244.4088196252288
  0
LINE
  5
2B19
330
24E6
100
AcDbEntity
  8
1
  6
CENTER
 62
     3
100
AcDbLine
 10
649.0442207086509
 20
913.5706325694494
 30
0.0
 11
697.8123572545369
 21
913.5706325694494
 31
0.0
  0
LINE
  5
2B1A
330
24E6
100
AcDbEntity
  8
1
 62
     7
100
AcDbLine
 10
663.7704888355209
 20
984.7306325694495
 30
0.0
 11
673.4604888355208
 21
984.7306325694495
 31
0.0
  0
LINE
  5
2B1B
330
24E6
100
AcDbEntity
  8
1
 62
     7
100
AcDbLine
 10
663.2704888355209
 20
981.1826325694495
 30
0.0
 11
670.3652833067031
 21
981.1826325694495
 31
0.0
  0
LINE
  5
2B1C
330
24E6
100
AcDbEntity
  8
1
 62
     7
100
AcDbLine
 10
666.8954888355209
 20
965.4196325694492
 30
0.0
 11
673.4604888355208
 21
965.4196325694492
 31
0.0
  0
LINE
  5
2B1D
330
24E6
100
AcDbEntity
  8
1
 62
     7
100
AcDbLine
 10
666.8954888355209
 20
969.1026325694494
 30
0.0
 11
670.5461969377133
 21
969.1026325694494
 31
0.0
  0
LINE
  5
2B1E
330
24E6
100
AcDbEntity
  8
1
 62
     7
100
AcDbLine
 10
653.2404888355209
 20
924.1536378137077
 30
0.0
 11
688.1404888355208
 21
924.1536378137077
 31
0.0
  0
LINE
  5
2B1F
330
24E6
100
AcDbEntity
  8
1
 62
     7
100
AcDbLine
 10
653.2404888355209
 20
927.3706325694494
 30
0.0
 11
688.1404888355208
 21
927.3706325694494
 31
0.0
  0
LINE
  5
2B20
330
24E6
100
AcDbEntity
  8
1
 62
     7
100
AcDbLine
 10
680.8404888355205
 20
933.5706325694495
 30
0.0
 11
660.040488835521
 21
933.5706325694493
 31
0.0
  0
LINE
  5
2B21
330
24E6
100
AcDbEntity
  8
1
 62
     7
100
AcDbLine
 10
665.5404888355209
 20
933.8206325694493
 30
0.0
 11
672.2254888355206
 21
933.8206325694493
 31
0.0
  0
LINE
  5
2B22
330
24E6
100
AcDbEntity
  8
1
 62
     7
100
AcDbLine
 10
672.0254888355209
 20
958.8206325694493
 30
0.0
 11
665.5404888355209
 21
958.8206325694493
 31
0.0
  0
LINE
  5
2B23
330
24E6
100
AcDbEntity
  8
1
 62
     7
100
AcDbLine
 10
672.2254888355206
 20
965.4276325694493
 30
0.0
 11
665.5404888355209
 21
965.4276325694493
 31
0.0
  0
LINE
  5
2B24
330
24E6
100
AcDbEntity
  8
1
 62
     7
100
AcDbLine
 10
665.525488835521
 20
941.0706325694492
 30
0.0
 11
672.0254888355209
 21
941.0706325694492
 31
0.0
  0
LINE
  5
2B25
330
24E6
100
AcDbEntity
  8
1
 62
     7
100
AcDbLine
 10
665.5404888355209
 20
940.8206325694493
 30
0.0
 11
672.2254888355206
 21
940.8206325694493
 31
0.0
  0
LINE
  5
2B26
330
24E6
100
AcDbEntity
  8
1
 62
     7
100
AcDbLine
 10
656.0807681850754
 20
987.7706325694493
 30
0.0
 11
685.2168999731779
 21
987.7706325694493
 31
0.0
  0
LINE
  5
2B27
330
24E6
100
AcDbEntity
  8
1
 62
     7
100
AcDbLine
 10
657.4154888355209
 20
986.4156325694493
 30
0.0
 11
683.865488835521
 21
986.4156325694493
 31
0.0
  0
LINE
  5
2B28
330
24E6
100
AcDbEntity
  8
1
 62
     7
100
AcDbLine
 10
684.1404888355208
 20
984.7306325694495
 30
0.0
 11
621.772488835521
 21
984.7306325694495
 31
0.0
  0
LINE
  5
2B29
330
24E6
100
AcDbEntity
  8
1
 62
     7
100
AcDbLine
 10
671.1404888355208
 20
987.8376325694492
 30
0.0
 11
659.5748175703997
 21
987.696324208052
 31
0.0
  0
LINE
  5
2B2A
330
24E6
100
AcDbEntity
  8
1
 62
     7
100
AcDbLine
 10
653.2404888355209
 20
959.0706325694494
 30
0.0
 11
653.2404888355209
 21
927.3706325694494
 31
0.0
  0
LINE
  5
2B2B
330
24E6
100
AcDbEntity
  8
1
 62
     7
100
AcDbLine
 10
660.040488835521
 20
958.8206325694493
 30
0.0
 11
660.040488835521
 21
937.0706325694493
 31
0.0
  0
LINE
  5
2B2C
330
24E6
100
AcDbEntity
  8
1
 62
     7
100
AcDbLine
 10
665.5404888355209
 20
958.8206325694493
 30
0.0
 11
665.5404888355209
 21
940.8206325694493
 31
0.0
  0
LINE
  5
2B2D
330
24E6
100
AcDbEntity
  8
1
 62
     7
100
AcDbLine
 10
617.5674888355209
 20
988.9356325694496
 30
0.0
 11
617.5674888355209
 21
913.5706325694494
 31
0.0
  0
LINE
  5
2B2E
330
24E6
100
AcDbEntity
  8
1
  6
CENTER
 62
     3
100
AcDbLine
 10
617.5674888355209
 20
913.5706325694494
 30
0.0
 11
629.5334383793276
 21
913.5706325694494
 31
0.0
  0
LINE
  5
2B2F
330
24E6
100
AcDbEntity
  8
1
 62
     7
100
AcDbLine
 10
653.2404888355209
 20
927.3706325694494
 30
0.0
 11
653.2404888355209
 21
924.1536378137077
 31
0.0
  0
LINE
  5
2B30
330
24E6
100
AcDbEntity
  8
1
 62
     7
100
AcDbLine
 10
660.040488835521
 20
933.8206325694493
 30
0.0
 11
665.5404888355209
 21
933.8206325694493
 31
0.0
  0
LINE
  5
2B31
330
24E6
100
AcDbEntity
  8
1
 62
     7
100
AcDbLine
 10
660.040488835521
 20
933.8206325694493
 30
0.0
 11
660.040488835521
 21
933.5706325694493
 31
0.0
  0
LINE
  5
2B32
330
24E6
100
AcDbEntity
  8
1
 62
     7
100
AcDbLine
 10
660.5404888355209
 20
937.0706325694493
 30
0.0
 11
660.5404888355209
 21
933.5706325694493
 31
0.0
  0
LINE
  5
2B33
330
24E6
100
AcDbEntity
  8
1
 62
     7
100
AcDbLine
 10
660.040488835521
 20
937.0706325694493
 30
0.0
 11
660.040488835521
 21
933.8206325694493
 31
0.0
  0
LINE
  5
2B34
330
24E6
100
AcDbEntity
  8
1
 62
     7
100
AcDbLine
 10
660.040488835521
 20
937.0706325694493
 30
0.0
 11
660.5404888355209
 21
937.0706325694493
 31
0.0
  0
LINE
  5
2B35
330
24E6
100
AcDbEntity
  8
1
 62
     7
100
AcDbLine
 10
665.5404888355209
 20
940.8206325694493
 30
0.0
 11
665.5404888355209
 21
933.8206325694493
 31
0.0
  0
LINE
  5
2B36
330
24E6
100
AcDbEntity
  8
1
 62
     7
100
AcDbLine
 10
665.0254888355204
 20
941.0706325694492
 30
0.0
 11
665.0254888355204
 21
933.5706325694493
 31
0.0
  0
LINE
  5
2B37
330
24E6
100
AcDbEntity
  8
1
 62
     7
100
AcDbLine
 10
665.525488835521
 20
941.0706325694492
 30
0.0
 11
665.0254888355204
 21
941.0706325694492
 31
0.0
  0
LINE
  5
2B38
330
24E6
100
AcDbEntity
  8
1
 62
     7
100
AcDbLine
 10
665.5404888355209
 20
933.8206325694493
 30
0.0
 11
665.5404888355209
 21
933.5706325694493
 31
0.0
  0
LINE
  5
2B39
330
24E6
100
AcDbEntity
  8
1
 62
     7
100
AcDbLine
 10
622.065488835521
 20
985.6036325694493
 30
0.0
 11
644.1354888355209
 21
985.6036325694493
 31
0.0
  0
LINE
  5
2B3A
330
24E6
100
AcDbEntity
  8
1
  6
PHANTOM
 62
     4
100
AcDbLine
 10
620.540488835521
 20
990.5706325694492
 30
0.0
 11
641.3404888355209
 21
990.5706325694492
 31
0.0
  0
LINE
  5
2B3B
330
24E6
100
AcDbEntity
  8
1
  6
PHANTOM
 62
     4
100
AcDbLine
 10
615.540488835521
 20
979.0706325694491
 30
0.0
 11
634.7404888355209
 21
979.0706325694491
 31
0.0
  0
ARC
  5
2B3C
330
24E6
100
AcDbEntity
  8
1
 62
     7
100
AcDbCircle
 10
621.772488835521
 20
988.9356325694496
 30
0.0
 40
4.204999999999984
100
AcDbArc
 50
180.0
 51
270.0
  0
ARC
  5
2B3D
330
24E6
100
AcDbEntity
  8
1
 62
     7
100
AcDbCircle
 10
622.065488835521
 20
989.2286325694493
 30
0.0
 40
3.624999999999996
100
AcDbArc
 50
180.0
 51
270.0
  0
LINE
  5
2B3E
330
24E6
100
AcDbEntity
  8
1
 62
     7
100
AcDbLine
 10
666.5136138355205
 20
970.3276325694494
 30
0.0
 11
666.5136138355205
 21
979.6726325694494
 31
0.0
  0
LINE
  5
2B3F
330
24E6
100
AcDbEntity
  8
1
 62
     7
100
AcDbLine
 10
663.5762627763532
 20
971.0007541754924
 30
0.0
 11
664.0736138355205
 21
975.0513534976747
 31
0.0
  0
LINE
  5
2B40
330
24E6
100
AcDbEntity
  8
1
 62
     7
100
AcDbLine
 10
662.9704888355206
 20
970.7179923801001
 30
0.0
 11
662.9704888355206
 21
981.4826325694493
 31
0.0
  0
LINE
  5
2B41
330
24E6
100
AcDbEntity
  8
1
 62
     7
100
AcDbLine
 10
660.040488835521
 20
959.0706325694494
 30
0.0
 11
653.2404888355209
 21
959.0706325694494
 31
0.0
  0
LINE
  5
2B42
330
24E6
100
AcDbEntity
  8
1
 62
     7
100
AcDbLine
 10
660.4404888355206
 20
973.5706325694494
 30
0.0
 11
660.4404888355206
 21
958.8206325694493
 31
0.0
  0
LINE
  5
2B43
330
24E6
100
AcDbEntity
  8
1
 62
     7
100
AcDbLine
 10
665.5404888355209
 20
965.4276325694493
 30
0.0
 11
665.5404888355209
 21
958.8206325694493
 31
0.0
  0
LINE
  5
2B44
330
24E6
100
AcDbEntity
  8
1
 62
     7
100
AcDbLine
 10
662.4254888355209
 20
973.5706325694494
 30
0.0
 11
662.4254888355209
 21
958.8206325694493
 31
0.0
  0
LINE
  5
2B45
330
24E6
100
AcDbEntity
  8
1
 62
     7
100
AcDbLine
 10
665.5404888355209
 20
958.8206325694493
 30
0.0
 11
662.4254888355209
 21
958.8206325694493
 31
0.0
  0
LINE
  5
2B46
330
24E6
100
AcDbEntity
  8
1
 62
     7
100
AcDbLine
 10
660.040488835521
 20
958.8206325694493
 30
0.0
 11
660.040488835521
 21
959.0706325694494
 31
0.0
  0
LINE
  5
2B47
330
24E6
100
AcDbEntity
  8
1
 62
     7
100
AcDbLine
 10
660.4404888355206
 20
958.8206325694493
 30
0.0
 11
660.040488835521
 21
958.8206325694493
 31
0.0
  0
LINE
  5
2B48
330
24E6
100
AcDbEntity
  8
1
 62
     7
100
AcDbLine
 10
660.4404888355206
 20
973.5706325694494
 30
0.0
 11
662.4254888355209
 21
973.5706325694494
 31
0.0
  0
ARC
  5
2B49
330
24E6
100
AcDbEntity
  8
1
 62
     7
100
AcDbCircle
 10
664.171790467338
 20
970.9276325694494
 30
0.0
 40
0.5999999999999936
100
AcDbArc
 50
173.0000000000006
 51
270.0
  0
LINE
  5
2B4A
330
24E6
100
AcDbEntity
  8
1
 62
     7
100
AcDbLine
 10
664.171790467338
 20
970.3276325694494
 30
0.0
 11
666.5136138355205
 21
970.3276325694494
 31
0.0
  0
LINE
  5
2B4B
330
24E6
100
AcDbEntity
  8
1
 62
     7
100
AcDbLine
 10
668.780668084079
 20
970.3276325694494
 30
0.0
 11
666.5136138355205
 21
970.3276325694494
 31
0.0
  0
LINE
  5
2B4C
330
24E6
100
AcDbEntity
  8
1
 62
     7
100
AcDbLine
 10
666.0954888355206
 20
966.2196325694495
 30
0.0
 11
666.0954888355206
 21
968.3026325694493
 31
0.0
  0
LINE
  5
2B4D
330
24E6
100
AcDbEntity
  8
1
 62
     7
100
AcDbLine
 10
666.0954888355206
 20
968.3026325694493
 30
0.0
 11
666.8954888355209
 21
969.1026325694494
 31
0.0
  0
LINE
  5
2B4E
330
24E6
100
AcDbEntity
  8
1
 62
     7
100
AcDbLine
 10
666.8954888355209
 20
965.4196325694492
 30
0.0
 11
666.0954888355206
 21
966.2196325694495
 31
0.0
  0
ARC
  5
2B4F
330
24E6
100
AcDbEntity
  8
1
 62
     7
100
AcDbCircle
 10
644.1354888355209
 20
1043.603632569449
 30
0.0
 40
57.99999999999997
100
AcDbArc
 50
270.0
 51
285.4379911846191
  0
LINE
  5
2B50
330
24E6
100
AcDbEntity
  8
1
 62
     7
100
AcDbLine
 10
662.9704888355206
 20
984.2687523540979
 30
0.0
 11
662.9704888355206
 21
981.4826325694493
 31
0.0
  0
ARC
  5
2B51
330
24E6
100
AcDbEntity
  8
1
 62
     7
100
AcDbCircle
 10
664.6736138355208
 20
979.0726325694494
 30
0.0
 40
0.5999999999999659
100
AcDbArc
 50
90.0
 51
180.0
  0
LINE
  5
2B52
330
24E6
100
AcDbEntity
  8
1
 62
     7
100
AcDbLine
 10
664.6736138355208
 20
979.6726325694494
 30
0.0
 11
666.5136138355205
 21
979.6726325694494
 31
0.0
  0
LINE
  5
2B53
330
24E6
100
AcDbEntity
  8
1
 62
     7
100
AcDbLine
 10
664.0736138355205
 20
979.0726325694494
 30
0.0
 11
664.0736138355205
 21
975.0513534976747
 31
0.0
  0
LINE
  5
2B54
330
24E6
100
AcDbEntity
  8
1
 62
     7
100
AcDbLine
 10
666.5136138355205
 20
979.6726325694494
 30
0.0
 11
668.3771399973112
 21
979.6238344195346
 31
0.0
  0
LINE
  5
2B55
330
24E6
100
AcDbEntity
  8
1
 62
     7
100
AcDbLine
 10
662.9704888355206
 20
981.4826325694493
 30
0.0
 11
663.2704888355209
 21
981.1826325694495
 31
0.0
  0
ARC
  5
2B56
330
24E6
100
AcDbEntity
  8
1
 62
     7
100
AcDbCircle
 10
660.340488835521
 20
991.8706325694493
 30
0.0
 40
0.3000000000000114
100
AcDbArc
 50
270.0
 51
0.0
  0
LINE
  5
2B57
330
24E6
100
AcDbEntity
  8
1
 62
     7
100
AcDbLine
 10
657.4154888355209
 20
986.4156325694493
 30
0.0
 11
655.640488835521
 21
988.1906325694492
 31
0.0
  0
LINE
  5
2B58
330
24E6
100
AcDbEntity
  8
1
 62
     7
100
AcDbLine
 10
655.640488835521
 20
990.7706325694492
 30
0.0
 11
655.640488835521
 21
988.1906325694492
 31
0.0
  0
LINE
  5
2B59
330
24E6
100
AcDbEntity
  8
1
 62
     7
100
AcDbLine
 10
656.440488835521
 20
991.5706325694491
 30
0.0
 11
660.340488835521
 21
991.5706325694491
 31
0.0
  0
LINE
  5
2B5A
330
24E6
100
AcDbEntity
  8
1
 62
     7
100
AcDbLine
 10
656.440488835521
 20
991.5706325694491
 30
0.0
 11
655.640488835521
 21
990.7706325694492
 31
0.0
  0
LINE
  5
2B5B
330
24E6
100
AcDbEntity
  8
1
 62
     7
100
AcDbLine
 10
662.9704888355206
 20
984.2687523540979
 30
0.0
 11
663.7704888355209
 21
984.7306325694495
 31
0.0
  0
LINE
  5
2B5C
330
24E6
100
AcDbEntity
  8
1
 62
     7
100
AcDbLine
 10
672.2254888355206
 20
940.8206325694493
 30
0.0
 11
672.2254888355206
 21
965.4276325694493
 31
0.0
  0
LINE
  5
2B5D
330
24E6
100
AcDbEntity
  8
1
 62
     7
100
AcDbLine
 10
672.0254888355209
 20
958.8206325694493
 30
0.0
 11
672.0254888355209
 21
941.0706325694492
 31
0.0
  0
LINE
  5
2B5E
330
24E6
100
AcDbEntity
  8
1
 62
     7
100
AcDbLine
 10
680.8404888355205
 20
933.8206325694493
 30
0.0
 11
680.8404888355205
 21
965.4276325694493
 31
0.0
  0
LINE
  5
2B5F
330
24E6
100
AcDbEntity
  8
1
 62
     7
100
AcDbLine
 10
688.1404888355208
 20
933.1706325694495
 30
0.0
 11
688.1404888355208
 21
927.3706325694494
 31
0.0
  0
LINE
  5
2B60
330
24E6
100
AcDbEntity
  8
1
 62
     7
100
AcDbLine
 10
688.1404888355208
 20
927.3706325694494
 30
0.0
 11
688.1404888355208
 21
924.1536378137077
 31
0.0
  0
LINE
  5
2B61
330
24E6
100
AcDbEntity
  8
1
 62
     7
100
AcDbLine
 10
684.840488835521
 20
933.5706325694493
 30
0.0
 11
687.7404888355211
 21
933.5706325694493
 31
0.0
  0
LINE
  5
2B62
330
24E6
100
AcDbEntity
  8
1
 62
     7
100
AcDbLine
 10
672.2254888355206
 20
933.8206325694493
 30
0.0
 11
680.8404888355205
 21
933.8206325694493
 31
0.0
  0
LINE
  5
2B63
330
24E6
100
AcDbEntity
  8
1
 62
     7
100
AcDbLine
 10
672.2254888355206
 20
933.8206325694493
 30
0.0
 11
672.2254888355206
 21
933.5706325694493
 31
0.0
  0
LINE
  5
2B64
330
24E6
100
AcDbEntity
  8
1
 62
     7
100
AcDbLine
 10
672.2254888355206
 20
940.8206325694493
 30
0.0
 11
672.2254888355206
 21
933.8206325694493
 31
0.0
  0
LINE
  5
2B65
330
24E6
100
AcDbEntity
  8
1
 62
     7
100
AcDbLine
 10
684.840488835521
 20
933.5706325694493
 30
0.0
 11
684.840488835521
 21
937.0706325694493
 31
0.0
  0
LINE
  5
2B66
330
24E6
100
AcDbEntity
  8
1
 62
     7
100
AcDbLine
 10
683.025488835521
 20
937.0706325694495
 30
0.0
 11
683.025488835521
 21
933.7206325694493
 31
0.0
  0
LINE
  5
2B67
330
24E6
100
AcDbEntity
  8
1
 62
     7
100
AcDbLine
 10
683.025488835521
 20
937.0706325694495
 30
0.0
 11
684.840488835521
 21
937.0706325694493
 31
0.0
  0
LINE
  5
2B68
330
24E6
100
AcDbEntity
  8
1
 62
     7
100
AcDbLine
 10
683.025488835521
 20
933.5706325694495
 30
0.0
 11
680.8404888355205
 21
933.5706325694495
 31
0.0
  0
LINE
  5
2B69
330
24E6
100
AcDbEntity
  8
1
 62
     7
100
AcDbLine
 10
680.8404888355205
 20
933.7206325694493
 30
0.0
 11
683.025488835521
 21
933.7206325694493
 31
0.0
  0
LINE
  5
2B6A
330
24E6
100
AcDbEntity
  8
1
 62
     7
100
AcDbLine
 10
680.8404888355205
 20
938.5706325694496
 30
0.0
 11
683.025488835521
 21
938.5706325694496
 31
0.0
  0
LINE
  5
2B6B
330
24E6
100
AcDbEntity
  8
1
 62
     7
100
AcDbLine
 10
683.025488835521
 20
938.5706325694496
 30
0.0
 11
683.025488835521
 21
937.0706325694495
 31
0.0
  0
LINE
  5
2B6C
330
24E6
100
AcDbEntity
  8
1
 62
     7
100
AcDbLine
 10
683.025488835521
 20
933.7206325694493
 30
0.0
 11
683.025488835521
 21
932.5706325694495
 31
0.0
  0
LINE
  5
2B6D
330
24E6
100
AcDbEntity
  8
1
 62
     7
100
AcDbLine
 10
683.025488835521
 20
932.5706325694495
 30
0.0
 11
684.840488835521
 21
932.5706325694495
 31
0.0
  0
LINE
  5
2B6E
330
24E6
100
AcDbEntity
  8
1
 62
     7
100
AcDbLine
 10
684.840488835521
 20
932.5706325694495
 30
0.0
 11
684.840488835521
 21
933.5706325694493
 31
0.0
  0
LINE
  5
2B6F
330
24E6
100
AcDbEntity
  8
1
 62
     7
100
AcDbLine
 10
680.8404888355205
 20
933.8206325694493
 30
0.0
 11
680.8404888355205
 21
933.5706325694495
 31
0.0
  0
LINE
  5
2B70
330
24E6
100
AcDbEntity
  8
1
 62
     7
100
AcDbLine
 10
688.1404888355208
 20
933.1706325694495
 30
0.0
 11
687.7404888355211
 21
933.5706325694493
 31
0.0
  0
ARC
  5
2B71
330
24E6
100
AcDbEntity
  8
1
 62
     7
100
AcDbCircle
 10
673.4604888355208
 20
975.1876325694492
 30
0.0
 40
6.746874999999991
100
AcDbArc
 50
313.9179793320061
 51
41.11096871564919
  0
LINE
  5
2B72
330
24E6
100
AcDbEntity
  8
1
 62
     7
100
AcDbLine
 10
683.9504888355208
 20
981.4826325694493
 30
0.0
 11
683.9504888355208
 21
970.7179923801001
 31
0.0
  0
LINE
  5
2B73
330
24E6
100
AcDbEntity
  8
1
  6
DIVIDE
 62
     7
100
AcDbLine
 10
688.1404888355208
 20
969.8160588500408
 30
0.0
 11
688.1404888355208
 21
990.5706325694492
 31
0.0
  0
LINE
  5
2B74
330
24E6
100
AcDbEntity
  8
1
  6
DIVIDE
 62
     7
100
AcDbLine
 10
688.1404888355208
 20
969.8160588500408
 30
0.0
 11
688.1404888355208
 21
990.5706325694492
 31
0.0
  0
LINE
  5
2B75
330
24E6
100
AcDbEntity
  8
1
 62
     7
100
AcDbLine
 10
685.6404888355208
 20
985.0939336083881
 30
0.0
 11
685.6404888355208
 21
965.4276325694493
 31
0.0
  0
ARC
  5
2B76
330
24E6
100
AcDbEntity
  8
1
 62
     7
100
AcDbCircle
 10
673.4604888355208
 20
975.1876325694492
 30
0.0
 40
6.746875000000047
100
AcDbArc
 50
295.5911803747711
 51
313.9179793320061
  0
LINE
  5
2B77
330
24E6
100
AcDbEntity
  8
1
 62
     7
100
AcDbLine
 10
676.3747807333281
 20
969.1026325694494
 30
0.0
 11
680.025488835521
 21
969.1026325694494
 31
0.0
  0
LINE
  5
2B78
330
24E6
100
AcDbEntity
  8
1
 62
     7
100
AcDbLine
 10
673.4604888355208
 20
965.4196325694492
 30
0.0
 11
680.025488835521
 21
965.4196325694492
 31
0.0
  0
LINE
  5
2B79
330
24E6
100
AcDbEntity
  8
1
 62
     7
100
AcDbLine
 10
680.8404888355205
 20
965.4276325694493
 30
0.0
 11
672.2254888355206
 21
965.4276325694493
 31
0.0
  0
ARC
  5
2B7A
330
24E6
100
AcDbEntity
  8
1
 62
     7
100
AcDbCircle
 10
673.4604888355208
 20
975.1876325694492
 30
0.0
 40
6.746875000000073
100
AcDbArc
 50
244.4088196252288
 51
270.0
  0
ARC
  5
2B7B
330
24E6
100
AcDbEntity
  8
1
 62
     7
100
AcDbCircle
 10
673.4604888355208
 20
975.1876325694492
 30
0.0
 40
6.74687500000004
100
AcDbArc
 50
270.0
 51
295.5911803747711
  0
LINE
  5
2B7C
330
24E6
100
AcDbEntity
  8
1
 62
     7
100
AcDbLine
 10
680.8254888355208
 20
966.2196325694495
 30
0.0
 11
680.025488835521
 21
965.4196325694492
 31
0.0
  0
LINE
  5
2B7D
330
24E6
100
AcDbEntity
  8
1
 62
     7
100
AcDbLine
 10
680.025488835521
 20
969.1026325694494
 30
0.0
 11
680.8254888355208
 21
968.3026325694493
 31
0.0
  0
LINE
  5
2B7E
330
24E6
100
AcDbEntity
  8
1
 62
     7
100
AcDbLine
 10
680.8254888355208
 20
968.3026325694493
 30
0.0
 11
680.8254888355208
 21
966.2196325694495
 31
0.0
  0
LINE
  5
2B7F
330
24E6
100
AcDbEntity
  8
1
 62
     7
100
AcDbLine
 10
685.6404888355208
 20
988.1906325694492
 30
0.0
 11
683.865488835521
 21
986.4156325694493
 31
0.0
  0
LINE
  5
2B80
330
24E6
100
AcDbEntity
  8
1
 62
     7
100
AcDbLine
 10
684.1404888355208
 20
984.7306325694495
 30
0.0
 11
685.3561896223939
 21
984.7943447479622
 31
0.0
  0
LINE
  5
2B81
330
24E6
100
AcDbEntity
  8
1
 62
     7
100
AcDbLine
 10
683.6464079918567
 20
987.7747134131135
 30
0.0
 11
685.5526208698768
 21
985.8685005350933
 31
0.0
  0
LINE
  5
2B82
330
24E6
100
AcDbEntity
  8
1
 62
     7
100
AcDbLine
 10
683.9504888355208
 20
981.4826325694493
 30
0.0
 11
683.9504888355208
 21
984.2687523540979
 31
0.0
  0
ARC
  5
2B83
330
24E6
100
AcDbEntity
  8
1
 62
     7
100
AcDbCircle
 10
673.4604888355208
 20
975.1876325694492
 30
0.0
 40
6.746874999999897
100
AcDbArc
 50
41.11096871564919
 51
62.69279104015994
  0
LINE
  5
2B84
330
24E6
100
AcDbEntity
  8
1
 62
     7
100
AcDbLine
 10
676.5556943643387
 20
981.1826325694495
 30
0.0
 11
683.6504888355209
 21
981.1826325694495
 31
0.0
  0
ARC
  5
2B85
330
24E6
100
AcDbEntity
  8
1
 62
     7
100
AcDbCircle
 10
673.4604888355208
 20
975.1876325694492
 30
0.0
 40
6.746874999999986
100
AcDbArc
 50
90.0
 51
117.30720895984
  0
ARC
  5
2B86
330
24E6
100
AcDbEntity
  8
1
 62
     7
100
AcDbCircle
 10
673.4604888355208
 20
975.1876325694492
 30
0.0
 40
6.746874999999977
100
AcDbArc
 50
62.69279104015994
 51
90.0
  0
LINE
  5
2B87
330
24E6
100
AcDbEntity
  8
1
 62
     7
100
AcDbLine
 10
683.6504888355209
 20
981.1826325694495
 30
0.0
 11
683.9504888355208
 21
981.4826325694493
 31
0.0
  0
LINE
  5
2B88
330
24E6
100
AcDbEntity
  8
1
 62
     7
100
AcDbLine
 10
673.4604888355208
 20
984.7306325694495
 30
0.0
 11
683.150488835521
 21
984.7306325694495
 31
0.0
  0
LINE
  5
2B89
330
24E6
100
AcDbEntity
  8
1
 62
     7
100
AcDbLine
 10
678.1004888355206
 20
987.8376325694492
 30
0.0
 11
671.1404888355208
 21
987.8376325694492
 31
0.0
  0
LINE
  5
2B8A
330
24E6
100
AcDbEntity
  8
1
 62
     7
100
AcDbLine
 10
683.150488835521
 20
984.7306325694495
 30
0.0
 11
683.9504888355208
 21
984.2687523540979
 31
0.0
  0
LINE
  5
2B8B
330
24E6
100
AcDbEntity
  8
1
 62
     7
100
AcDbLine
 10
678.1004888355206
 20
987.8376325694492
 30
0.0
 11
683.6464079918567
 21
987.7747134131135
 31
0.0
  0
ARC
  5
2B8C
330
24E6
100
AcDbEntity
  8
1
 62
     7
100
AcDbCircle
 10
685.340488835521
 20
985.0939336083881
 30
0.0
 40
0.2999999999999267
100
AcDbArc
 50
273.0000000000057
 51
0.0
  0
ARC
  5
2B8D
330
24E6
100
AcDbEntity
  8
1
 62
     7
100
AcDbCircle
 10
685.340488835521
 20
985.6563685007371
 30
0.0
 40
0.3000000000000114
100
AcDbArc
 50
0.0
 51
44.99999999999078
  0
LINE
  5
2B8E
330
24E6
100
AcDbEntity
  8
1
  6
DIVIDE
 62
     7
100
AcDbLine
 10
688.1404888355208
 20
990.5706325694492
 30
0.0
 11
685.6404888355208
 21
990.5706325694492
 31
0.0
  0
LINE
  5
2B8F
330
24E6
100
AcDbEntity
  8
1
 62
     7
100
AcDbLine
 10
685.6404888355208
 20
985.6563685007371
 30
0.0
 11
685.6404888355208
 21
985.0939336083881
 31
0.0
  0
CIRCLE
  5
2B90
330
24E6
100
AcDbEntity
  8
1
 62
     7
100
AcDbCircle
 10
797.8138617482821
 20
913.5706325694494
 30
0.0
 40
5.500000000000166
  0
ARC
  5
2B91
330
24E6
100
AcDbEntity
  8
1
 62
     7
100
AcDbCircle
 10
885.3138617482821
 20
913.5706325694494
 30
0.0
 40
71.16800000000004
100
AcDbArc
 50
136.6680818646585
 51
223.3319181353414
  0
ARC
  5
2B92
330
24E6
100
AcDbEntity
  8
1
 62
     7
100
AcDbCircle
 10
885.3138617482821
 20
913.5706325694494
 30
0.0
 40
67.62000000000004
100
AcDbArc
 50
139.7040216489821
 51
220.0434697887709
  0
ARC
  5
2B93
330
24E6
100
AcDbEntity
  8
1
 62
     7
100
AcDbCircle
 10
885.3138617482821
 20
913.5706325694494
 30
0.0
 40
55.54000000000007
100
AcDbArc
 50
158.7591571987541
 51
202.4196460349205
  0
ARC
  5
2B94
330
24E6
100
AcDbEntity
  8
1
  6
CENTER
 62
     3
100
AcDbCircle
 10
885.3138617482821
 20
913.5706325694494
 30
0.0
 40
87.49999999999998
100
AcDbArc
 50
126.2722019128702
 51
233.7277980871297
  0
ARC
  5
2B95
330
24E6
100
AcDbEntity
  8
1
 62
     7
100
AcDbCircle
 10
885.3138617482821
 20
913.5706325694494
 30
0.0
 40
72.84500000000014
100
AcDbArc
 50
135.2874169775083
 51
224.7125830224916
  0
ARC
  5
2B96
330
24E6
100
AcDbEntity
  8
1
 62
     7
100
AcDbCircle
 10
885.3138617482821
 20
913.5706325694494
 30
0.0
 40
74.2000000000001
100
AcDbArc
 50
134.2401709810514
 51
225.7598290189485
  0
CIRCLE
  5
2B97
330
24E6
100
AcDbEntity
  8
1
 62
     7
100
AcDbCircle
 10
809.5366389171442
 20
869.8206325694492
 30
0.0
 40
5.500000000000087
  0
ARC
  5
2B98
330
24E6
100
AcDbEntity
  8
1
 62
     7
100
AcDbCircle
 10
846.423067179189
 20
865.7674242797893
 30
0.0
 40
7.335000000000062
100
AcDbArc
 50
96.76555038039651
 51
175.9124335117489
  0
ARC
  5
2B99
330
24E6
100
AcDbEntity
  8
1
 62
     7
100
AcDbCircle
 10
885.3138617482821
 20
913.5706325694494
 30
0.0
 40
66.11000000000001
100
AcDbArc
 50
220.4292363719368
 51
225.6577201498036
  0
ARC
  5
2B9A
330
24E6
100
AcDbEntity
  8
1
 62
     7
100
AcDbCircle
 10
846.423067179189
 20
865.7674242797893
 30
0.0
 40
6.746875000000104
100
AcDbArc
 50
75.07061961727479
 51
202.1567270804201
  0
ARC
  5
2B9B
330
24E6
100
AcDbEntity
  8
1
 62
     7
100
AcDbCircle
 10
834.9680920915137
 20
878.0327077191206
 30
0.0
 40
6.746874999999808
100
AcDbArc
 50
243.9302294413205
 51
11.0163369044608
  0
LINE
  5
2B9C
330
24E6
100
AcDbEntity
  8
1
  6
DASHDOT
 62
     3
100
AcDbLine
 10
816.6813484983656
 20
873.9456325694492
 30
0.0
 11
802.3919293359224
 21
865.6956325694492
 31
0.0
  0
CIRCLE
  5
2B9D
330
24E6
100
AcDbEntity
  8
1
 62
     7
100
AcDbCircle
 10
841.5638617482818
 20
837.7934097383111
 30
0.0
 40
5.50000000000054
  0
LINE
  5
2B9E
330
24E6
100
AcDbEntity
  8
1
  6
DASHDOT
 62
     3
100
AcDbLine
 10
845.6888617482817
 20
844.9381193195327
 30
0.0
 11
837.4388617482818
 21
830.6487001570895
 31
0.0
  0
LINE
  5
2B9F
330
24E6
100
AcDbEntity
  8
1
  6
DASHDOT
 62
     3
100
AcDbLine
 10
837.4388617482818
 20
830.6487001570895
 30
0.0
 11
845.6888617482817
 21
844.9381193195327
 31
0.0
  0
ARC
  5
2BA0
330
24E6
100
AcDbEntity
  8
1
 62
     7
100
AcDbCircle
 10
885.3138617482821
 20
913.5706325694494
 30
0.0
 40
66.11000000000007
100
AcDbArc
 50
189.1248885458514
 51
194.3533723237149
  0
ARC
  5
2BA1
330
24E6
100
AcDbEntity
  8
1
 62
     7
100
AcDbCircle
 10
823.8325238469155
 20
909.3651938458512
 30
0.0
 40
7.335000000000227
100
AcDbArc
 50
238.8701751839018
 51
318.017058315252
  0
ARC
  5
2BA2
330
24E6
100
AcDbEntity
  8
1
 62
     7
100
AcDbCircle
 10
827.2470324227096
 20
892.9336764694124
 30
0.0
 40
6.746875000000303
100
AcDbArc
 50
43.76627179118268
 51
170.852379254332
  0
ARC
  5
2BA3
330
24E6
100
AcDbEntity
  8
1
 62
     7
100
AcDbCircle
 10
823.8325238469155
 20
909.3651938458512
 30
0.0
 40
6.746875000000025
100
AcDbArc
 50
212.6258816152293
 51
339.7119890783788
  0
ARC
  5
2BA4
330
24E6
100
AcDbEntity
  8
1
 62
     7
100
AcDbCircle
 10
827.2470324227096
 20
892.9336764694124
 30
0.0
 40
6.746874999999719
100
AcDbArc
 50
228.2780555282754
 51
355.3641629914226
  0
ARC
  5
2BA5
330
24E6
100
AcDbEntity
  8
1
 62
     7
100
AcDbCircle
 10
834.9680920915137
 20
878.0327077191206
 30
0.0
 40
7.335000000000039
100
AcDbArc
 50
81.11337646735345
 51
101.171772660683
  0
ARC
  5
2BA6
330
24E6
100
AcDbEntity
  8
1
 62
     7
100
AcDbCircle
 10
885.3138617482821
 20
913.5706325694494
 30
0.0
 40
56.76500000000006
100
AcDbArc
 50
204.8892242339126
 51
209.8933844617389
  0
ARC
  5
2BA7
330
24E6
100
AcDbEntity
  8
1
 62
     7
100
AcDbCircle
 10
834.9680920915137
 20
878.0327077191206
 30
0.0
 40
7.335
100
AcDbArc
 50
270.1745230099883
 51
349.3214061413449
  0
ARC
  5
2BA8
330
24E6
100
AcDbEntity
  8
1
 62
     7
100
AcDbCircle
 10
834.9680920915137
 20
878.0327077191206
 30
0.0
 40
7.335000000000039
100
AcDbArc
 50
81.11337646735345
 51
160.2602595987032
  0
ARC
  5
2BA9
330
24E6
100
AcDbEntity
  8
1
 62
     7
100
AcDbCircle
 10
834.9680920915137
 20
878.0327077191206
 30
0.0
 40
6.746874999999969
100
AcDbArc
 50
59.41844570422943
 51
102.1598796521533
  0
ARC
  5
2BAA
330
24E6
100
AcDbEntity
  8
1
 62
     7
100
AcDbCircle
 10
834.9680920915137
 20
878.0327077191206
 30
0.0
 40
6.74687499999999
100
AcDbArc
 50
257.8401203478434
 51
11.0163369044608
  0
ARC
  5
2BAB
330
24E6
100
AcDbEntity
  8
1
 62
     7
100
AcDbCircle
 10
834.9680920915137
 20
878.0327077191206
 30
0.0
 40
6.746874999999969
100
AcDbArc
 50
59.41844570422943
 51
186.5045531673763
  0
ARC
  5
2BAC
330
24E6
100
AcDbEntity
  8
1
 62
     7
100
AcDbCircle
 10
885.3138617482821
 20
913.5706325694494
 30
0.0
 40
66.11000000000007
100
AcDbArc
 50
204.7770624588952
 51
210.0055462367562
  0
ARC
  5
2BAD
330
24E6
100
AcDbEntity
  8
1
 62
     7
100
AcDbCircle
 10
827.2470324227096
 20
892.9336764694124
 30
0.0
 40
7.335000000000024
100
AcDbArc
 50
254.5223490969462
 51
333.6692322282986
  0
ARC
  5
2BAE
330
24E6
100
AcDbEntity
  8
1
 62
     7
100
AcDbCircle
 10
827.2470324227096
 20
892.9336764694124
 30
0.0
 40
7.335000000000006
100
AcDbArc
 50
329.1912274521497
 51
333.6692322282986
  0
ARC
  5
2BAF
330
24E6
100
AcDbEntity
  8
1
 62
     7
100
AcDbCircle
 10
885.3138617482821
 20
913.5706325694494
 30
0.0
 40
56.76500000000005
100
AcDbArc
 50
220.5413981469594
 51
225.5455583747794
  0
ARC
  5
2BB0
330
24E6
100
AcDbEntity
  8
1
 62
     7
100
AcDbCircle
 10
885.3138617482821
 20
913.5706325694494
 30
0.0
 40
56.765
100
AcDbArc
 50
189.2370503208714
 51
194.241210548693
  0
ARC
  5
2BB1
330
24E6
100
AcDbEntity
  8
1
 62
     7
100
AcDbCircle
 10
827.2470324227096
 20
892.9336764694124
 30
0.0
 40
7.335000000000044
100
AcDbArc
 50
65.46120255431098
 51
144.6080856856617
  0
ARC
  5
2BB2
330
24E6
100
AcDbEntity
  8
1
 62
     7
100
AcDbCircle
 10
827.2470324227096
 20
892.9336764694124
 30
0.0
 40
6.746875
100
AcDbArc
 50
339.027156185264
 51
355.3641629914226
  0
ARC
  5
2BB3
330
24E6
100
AcDbEntity
  8
1
 62
     7
100
AcDbCircle
 10
885.3138617482821
 20
913.5706325694494
 30
0.0
 40
55.54000000000007
100
AcDbArc
 50
201.2408428012458
 51
202.4196460349205
  0
CIRCLE
  5
2BB4
330
24E6
100
AcDbEntity
  8
1
 62
     7
100
AcDbCircle
 10
809.536638917144
 20
957.3206325694487
 30
0.0
 40
5.500000000000111
  0
ARC
  5
2BB5
330
24E6
100
AcDbEntity
  8
1
 62
     7
100
AcDbCircle
 10
885.3138617482821
 20
913.5706325694494
 30
0.0
 40
66.10999999999997
100
AcDbArc
 50
142.1683668067171
 51
147.3968505845836
  0
ARC
  5
2BB6
330
24E6
100
AcDbEntity
  8
1
 62
     7
100
AcDbCircle
 10
840.2760954496427
 20
955.6329700202988
 30
0.0
 40
6.746875000000049
100
AcDbArc
 50
165.6693598760979
 51
292.7554673392469
  0
ARC
  5
2BB7
330
24E6
100
AcDbEntity
  8
1
 62
     7
100
AcDbCircle
 10
840.2760954496427
 20
955.6329700202988
 30
0.0
 40
6.746875000000049
100
AcDbArc
 50
165.6693598760979
 51
292.7554673392469
  0
ARC
  5
2BB8
330
24E6
100
AcDbEntity
  8
1
 62
     7
100
AcDbCircle
 10
824.9778048448593
 20
926.1086093738178
 30
0.0
 40
7.335000000000246
100
AcDbArc
 50
223.2180012708545
 51
302.36488440221
  0
ARC
  5
2BB9
330
24E6
100
AcDbEntity
  8
1
 62
     7
100
AcDbCircle
 10
823.8325238469155
 20
909.3651938458512
 30
0.0
 40
7.334999999999786
100
AcDbArc
 50
49.80902864126711
 51
128.9559117726208
  0
ARC
  5
2BBA
330
24E6
100
AcDbEntity
  8
1
 62
     7
100
AcDbCircle
 10
823.8325238469155
 20
909.3651938458512
 30
0.0
 40
6.746875000000104
100
AcDbArc
 50
28.1140978781434
 51
155.2002053412897
  0
ARC
  5
2BBB
330
24E6
100
AcDbEntity
  8
1
 62
     7
100
AcDbCircle
 10
824.9778048448593
 20
926.1086093738178
 30
0.0
 40
6.746875000000097
100
AcDbArc
 50
12.46192396509898
 51
139.5480314282468
  0
ARC
  5
2BBC
330
24E6
100
AcDbEntity
  8
1
 62
     7
100
AcDbCircle
 10
824.9778048448593
 20
926.1086093738178
 30
0.0
 40
6.746874999999938
100
AcDbArc
 50
196.9737077021852
 51
324.0598151653314
  0
ARC
  5
2BBD
330
24E6
100
AcDbEntity
  8
1
 62
     7
100
AcDbCircle
 10
885.3138617482821
 20
913.5706325694494
 30
0.0
 40
66.11000000000004
100
AcDbArc
 50
173.4727146328066
 51
178.7011984106707
  0
ARC
  5
2BBE
330
24E6
100
AcDbEntity
  8
1
 62
     7
100
AcDbCircle
 10
885.3138617482821
 20
913.5706325694494
 30
0.0
 40
56.76500000000006
100
AcDbArc
 50
157.9327024947842
 51
162.9368627226096
  0
ARC
  5
2BBF
330
24E6
100
AcDbEntity
  8
1
 62
     7
100
AcDbCircle
 10
824.9778048448593
 20
926.1086093738178
 30
0.0
 40
7.334999999999801
100
AcDbArc
 50
34.15685472822381
 51
113.3037378595766
  0
ARC
  5
2BC0
330
24E6
100
AcDbEntity
  8
1
 62
     7
100
AcDbCircle
 10
885.3138617482821
 20
913.5706325694494
 30
0.0
 40
56.76499999999999
100
AcDbArc
 50
173.5848764078306
 51
178.5890366356489
  0
ARC
  5
2BC1
330
24E6
100
AcDbEntity
  8
1
 62
     7
100
AcDbCircle
 10
830.5979351642355
 20
941.9221405196314
 30
0.0
 40
7.335000000000047
100
AcDbArc
 50
18.50468081517609
 51
66.29397688416871
  0
ARC
  5
2BC2
330
24E6
100
AcDbEntity
  8
1
 62
     7
100
AcDbCircle
 10
840.2760954496427
 20
955.6329700202988
 30
0.0
 40
7.335000000000094
100
AcDbArc
 50
203.4503565123177
 51
271.0605365761242
  0
ARC
  5
2BC3
330
24E6
100
AcDbEntity
  8
1
 62
     7
100
AcDbCircle
 10
830.5979351642355
 20
941.9221405196314
 30
0.0
 40
7.335000000000047
100
AcDbArc
 50
18.50468081517609
 51
97.65156394653095
  0
ARC
  5
2BC4
330
24E6
100
AcDbEntity
  8
1
 62
     7
100
AcDbCircle
 10
830.5979351642355
 20
941.9221405196314
 30
0.0
 40
6.746875000000065
100
AcDbArc
 50
356.8097500520566
 51
64.08162840281139
  0
ARC
  5
2BC5
330
24E6
100
AcDbEntity
  8
1
 62
     7
100
AcDbCircle
 10
830.5979351642355
 20
941.9221405196314
 30
0.0
 40
6.746875000000065
100
AcDbArc
 50
356.8097500520566
 51
123.8958575152021
  0
ARC
  5
2BC6
330
24E6
100
AcDbEntity
  8
1
 62
     7
100
AcDbCircle
 10
830.5979351642355
 20
941.9221405196314
 30
0.0
 40
7.334999999999977
100
AcDbArc
 50
207.5658273578177
 51
286.7127104891687
  0
ARC
  5
2BC7
330
24E6
100
AcDbEntity
  8
1
 62
     7
100
AcDbCircle
 10
830.5979351642355
 20
941.9221405196314
 30
0.0
 40
6.746874999999446
100
AcDbArc
 50
181.3215337891438
 51
308.4076412522926
  0
ARC
  5
2BC8
330
24E6
100
AcDbEntity
  8
1
 62
     7
100
AcDbCircle
 10
885.3138617482821
 20
913.5706325694494
 30
0.0
 40
66.1100000000001
100
AcDbArc
 50
157.8205407197609
 51
163.0490244976285
  0
ARC
  5
2BC9
330
24E6
100
AcDbEntity
  8
1
 62
     7
100
AcDbCircle
 10
830.5979351642355
 20
941.9221405196314
 30
0.0
 40
6.746874999999991
100
AcDbArc
 50
295.9183715971885
 51
308.4076412522926
  0
ARC
  5
2BCA
330
24E6
100
AcDbEntity
  8
1
 62
     7
100
AcDbCircle
 10
885.3138617482821
 20
913.5706325694494
 30
0.0
 40
56.76500000000011
100
AcDbArc
 50
142.2805285817386
 51
147.2846888095626
  0
LINE
  5
2BCB
330
24E6
100
AcDbEntity
  8
1
  6
DASHDOT
 62
     3
100
AcDbLine
 10
816.6813484983654
 20
953.1956325694487
 30
0.0
 11
802.3919293359224
 21
961.4456325694487
 31
0.0
  0
ARC
  5
2BCC
330
24E6
100
AcDbEntity
  8
1
 62
     7
100
AcDbCircle
 10
840.2760954496427
 20
955.6329700202988
 30
0.0
 40
7.335000000000055
100
AcDbArc
 50
2.852506902136223
 51
81.99939003348939
  0
ARC
  5
2BCD
330
24E6
100
AcDbEntity
  8
1
 62
     7
100
AcDbCircle
 10
885.3138617482821
 20
913.5706325694494
 30
0.0
 40
66.11000000000007
100
AcDbArc
 50
126.5161928936744
 51
131.7446766715407
  0
ARC
  5
2BCE
330
24E6
100
AcDbEntity
  8
1
 62
     7
100
AcDbCircle
 10
840.2760954496427
 20
955.6329700202988
 30
0.0
 40
6.746875000000024
100
AcDbArc
 50
341.1575761390145
 51
108.2436836021603
  0
ARC
  5
2BCF
330
24E6
100
AcDbEntity
  8
1
 62
     7
100
AcDbCircle
 10
840.2760954496427
 20
955.6329700202988
 30
0.0
 40
6.746875000000024
100
AcDbArc
 50
341.1575761390145
 51
108.2436836021603
  0
LINE
  5
2BD0
330
24E6
100
AcDbEntity
  8
1
 62
     7
100
AcDbLine
 10
661.0404888355209
 20
1011.070632569449
 30
0.0
 11
685.2404888355209
 21
1011.070632569449
 31
0.0
  0
LINE
  5
2BD1
330
24E6
100
AcDbEntity
  8
1
  6
CENTER
 62
     3
100
AcDbLine
 10
657.130127412827
 20
1001.070632569449
 30
0.0
 11
689.1038707344569
 21
1001.070632569449
 31
0.0
  0
LINE
  5
2BD2
330
24E6
100
AcDbEntity
  8
1
 62
     7
100
AcDbLine
 10
660.6404888355209
 20
997.0706325694493
 30
0.0
 11
674.7744634317365
 21
997.0706325694493
 31
0.0
  0
LINE
  5
2BD3
330
24E6
100
AcDbEntity
  8
1
 62
     7
100
AcDbLine
 10
660.6404888355209
 20
1005.070632569449
 30
0.0
 11
674.7744634317365
 21
1005.070632569449
 31
0.0
  0
LINE
  5
2BD4
330
24E6
100
AcDbEntity
  8
1
 62
     3
100
AcDbLine
 10
660.6404888355209
 20
996.0706325694493
 30
0.0
 11
675.351813700926
 21
996.0706325694493
 31
0.0
  0
LINE
  5
2BD5
330
24E6
100
AcDbEntity
  8
1
 62
     3
100
AcDbLine
 10
660.6404888355209
 20
1006.070632569449
 30
0.0
 11
675.351813700926
 21
1006.070632569449
 31
0.0
  0
LINE
  5
2BD6
330
24E6
100
AcDbEntity
  8
1
 62
     7
100
AcDbLine
 10
612.6404888355209
 20
1015.470632569449
 30
0.0
 11
612.6404888355209
 21
1018.070632569449
 31
0.0
  0
ARC
  5
2BD7
330
24E6
100
AcDbEntity
  8
1
 62
     7
100
AcDbCircle
 10
616.987488835521
 20
1014.490632569449
 30
0.0
 40
0.5799999999999841
100
AcDbArc
 50
0.0
 51
90.0
  0
LINE
  5
2BD8
330
24E6
100
AcDbEntity
  8
1
 62
     7
100
AcDbLine
 10
613.040488835521
 20
1015.070632569449
 30
0.0
 11
616.987488835521
 21
1015.070632569449
 31
0.0
  0
LINE
  5
2BD9
330
24E6
100
AcDbEntity
  8
1
 62
     7
100
AcDbLine
 10
613.040488835521
 20
1015.070632569449
 30
0.0
 11
612.6404888355209
 21
1015.470632569449
 31
0.0
  0
LINE
  5
2BDA
330
24E6
100
AcDbEntity
  8
1
 62
     7
100
AcDbLine
 10
618.440488835521
 20
1027.070632569449
 30
0.0
 11
618.440488835521
 21
1018.070632569449
 31
0.0
  0
LINE
  5
2BDB
330
24E6
100
AcDbEntity
  8
1
 62
     7
100
AcDbLine
 10
612.6404888355209
 20
1018.070632569449
 30
0.0
 11
612.6404888355209
 21
1027.070632569449
 31
0.0
  0
LINE
  5
2BDC
330
24E6
100
AcDbEntity
  8
1
  6
CENTER
 62
     3
100
AcDbLine
 10
612.0604888355209
 20
1022.570632569449
 30
0.0
 11
619.0204888355211
 21
1022.570632569449
 31
0.0
  0
LINE
  5
2BDD
330
24E6
100
AcDbEntity
  8
1
 62
     7
100
AcDbLine
 10
612.6404888355209
 20
1018.070632569449
 30
0.0
 11
618.440488835521
 21
1018.070632569449
 31
0.0
  0
LINE
  5
2BDE
330
24E6
100
AcDbEntity
  8
1
 62
     7
100
AcDbLine
 10
612.6404888355209
 20
1027.070632569449
 30
0.0
 11
618.440488835521
 21
1027.070632569449
 31
0.0
  0
LINE
  5
2BDF
330
24E6
100
AcDbEntity
  8
1
 62
     7
100
AcDbLine
 10
618.040488835521
 20
1030.070632569449
 30
0.0
 11
613.140488835521
 21
1030.070632569449
 31
0.0
  0
LINE
  5
2BE0
330
24E6
100
AcDbEntity
  8
1
 62
     7
100
AcDbLine
 10
612.6404888355209
 20
1027.070632569449
 30
0.0
 11
612.6404888355209
 21
1029.570632569449
 31
0.0
  0
LINE
  5
2BE1
330
24E6
100
AcDbEntity
  8
1
 62
     7
100
AcDbLine
 10
612.6404888355209
 20
1029.570632569449
 30
0.0
 11
612.6404888355209
 21
1029.670632569449
 31
0.0
  0
LINE
  5
2BE2
330
24E6
100
AcDbEntity
  8
1
 62
     7
100
AcDbLine
 10
613.140488835521
 20
1030.070632569449
 30
0.0
 11
613.040488835521
 21
1030.070632569449
 31
0.0
  0
LINE
  5
2BE3
330
24E6
100
AcDbEntity
  8
1
 62
     7
100
AcDbLine
 10
613.040488835521
 20
1030.070632569449
 30
0.0
 11
612.6404888355209
 21
1029.670632569449
 31
0.0
  0
LINE
  5
2BE4
330
24E6
100
AcDbEntity
  8
1
 62
     7
100
AcDbLine
 10
618.440488835521
 20
1029.670632569449
 30
0.0
 11
618.440488835521
 21
1027.070632569449
 31
0.0
  0
LINE
  5
2BE5
330
24E6
100
AcDbEntity
  8
1
 62
     7
100
AcDbLine
 10
618.040488835521
 20
1030.070632569449
 30
0.0
 11
618.440488835521
 21
1029.670632569449
 31
0.0
  0
LINE
  5
2BE6
330
24E6
100
AcDbEntity
  8
1
 62
     7
100
AcDbLine
 10
660.6404888355209
 20
1005.070632569449
 30
0.0
 11
660.6404888355209
 21
1006.070632569449
 31
0.0
  0
LINE
  5
2BE7
330
24E6
100
AcDbEntity
  8
1
 62
     7
100
AcDbLine
 10
660.6404888355209
 20
997.0706325694493
 30
0.0
 11
660.6404888355209
 21
1005.070632569449
 31
0.0
  0
LINE
  5
2BE8
330
24E6
100
AcDbEntity
  8
1
 62
     7
100
AcDbLine
 10
660.6404888355209
 20
996.0706325694493
 30
0.0
 11
660.6404888355209
 21
997.0706325694493
 31
0.0
  0
LINE
  5
2BE9
330
24E6
100
AcDbEntity
  8
1
 62
     7
100
AcDbLine
 10
661.0404888355209
 20
1011.070632569449
 30
0.0
 11
660.6404888355209
 21
1010.670632569449
 31
0.0
  0
LINE
  5
2BEA
330
24E6
100
AcDbEntity
  8
1
 62
     7
100
AcDbLine
 10
660.6404888355209
 20
1006.070632569449
 30
0.0
 11
660.6404888355209
 21
1010.670632569449
 31
0.0
  0
LINE
  5
2BEB
330
24E6
100
AcDbEntity
  8
1
 62
     7
100
AcDbLine
 10
685.6404888355208
 20
1006.570632569449
 30
0.0
 11
675.6404888355208
 21
1006.570632569449
 31
0.0
  0
LINE
  5
2BEC
330
24E6
100
AcDbEntity
  8
1
 62
     7
100
AcDbLine
 10
675.6404888355208
 20
995.5706325694491
 30
0.0
 11
685.6404888355208
 21
995.5706325694491
 31
0.0
  0
LINE
  5
2BED
330
24E6
100
AcDbEntity
  8
1
 62
     7
100
AcDbLine
 10
675.6404888355208
 20
1006.570632569449
 30
0.0
 11
675.6404888355208
 21
995.5706325694491
 31
0.0
  0
LINE
  5
2BEE
330
24E6
100
AcDbEntity
  8
1
 62
     7
100
AcDbLine
 10
674.7744634317365
 20
1005.070632569449
 30
0.0
 11
675.351813700926
 21
1006.070632569449
 31
0.0
  0
LINE
  5
2BEF
330
24E6
100
AcDbEntity
  8
1
 62
     7
100
AcDbLine
 10
675.6404888355208
 20
995.5706325694491
 30
0.0
 11
675.351813700926
 21
996.0706325694493
 31
0.0
  0
LINE
  5
2BF0
330
24E6
100
AcDbEntity
  8
1
 62
     7
100
AcDbLine
 10
674.7744634317365
 20
997.0706325694493
 30
0.0
 11
674.7744634317365
 21
1005.070632569449
 31
0.0
  0
LINE
  5
2BF1
330
24E6
100
AcDbEntity
  8
1
 62
     7
100
AcDbLine
 10
675.351813700926
 20
996.0706325694493
 30
0.0
 11
674.7744634317365
 21
997.0706325694493
 31
0.0
  0
LINE
  5
2BF2
330
24E6
100
AcDbEntity
  8
1
 62
     7
100
AcDbLine
 10
675.351813700926
 20
1006.070632569449
 30
0.0
 11
675.6404888355208
 21
1006.570632569449
 31
0.0
  0
LINE
  5
2BF3
330
24E6
100
AcDbEntity
  8
1
 62
     7
100
AcDbLine
 10
685.6404888355208
 20
1010.670632569449
 30
0.0
 11
685.2404888355209
 21
1011.070632569449
 31
0.0
  0
CIRCLE
  5
2BF4
330
24E6
100
AcDbEntity
  8
1
 62
     7
100
AcDbCircle
 10
929.0638617482821
 20
989.3478554005874
 30
0.0
 40
5.500000000000103
  0
CIRCLE
  5
2BF5
330
24E6
100
AcDbEntity
  8
1
 62
     3
100
AcDbCircle
 10
862.6671953018115
 20
998.0891423697428
 30
0.0
 40
5.0
  0
CIRCLE
  5
2BF6
330
24E6
100
AcDbEntity
  8
1
 62
     7
100
AcDbCircle
 10
862.6671953018115
 20
998.0891423697428
 30
0.0
 40
5.5
  0
CIRCLE
  5
2BF7
330
24E6
100
AcDbEntity
  8
1
 62
     7
100
AcDbCircle
 10
862.6671953018115
 20
998.0891423697428
 30
0.0
 40
4.0
  0
LINE
  5
2BF8
330
24E6
100
AcDbEntity
  8
1
  6
CENTER
 62
     3
100
AcDbLine
 10
885.3138617482821
 20
987.7706325694493
 30
0.0
 11
885.3138617482853
 21
1019.584804685547
 31
0.0
  0
LINE
  5
2BF9
330
24E6
100
AcDbEntity
  8
1
  6
DASHDOT
 62
     3
100
AcDbLine
 10
933.1888617482821
 20
996.4925649818088
 30
0.0
 11
924.938861748282
 21
982.2031458193659
 31
0.0
  0
LINE
  5
2BFA
330
24E6
100
AcDbEntity
  8
1
  6
DASHDOT
 62
     3
100
AcDbLine
 10
860.5319381797155
 20
1006.058030436628
 30
0.0
 11
864.8024524239072
 21
990.1202543028583
 31
0.0
  0
CIRCLE
  5
2BFB
330
24E6
100
AcDbEntity
  8
1
 62
     7
100
AcDbCircle
 10
972.8138617482821
 20
913.5706325694494
 30
0.0
 40
5.500000000000166
  0
CIRCLE
  5
2BFC
330
24E6
100
AcDbEntity
  8
1
 62
     7
100
AcDbCircle
 10
885.3138617482821
 20
913.5706325694494
 30
0.0
 40
20.0052788985042
  0
ARC
  5
2BFD
330
24E6
100
AcDbEntity
  8
0
 62
     7
100
AcDbCircle
 10
886.3350849216963
 20
914.6233740508861
 30
0.0
 40
22.43222634367192
100
AcDbArc
 50
290.1590364752981
 51
90.88939759731792
  0
ARC
  5
2BFE
330
24E6
100
AcDbEntity
  8
0
 62
     7
100
AcDbCircle
 10
884.9559657570933
 20
914.5283822360394
 30
0.0
 40
22.54809519063901
100
AcDbArc
 50
87.37947092368059
 51
248.1098320457029
  0
ARC
  5
2BFF
330
24E6
100
AcDbEntity
  8
1
 62
     7
100
AcDbCircle
 10
885.3138617482821
 20
913.5706325694494
 30
0.0
 40
10.99999999999998
100
AcDbArc
 50
270.0
 51
0.0
  0
ARC
  5
2C00
330
24E6
100
AcDbEntity
  8
1
 62
     7
100
AcDbCircle
 10
885.3138617482821
 20
913.5706325694494
 30
0.0
 40
11.00000000000002
100
AcDbArc
 50
105.8266201318717
 51
270.0
  0
ARC
  5
2C01
330
24E6
100
AcDbEntity
  8
1
 62
     7
100
AcDbCircle
 10
885.3138617482821
 20
913.5706325694494
 30
0.0
 40
25.00000000000028
100
AcDbArc
 50
287.890569968906
 51
90.0
  0
ARC
  5
2C02
330
24E6
100
AcDbEntity
  8
1
 62
     7
100
AcDbCircle
 10
885.3138617482821
 20
913.5706325694494
 30
0.0
 40
25.00000000000022
100
AcDbArc
 50
90.0
 51
252.1048594986513
  0
ARC
  5
2C03
330
24E6
100
AcDbEntity
  8
1
 62
     7
100
AcDbCircle
 10
909.8653289100568
 20
857.0474861141759
 30
0.0
 40
6.74687500000004
100
AcDbArc
 50
322.1910990065361
 51
89.2772064696814
  0
ARC
  5
2C04
330
24E6
100
AcDbEntity
  8
1
 62
     7
100
AcDbCircle
 10
876.9225919977259
 20
852.5196111449604
 30
0.0
 40
6.746874999999986
100
AcDbArc
 50
290.8867511804476
 51
57.97285864359338
  0
ARC
  5
2C05
330
24E6
100
AcDbEntity
  8
1
 62
     7
100
AcDbCircle
 10
876.9225919977259
 20
852.5196111449604
 30
0.0
 40
6.746875000000008
100
AcDbArc
 50
106.3749674433613
 51
233.461074906509
  0
ARC
  5
2C06
330
24E6
100
AcDbEntity
  8
1
 62
     7
100
AcDbCircle
 10
860.7623945865073
 20
857.0474861141759
 30
0.0
 40
7.33499999999996
100
AcDbArc
 50
301.4788708360756
 51
20.62575396743232
  0
ARC
  5
2C07
330
24E6
100
AcDbEntity
  8
1
 62
     7
100
AcDbCircle
 10
885.3138617482821
 20
913.5706325694494
 30
0.0
 40
66.10999999999998
100
AcDbArc
 50
251.7335841980233
 51
256.9620679758878
  0
ARC
  5
2C08
330
24E6
100
AcDbEntity
  8
1
 62
     7
100
AcDbCircle
 10
860.7623945865073
 20
857.0474861141759
 30
0.0
 40
6.746875000000121
100
AcDbArc
 50
275.2345772674025
 51
42.32068473055032
  0
ARC
  5
2C09
330
24E6
100
AcDbEntity
  8
1
 62
     7
100
AcDbCircle
 10
860.7623945865073
 20
857.0474861141759
 30
0.0
 40
7.33499999999999
100
AcDbArc
 50
112.4177242934419
 51
191.5646074247916
  0
ARC
  5
2C0A
330
24E6
100
AcDbEntity
  8
1
 62
     7
100
AcDbCircle
 10
860.7623945865073
 20
857.0474861141759
 30
0.0
 40
6.746875000000017
100
AcDbArc
 50
90.72279353031857
 51
217.8089009934629
  0
ARC
  5
2C0B
330
24E6
100
AcDbEntity
  8
1
 62
     7
100
AcDbCircle
 10
885.3138617482821
 20
913.5706325694494
 30
0.0
 40
56.76499999999997
100
AcDbArc
 50
236.1935720600001
 51
241.1977322878227
  0
ARC
  5
2C0C
330
24E6
100
AcDbEntity
  8
1
 62
     7
100
AcDbCircle
 10
885.3138617482821
 20
913.5706325694494
 30
0.0
 40
56.76500000000004
100
AcDbArc
 50
251.8457459730459
 51
256.849906200865
  0
ARC
  5
2C0D
330
24E6
100
AcDbEntity
  8
1
 62
     7
100
AcDbCircle
 10
876.9225919977259
 20
852.5196111449604
 30
0.0
 40
7.335000000000013
100
AcDbArc
 50
128.0698982064842
 51
207.2167813378356
  0
ARC
  5
2C0E
330
24E6
100
AcDbEntity
  8
1
 62
     7
100
AcDbCircle
 10
876.9225919977259
 20
852.5196111449604
 30
0.0
 40
7.335000000000013
100
AcDbArc
 50
317.1310447491179
 51
36.27792788047218
  0
ARC
  5
2C0F
330
24E6
100
AcDbEntity
  8
1
 62
     7
100
AcDbCircle
 10
893.705131498838
 20
852.5196111449604
 30
0.0
 40
7.33499999999988
100
AcDbArc
 50
143.7220721195278
 51
222.868955250882
  0
ARC
  5
2C10
330
24E6
100
AcDbEntity
  8
1
 62
     7
100
AcDbCircle
 10
893.705131498838
 20
852.5196111449604
 30
0.0
 40
6.746875000000024
100
AcDbArc
 50
122.0271413564038
 51
249.1132488195524
  0
ARC
  5
2C11
330
24E6
100
AcDbEntity
  8
1
 62
     7
100
AcDbCircle
 10
893.705131498838
 20
852.5196111449604
 30
0.0
 40
6.746875000000073
100
AcDbArc
 50
306.5389250934909
 51
73.62503255663553
  0
ARC
  5
2C12
330
24E6
100
AcDbEntity
  8
1
 62
     7
100
AcDbCircle
 10
885.3138617482821
 20
913.5706325694494
 30
0.0
 40
66.10999999999998
100
AcDbArc
 50
267.3857581110664
 51
272.6142418889335
  0
ARC
  5
2C13
330
24E6
100
AcDbEntity
  8
1
 62
     7
100
AcDbCircle
 10
885.3138617482821
 20
913.5706325694494
 30
0.0
 40
56.76499999999993
100
AcDbArc
 50
267.4979198860875
 51
272.5020801139091
  0
ARC
  5
2C14
330
24E6
100
AcDbEntity
  8
1
 62
     7
100
AcDbCircle
 10
893.705131498838
 20
852.5196111449604
 30
0.0
 40
7.335000000000071
100
AcDbArc
 50
332.7832186621644
 51
51.93010179351573
  0
ARC
  5
2C15
330
24E6
100
AcDbEntity
  8
1
 62
     7
100
AcDbCircle
 10
885.3138617482821
 20
913.5706325694494
 30
0.0
 40
56.76499999999997
100
AcDbArc
 50
283.1500937991318
 51
288.154254026954
  0
ARC
  5
2C16
330
24E6
100
AcDbEntity
  8
1
 62
     7
100
AcDbCircle
 10
909.8653289100568
 20
857.0474861141759
 30
0.0
 40
7.335000000000062
100
AcDbArc
 50
159.3742460325737
 51
238.5211291639243
  0
ARC
  5
2C17
330
24E6
100
AcDbEntity
  8
1
 62
     7
100
AcDbCircle
 10
909.8653289100568
 20
857.0474861141759
 30
0.0
 40
6.74687500000004
100
AcDbArc
 50
137.6793152694496
 51
264.7654227325974
  0
ARC
  5
2C18
330
24E6
100
AcDbEntity
  8
1
 62
     7
100
AcDbCircle
 10
885.3138617482821
 20
913.5706325694494
 30
0.0
 40
66.10999999999993
100
AcDbArc
 50
283.0379320241089
 51
288.2664158019766
  0
CIRCLE
  5
2C19
330
24E6
100
AcDbEntity
  8
0
 62
     7
100
AcDbCircle
 10
881.0738618119819
 20
890.8516104823311
 30
0.0
 40
1.599999975958381
  0
LINE
  5
2C1A
330
24E6
100
AcDbEntity
  8
0
 62
     7
100
AcDbLine
 10
884.5138617603003
 20
887.7653536709452
 30
0.0
 11
879.2338618395843
 21
887.7653536709452
 31
0.0
  0
LINE
  5
2C1B
330
24E6
100
AcDbEntity
  8
0
 62
     7
100
AcDbLine
 10
877.6338618636625
 20
889.3653536469482
 30
0.0
 11
877.6213691449372
 21
892.0956376604353
 31
0.0
  0
ARC
  5
2C1C
330
24E6
100
AcDbEntity
  8
0
 62
     7
100
AcDbCircle
 10
879.2338618396247
 20
889.3653536469482
 30
0.0
 40
1.599999976002975
100
AcDbArc
 50
180.0
 51
269.9999999985442
  0
ARC
  5
2C1D
330
24E6
100
AcDbEntity
  8
0
 62
     7
100
AcDbCircle
 10
876.021369168945
 20
892.0956376604198
 30
0.0
 40
1.599999975992205
100
AcDbArc
 50
0.0000000005471572
 51
70.73036112249361
  0
CIRCLE
  5
2C1E
330
24E6
100
AcDbEntity
  8
0
 62
     7
100
AcDbCircle
 10
889.5538616845946
 20
890.8526397822429
 30
0.0
 40
1.599999975966512
  0
LINE
  5
2C1F
330
24E6
100
AcDbEntity
  8
0
 62
     7
100
AcDbLine
 10
886.1138617362662
 20
893.5653536709452
 30
0.0
 11
886.1138617362662
 21
887.7653536709452
 31
0.0
  0
LINE
  5
2C20
330
24E6
100
AcDbEntity
  8
0
 62
     7
100
AcDbLine
 10
892.9938616329298
 20
889.3653536469482
 30
0.0
 11
892.9938616329298
 21
892.0549921588905
 31
0.0
  0
LINE
  5
2C21
330
24E6
100
AcDbEntity
  8
0
 62
     7
100
AcDbLine
 10
884.5138617603003
 20
893.5653536709452
 30
0.0
 11
884.5138617603003
 21
887.7653536709452
 31
0.0
  0
LINE
  5
2C22
330
24E6
100
AcDbEntity
  8
0
 62
     7
100
AcDbLine
 10
886.1138617362662
 20
887.7653536709452
 30
0.0
 11
891.3938616569877
 21
887.7653536709452
 31
0.0
  0
ARC
  5
2C23
330
24E6
100
AcDbEntity
  8
1
 62
     7
100
AcDbCircle
 10
885.3138617482821
 20
913.5706325694494
 30
0.0
 40
25.00000000000017
100
AcDbArc
 50
268.166222027512
 51
271.8337779724945
  0
ARC
  5
2C24
330
24E6
100
AcDbEntity
  8
0
 62
     7
100
AcDbCircle
 10
891.3938616569657
 20
889.3653536469463
 30
0.0
 40
1.599999976001051
100
AcDbArc
 50
270.0000000008011
 51
0.0000000000716515
  0
ARC
  5
2C25
330
24E6
100
AcDbEntity
  8
0
 62
     7
100
AcDbCircle
 10
894.5938616089048
 20
892.0549921588904
 30
0.0
 40
1.599999975976029
100
AcDbArc
 50
109.2696388775002
 51
180.0
  0
CIRCLE
  5
2C26
330
24E6
100
AcDbEntity
  8
1
 62
     7
100
AcDbCircle
 10
961.0910845794201
 20
869.8206325694492
 30
0.0
 40
5.500000000000087
  0
ARC
  5
2C27
330
24E6
100
AcDbEntity
  8
1
 62
     7
100
AcDbCircle
 10
924.2046563173749
 20
865.7674242797893
 30
0.0
 40
7.334999999999968
100
AcDbArc
 50
4.087566488251046
 51
83.23444961960346
  0
ARC
  5
2C28
330
24E6
100
AcDbEntity
  8
1
 62
     7
100
AcDbCircle
 10
885.3138617482821
 20
913.5706325694494
 30
0.0
 40
66.10999999999987
100
AcDbArc
 50
314.3422798501962
 51
319.570763628063
  0
ARC
  5
2C29
330
24E6
100
AcDbEntity
  8
1
 62
     7
100
AcDbCircle
 10
935.6596314050502
 20
878.0327077191206
 30
0.0
 40
6.746874999999991
100
AcDbArc
 50
168.9836630955327
 51
296.0697705586823
  0
ARC
  5
2C2A
330
24E6
100
AcDbEntity
  8
1
 62
     7
100
AcDbCircle
 10
924.2046563173749
 20
865.7674242797893
 30
0.0
 40
6.746875000000073
100
AcDbArc
 50
337.8432729195798
 51
104.9293803827251
  0
LINE
  5
2C2B
330
24E6
100
AcDbEntity
  8
1
  6
DASHDOT
 62
     3
100
AcDbLine
 10
968.2357941606415
 20
865.6956325694492
 30
0.0
 11
953.9463749981985
 21
873.9456325694492
 31
0.0
  0
CIRCLE
  5
2C2C
330
24E6
100
AcDbEntity
  8
1
 62
     7
100
AcDbCircle
 10
929.0638617482814
 20
837.7934097383109
 30
0.0
 40
5.499999999999983
  0
LINE
  5
2C2D
330
24E6
100
AcDbEntity
  8
1
  6
DASHDOT
 62
     3
100
AcDbLine
 10
933.1888617482817
 20
830.6487001570893
 30
0.0
 11
924.9388617482816
 21
844.9381193195325
 31
0.0
  0
ARC
  5
2C2E
330
24E6
100
AcDbEntity
  8
1
 62
     7
100
AcDbCircle
 10
909.8653289100568
 20
857.0474861141759
 30
0.0
 40
7.334999999999878
100
AcDbArc
 50
348.4353925752086
 51
67.58227570656107
  0
ARC
  5
2C2F
330
24E6
100
AcDbEntity
  8
1
 62
     7
100
AcDbCircle
 10
924.2046563173749
 20
865.7674242797893
 30
0.0
 40
7.335000000000013
100
AcDbArc
 50
175.0264199456153
 51
254.1733030769673
  0
ARC
  5
2C30
330
24E6
100
AcDbEntity
  8
1
 62
     7
100
AcDbCircle
 10
885.3138617482821
 20
913.5706325694494
 30
0.0
 40
66.10999999999987
100
AcDbArc
 50
298.6901059371529
 51
303.9185897150159
  0
ARC
  5
2C31
330
24E6
100
AcDbEntity
  8
1
 62
     7
100
AcDbCircle
 10
924.2046563173749
 20
865.7674242797893
 30
0.0
 40
6.746875000000088
100
AcDbArc
 50
153.3314891824955
 51
280.4175966456386
  0
ARC
  5
2C32
330
24E6
100
AcDbEntity
  8
1
 62
     7
100
AcDbCircle
 10
885.3138617482821
 20
913.5706325694494
 30
0.0
 40
56.7649999999999
100
AcDbArc
 50
298.8022677121744
 51
303.8064279399998
  0
ARC
  5
2C33
330
24E6
100
AcDbEntity
  8
1
 62
     7
100
AcDbCircle
 10
935.6596314050502
 20
878.0327077191206
 30
0.0
 40
7.335000000000013
100
AcDbArc
 50
19.73974040129673
 51
98.88662353264656
  0
ARC
  5
2C34
330
24E6
100
AcDbEntity
  8
1
 62
     7
100
AcDbCircle
 10
943.3806910738542
 20
892.9336764694124
 30
0.0
 40
7.33500000000003
100
AcDbArc
 50
206.3307677717013
 51
285.4776509030537
  0
ARC
  5
2C35
330
24E6
100
AcDbEntity
  8
1
 62
     7
100
AcDbCircle
 10
943.3806910738542
 20
892.9336764694124
 30
0.0
 40
7.334999999999968
100
AcDbArc
 50
35.39191431433735
 51
114.538797445689
  0
ARC
  5
2C36
330
24E6
100
AcDbEntity
  8
1
 62
     7
100
AcDbCircle
 10
885.3138617482821
 20
913.5706325694494
 30
0.0
 40
56.76499999999984
100
AcDbArc
 50
345.7587894513069
 51
350.7629496791285
  0
ARC
  5
2C37
330
24E6
100
AcDbEntity
  8
1
 62
     7
100
AcDbCircle
 10
946.7951996496489
 20
909.3651938458512
 30
0.0
 40
6.746874999999952
100
AcDbArc
 50
200.2880109216212
 51
327.3741183847706
  0
ARC
  5
2C38
330
24E6
100
AcDbEntity
  8
1
 62
     7
100
AcDbCircle
 10
943.3806910738542
 20
892.9336764694124
 30
0.0
 40
6.746875000000062
100
AcDbArc
 50
184.6358370085772
 51
311.7219444717245
  0
ARC
  5
2C39
330
24E6
100
AcDbEntity
  8
1
 62
     7
100
AcDbCircle
 10
943.3806910738542
 20
892.9336764694124
 30
0.0
 40
6.746875000000032
100
AcDbArc
 50
9.147620745667969
 51
136.2337282088103
  0
ARC
  5
2C3A
330
24E6
100
AcDbEntity
  8
1
 62
     7
100
AcDbCircle
 10
935.6596314050502
 20
878.0327077191206
 30
0.0
 40
6.746875000000032
100
AcDbArc
 50
353.4954468326235
 51
120.5815542957678
  0
ARC
  5
2C3B
330
24E6
100
AcDbEntity
  8
1
 62
     7
100
AcDbCircle
 10
885.3138617482821
 20
913.5706325694494
 30
0.0
 40
56.76499999999986
100
AcDbArc
 50
314.4544416252194
 51
319.4586018530405
  0
ARC
  5
2C3C
330
24E6
100
AcDbEntity
  8
1
 62
     7
100
AcDbCircle
 10
935.6596314050502
 20
878.0327077191206
 30
0.0
 40
7.335000000000047
100
AcDbArc
 50
190.678593858655
 51
269.8254769900084
  0
ARC
  5
2C3D
330
24E6
100
AcDbEntity
  8
1
 62
     7
100
AcDbCircle
 10
885.3138617482821
 20
913.5706325694494
 30
0.0
 40
56.76499999999993
100
AcDbArc
 50
330.1066155382609
 51
335.1107757660873
  0
ARC
  5
2C3E
330
24E6
100
AcDbEntity
  8
1
 62
     7
100
AcDbCircle
 10
885.3138617482821
 20
913.5706325694494
 30
0.0
 40
66.10999999999982
100
AcDbArc
 50
329.9944537632438
 51
335.2229375411047
  0
ARC
  5
2C3F
330
24E6
100
AcDbEntity
  8
1
 62
     7
100
AcDbCircle
 10
885.3138617482821
 20
913.5706325694494
 30
0.0
 40
66.10999999999979
100
AcDbArc
 50
345.646627676285
 51
350.8751114541485
  0
ARC
  5
2C40
330
24E6
100
AcDbEntity
  8
1
 62
     7
100
AcDbCircle
 10
946.7951996496489
 20
909.3651938458512
 30
0.0
 40
7.335000000000044
100
AcDbArc
 50
221.982941684742
 51
301.1298248160981
  0
ARC
  5
2C41
330
24E6
100
AcDbEntity
  8
1
 62
     7
100
AcDbCircle
 10
917.3332226692155
 20
966.2242283746266
 30
0.0
 40
7.33499999999995
100
AcDbArc
 50
113.6527838795546
 51
192.7996670109063
  0
ARC
  5
2C42
330
24E6
100
AcDbEntity
  8
1
 62
     7
100
AcDbCircle
 10
901.9400877708333
 20
972.9104104022574
 30
0.0
 40
7.335000000000013
100
AcDbArc
 50
300.24381124996
 51
19.39069438131135
  0
ARC
  5
2C43
330
24E6
100
AcDbEntity
  8
1
 62
     7
100
AcDbCircle
 10
885.3138617482821
 20
913.5706325694494
 30
0.0
 40
66.10999999999989
100
AcDbArc
 50
63.90749724150338
 51
69.13598101936743
  0
ARC
  5
2C44
330
24E6
100
AcDbEntity
  8
1
 62
     7
100
AcDbCircle
 10
917.3332226692155
 20
966.2242283746266
 30
0.0
 40
6.746875000000111
100
AcDbArc
 50
87.40849031088281
 51
214.4945977740282
  0
ARC
  5
2C45
330
24E6
100
AcDbEntity
  8
1
 62
     7
100
AcDbCircle
 10
885.3138617482821
 20
913.5706325694494
 30
0.0
 40
11.0
100
AcDbArc
 50
0.0
 51
74.17337986812821
  0
LINE
  5
2C46
330
24E6
100
AcDbEntity
  8
1
 62
     7
100
AcDbLine
 10
882.313861748282
 20
927.3706325694494
 30
0.0
 11
888.3138617482821
 21
927.3706325694494
 31
0.0
  0
LINE
  5
2C47
330
24E6
100
AcDbEntity
  8
1
 62
     7
100
AcDbLine
 10
882.313861748282
 20
927.3706325694494
 30
0.0
 11
882.313861748282
 21
924.1536378137077
 31
0.0
  0
LINE
  5
2C48
330
24E6
100
AcDbEntity
  8
1
 62
     7
100
AcDbLine
 10
888.3138617482821
 20
927.3706325694494
 30
0.0
 11
888.3138617482821
 21
924.1536378137077
 31
0.0
  0
ARC
  5
2C49
330
24E6
100
AcDbEntity
  8
1
 62
     7
100
AcDbCircle
 10
885.3138617482821
 20
975.1956325694491
 30
0.0
 40
6.746874999999986
100
AcDbArc
 50
118.712838136968
 51
245.7989456001159
  0
ARC
  5
2C4A
330
24E6
100
AcDbEntity
  8
1
 62
     7
100
AcDbCircle
 10
868.6876357257304
 20
972.9104104022574
 30
0.0
 40
7.334999999999968
100
AcDbArc
 50
331.5481590760498
 51
50.69504220740399
  0
ARC
  5
2C4B
330
24E6
100
AcDbEntity
  8
1
 62
     7
100
AcDbCircle
 10
885.3138617482821
 20
975.1956325694491
 30
0.0
 40
7.334999999999996
100
AcDbArc
 50
144.9571317056418
 51
224.1040148369965
  0
ARC
  5
2C4C
330
24E6
100
AcDbEntity
  8
1
 62
     7
100
AcDbCircle
 10
868.6876357257304
 20
972.9104104022574
 30
0.0
 40
7.335000000000023
100
AcDbArc
 50
160.6093056186824
 51
239.75618875004
  0
ARC
  5
2C4D
330
24E6
100
AcDbEntity
  8
1
 62
     7
100
AcDbCircle
 10
885.3138617482821
 20
913.5706325694494
 30
0.0
 40
66.11000000000001
100
AcDbArc
 50
110.8640189806325
 51
116.0925027584995
  0
ARC
  5
2C4E
330
24E6
100
AcDbEntity
  8
1
 62
     7
100
AcDbCircle
 10
853.2945008273484
 20
966.2242283746266
 30
0.0
 40
6.746875000000143
100
AcDbArc
 50
325.5054022259717
 51
92.59150968911717
  0
ARC
  5
2C4F
330
24E6
100
AcDbEntity
  8
1
 62
     7
100
AcDbCircle
 10
868.6876357257304
 20
972.9104104022574
 30
0.0
 40
6.746874999999952
100
AcDbArc
 50
309.8532283129263
 51
76.93933577607309
  0
ARC
  5
2C50
330
24E6
100
AcDbEntity
  8
1
 62
     7
100
AcDbCircle
 10
868.6876357257304
 20
972.9104104022574
 30
0.0
 40
6.746875000000081
100
AcDbArc
 50
134.3650120500114
 51
261.4511195131593
  0
ARC
  5
2C51
330
24E6
100
AcDbEntity
  8
1
 62
     7
100
AcDbCircle
 10
853.2945008273484
 20
966.2242283746266
 30
0.0
 40
7.335000000000077
100
AcDbArc
 50
347.2003329890936
 51
66.34721612044538
  0
ARC
  5
2C52
330
24E6
100
AcDbEntity
  8
1
 62
     7
100
AcDbCircle
 10
885.3138617482821
 20
913.5706325694494
 30
0.0
 40
56.765
100
AcDbArc
 50
110.9761807556515
 51
115.9803409834755
  0
ARC
  5
2C53
330
24E6
100
AcDbEntity
  8
1
 62
     7
100
AcDbCircle
 10
885.3138617482821
 20
913.5706325694494
 30
0.0
 40
56.765
100
AcDbArc
 50
95.32400684261123
 51
100.328167070433
  0
ARC
  5
2C54
330
24E6
100
AcDbEntity
  8
1
 62
     7
100
AcDbCircle
 10
885.3138617482821
 20
913.5706325694494
 30
0.0
 40
66.11
100
AcDbArc
 50
95.21184506759047
 51
100.4403288454543
  0
ARC
  5
2C55
330
24E6
100
AcDbEntity
  8
1
 62
     7
100
AcDbCircle
 10
901.9400877708333
 20
972.9104104022574
 30
0.0
 40
7.334999999999952
100
AcDbArc
 50
129.304957792596
 51
208.4518409239501
  0
ARC
  5
2C56
330
24E6
100
AcDbEntity
  8
1
 62
     7
100
AcDbCircle
 10
885.3138617482821
 20
975.1956325694491
 30
0.0
 40
7.335000000000039
100
AcDbArc
 50
315.8959851630034
 51
35.04286829435812
  0
ARC
  5
2C57
330
24E6
100
AcDbEntity
  8
1
 62
     7
100
AcDbCircle
 10
901.9400877708333
 20
972.9104104022574
 30
0.0
 40
6.746875000000031
100
AcDbArc
 50
278.5488804868406
 51
45.63498794998625
  0
ARC
  5
2C58
330
24E6
100
AcDbEntity
  8
1
 62
     7
100
AcDbCircle
 10
901.9400877708333
 20
972.9104104022574
 30
0.0
 40
6.746875000000065
100
AcDbArc
 50
103.0606642239269
 51
230.1467716870735
  0
ARC
  5
2C59
330
24E6
100
AcDbEntity
  8
1
 62
     7
100
AcDbCircle
 10
885.3138617482821
 20
975.1956325694491
 30
0.0
 40
6.746875000000017
100
AcDbArc
 50
294.201054399881
 51
61.28716186303194
  0
ARC
  5
2C5A
330
24E6
100
AcDbEntity
  8
1
 62
     7
100
AcDbCircle
 10
885.3138617482821
 20
913.5706325694494
 30
0.0
 40
56.76499999999999
100
AcDbArc
 50
79.67183292956692
 51
84.67599315739201
  0
ARC
  5
2C5B
330
24E6
100
AcDbEntity
  8
1
 62
     7
100
AcDbCircle
 10
885.3138617482821
 20
913.5706325694494
 30
0.0
 40
56.76499999999984
100
AcDbArc
 50
64.01965901652444
 51
69.02381924434843
  0
ARC
  5
2C5C
330
24E6
100
AcDbEntity
  8
1
 62
     7
100
AcDbCircle
 10
885.3138617482821
 20
913.5706325694494
 30
0.0
 40
66.10999999999987
100
AcDbArc
 50
79.55967115454561
 51
84.78815493241276
  0
LINE
  5
2C5D
330
24E6
100
AcDbEntity
  8
1
  6
CENTER
 62
     3
100
AcDbLine
 10
885.3138617482821
 20
987.7706325694493
 30
0.0
 11
885.3138617482821
 21
986.4156325694493
 31
0.0
  0
CIRCLE
  5
2C5E
330
24E6
100
AcDbEntity
  8
1
 62
     7
100
AcDbCircle
 10
961.0910845794201
 20
957.3206325694487
 30
0.0
 40
5.500000000000111
  0
ARC
  5
2C5F
330
24E6
100
AcDbEntity
  8
1
 62
     7
100
AcDbCircle
 10
930.3516280469212
 20
955.6329700202988
 30
0.0
 40
7.334999999999981
100
AcDbArc
 50
268.9394634238725
 51
348.0863465552254
  0
ARC
  5
2C60
330
24E6
100
AcDbEntity
  8
1
 62
     7
100
AcDbCircle
 10
885.3138617482821
 20
913.5706325694494
 30
0.0
 40
66.10999999999979
100
AcDbArc
 50
32.60314941541638
 51
37.83163319328279
  0
ARC
  5
2C61
330
24E6
100
AcDbEntity
  8
1
 62
     7
100
AcDbCircle
 10
930.3516280469212
 20
955.6329700202988
 30
0.0
 40
6.746875000000039
100
AcDbArc
 50
247.244532660753
 51
14.330640123902
  0
ARC
  5
2C62
330
24E6
100
AcDbEntity
  8
1
 62
     7
100
AcDbCircle
 10
945.6499186517051
 20
926.1086093738178
 30
0.0
 40
7.33500000000003
100
AcDbArc
 50
66.69626214042333
 51
145.843145271778
  0
ARC
  5
2C63
330
24E6
100
AcDbEntity
  8
1
 62
     7
100
AcDbCircle
 10
940.0297883323284
 20
941.9221405196314
 30
0.0
 40
7.334999999999977
100
AcDbArc
 50
253.2872895108311
 51
332.4341726421823
  0
ARC
  5
2C64
330
24E6
100
AcDbEntity
  8
1
 62
     7
100
AcDbCircle
 10
940.0297883323284
 20
941.9221405196314
 30
0.0
 40
7.335000000000006
100
AcDbArc
 50
82.34843605346908
 51
161.4953191848177
  0
ARC
  5
2C65
330
24E6
100
AcDbEntity
  8
1
 62
     7
100
AcDbCircle
 10
940.0297883323284
 20
941.9221405196314
 30
0.0
 40
6.74687500000007
100
AcDbArc
 50
231.5923587477074
 51
358.6784662108561
  0
ARC
  5
2C66
330
24E6
100
AcDbEntity
  8
1
 62
     7
100
AcDbCircle
 10
945.6499186517051
 20
926.1086093738178
 30
0.0
 40
6.746874999999986
100
AcDbArc
 50
215.9401848346632
 51
343.0262922978148
  0
ARC
  5
2C67
330
24E6
100
AcDbEntity
  8
1
 62
     7
100
AcDbCircle
 10
940.0297883323284
 20
941.9221405196314
 30
0.0
 40
6.746875000000073
100
AcDbArc
 50
56.10414248479514
 51
183.1902499479433
  0
ARC
  5
2C68
330
24E6
100
AcDbEntity
  8
1
 62
     7
100
AcDbCircle
 10
945.6499186517051
 20
926.1086093738178
 30
0.0
 40
6.746874999999986
100
AcDbArc
 50
40.4519685717531
 51
167.538076034901
  0
ARC
  5
2C69
330
24E6
100
AcDbEntity
  8
1
 62
     7
100
AcDbCircle
 10
885.3138617482821
 20
913.5706325694494
 30
0.0
 40
56.76499999999978
100
AcDbArc
 50
17.0631372773903
 51
22.06729750521577
  0
ARC
  5
2C6A
330
24E6
100
AcDbEntity
  8
1
 62
     7
100
AcDbCircle
 10
885.3138617482821
 20
913.5706325694494
 30
0.0
 40
56.76499999999993
100
AcDbArc
 50
32.71531119043739
 51
37.71947141826231
  0
ARC
  5
2C6B
330
24E6
100
AcDbEntity
  8
1
 62
     7
100
AcDbCircle
 10
946.7951996496489
 20
909.3651938458512
 30
0.0
 40
7.335000000000055
100
AcDbArc
 50
51.04408822737918
 51
130.1909713587354
  0
ARC
  5
2C6C
330
24E6
100
AcDbEntity
  8
1
 62
     7
100
AcDbCircle
 10
945.6499186517051
 20
926.1086093738178
 30
0.0
 40
7.334999999999997
100
AcDbArc
 50
237.6351155977872
 51
316.7819987291384
  0
ARC
  5
2C6D
330
24E6
100
AcDbEntity
  8
1
 62
     7
100
AcDbCircle
 10
946.7951996496489
 20
909.3651938458512
 30
0.0
 40
6.746875000000008
100
AcDbArc
 50
24.79979465871023
 51
151.8859021218565
  0
ARC
  5
2C6E
330
24E6
100
AcDbEntity
  8
1
 62
     7
100
AcDbCircle
 10
885.3138617482821
 20
913.5706325694494
 30
0.0
 40
56.76499999999983
100
AcDbArc
 50
1.41096336435107
 51
6.415123592169309
  0
ARC
  5
2C6F
330
24E6
100
AcDbEntity
  8
1
 62
     7
100
AcDbCircle
 10
885.3138617482821
 20
913.5706325694494
 30
0.0
 40
66.10999999999993
100
AcDbArc
 50
1.298801589329217
 51
6.527285367193325
  0
ARC
  5
2C70
330
24E6
100
AcDbEntity
  8
1
 62
     7
100
AcDbCircle
 10
885.3138617482821
 20
913.5706325694494
 30
0.0
 40
66.10999999999982
100
AcDbArc
 50
16.95097550237148
 51
22.179459280239
  0
ARC
  5
2C71
330
24E6
100
AcDbEntity
  8
1
 62
     7
100
AcDbCircle
 10
930.3516280469212
 20
955.6329700202988
 30
0.0
 40
7.33499999999995
100
AcDbArc
 50
98.00060996651062
 51
177.1474930978637
  0
ARC
  5
2C72
330
24E6
100
AcDbEntity
  8
1
 62
     7
100
AcDbCircle
 10
917.3332226692155
 20
966.2242283746266
 30
0.0
 40
7.33500000000003
100
AcDbArc
 50
284.5916373369186
 51
3.738520468270339
  0
ARC
  5
2C73
330
24E6
100
AcDbEntity
  8
1
 62
     7
100
AcDbCircle
 10
885.3138617482821
 20
913.5706325694494
 30
0.0
 40
66.10999999999974
100
AcDbArc
 50
48.25532332845931
 51
53.48380710632296
  0
ARC
  5
2C74
330
24E6
100
AcDbEntity
  8
1
 62
     7
100
AcDbCircle
 10
917.3332226692155
 20
966.2242283746266
 30
0.0
 40
6.746874999999938
100
AcDbArc
 50
262.8967065737981
 51
29.98281403694248
  0
ARC
  5
2C75
330
24E6
100
AcDbEntity
  8
1
 62
     7
100
AcDbCircle
 10
930.3516280469212
 20
955.6329700202988
 30
0.0
 40
6.746875000000073
100
AcDbArc
 50
71.75631639783967
 51
198.8424238609854
  0
ARC
  5
2C76
330
24E6
100
AcDbEntity
  8
1
 62
     7
100
AcDbCircle
 10
885.3138617482821
 20
913.5706325694494
 30
0.0
 40
56.76499999999982
100
AcDbArc
 50
48.36748510348286
 51
53.37164533130341
  0
LINE
  5
2C77
330
24E6
100
AcDbEntity
  8
1
  6
DASHDOT
 62
     3
100
AcDbLine
 10
968.2357941606417
 20
961.4456325694487
 30
0.0
 11
953.9463749981987
 21
953.1956325694487
 31
0.0
  0
LINE
  5
2C78
330
24E6
100
AcDbEntity
  8
1
  6
CENTER
 62
     3
100
AcDbLine
 10
972.8138617482821
 20
913.5706325694494
 30
0.0
 11
992.2986178374451
 21
913.5706325694494
 31
0.0
  0
CIRCLE
  5
2C79
330
24E6
100
AcDbEntity
  8
1
 62
     7
100
AcDbCircle
 10
885.3138617482821
 20
1001.070632569449
 30
0.0
 40
5.5
  0
INSERT
  5
2C83
330
24E6
100
AcDbEntity
  8
AM_0
100
AcDbBlockReference
  2
HD LLC
 10
937.5774927997047
 20
563.6221410329503
 30
0.0
 41
2.66926040651233
 42
2.66926040651233
 43
2.66926040651233
  0
INSERT
  5
2C89
330
24E6
100
AcDbEntity
  8
AM_0
100
AcDbBlockReference
  2
HD logo-new
 10
728.6101151408314
 20
573.4010028104481
 30
0.0
 41
2.549999999999999
 42
2.549999999999999
 43
2.549999999999999
  0
INSERT
  5
2C96
330
24E6
100
AcDbEntity
  8
AM_0
100
AcDbBlockReference
  2
NTC
 10
166.7328415691886
 20
635.8176532243119
 30
0.0
 41
1.4552
 42
1.4552
 43
1.4552
  0
ENDSEC
  0
SECTION
  2
OBJECTS
  0
DICTIONARY
  5
24D4
330
0
100
AcDbDictionary
281
     1
  3
ACAD_GROUP
350
24D5
  3
ACAD_LAYOUT
350
24E1
  3
ACAD_MLINESTYLE
350
24DE
  3
ACAD_PLOTSETTINGS
350
24E0
  3
ACAD_PLOTSTYLENAME
350
24D6
  3
AcDbVariableDictionary
350
27DE
  0
DICTIONARY
  5
24D5
102
{ACAD_REACTORS
330
24D4
102
}
330
24D4
100
AcDbDictionary
281
     1
  0
DICTIONARY
  5
24E1
102
{ACAD_REACTORS
330
24D4
102
}
330
24D4
100
AcDbDictionary
281
     1
  3
Layout1
350
24E5
  3
Model
350
24E9
  0
DICTIONARY
  5
24DE
102
{ACAD_REACTORS
330
24D4
102
}
330
24D4
100
AcDbDictionary
281
     1
  3
Standard
350
24DF
  0
DICTIONARY
  5
24E0
102
{ACAD_REACTORS
330
24D4
102
}
330
24D4
100
AcDbDictionary
281
     1
  0
ACDBDICTIONARYWDFLT
  5
24D6
102
{ACAD_REACTORS
330
24D4
102
}
330
24D4
100
AcDbDictionary
281
     1
  3
Normal
350
24D7
100
AcDbDictionaryWithDefault
340
24D7
  0
DICTIONARY
  5
27DE
102
{ACAD_REACTORS
330
24D4
102
}
330
24D4
100
AcDbDictionary
281
     1
  3
DIMASSOC
350
27DF
  0
LAYOUT
  5
24E5
102
{ACAD_REACTORS
330
24E1
102
}
330
24E1
100
AcDbPlotSettings
  1

  2
\\SERVER9\HP LaserJet 5100 PCL 5e
  4

  6

 40
0.0
 41
0.0
 42
0.0
 43
0.0
 44
0.0
 45
0.0
 46
0.0
 47
0.0
 48
0.0
 49
0.0
140
0.0
141
0.0
142
1.0
143
1.0
 70
   688
 72
     0
 73
     0
 74
     5
  7

 75
    16
147
1.0
148
0.0
149
0.0
100
AcDbLayout
  1
Layout1
 70
     1
 71
     1
 10
0.0
 20
0.0
 11
420.0
 21
297.0
 12
0.0
 22
0.0
 32
0.0
 14
1.000000000000000E+20
 24
1.000000000000000E+20
 34
1.000000000000000E+20
 15
-1.000000000000000E+20
 25
-1.000000000000000E+20
 35
-1.000000000000000E+20
146
0.0
 13
0.0
 23
0.0
 33
0.0
 16
1.0
 26
0.0
 36
0.0
 17
0.0
 27
1.0
 37
0.0
 76
     0
330
24E2
  0
LAYOUT
  5
24E9
102
{ACAD_REACTORS
330
24E1
102
}
330
24E1
100
AcDbPlotSettings
  1

  2
\\SERVER9\HP LaserJet 5100 PCL 5e
  4

  6

 40
0.0
 41
0.0
 42
0.0
 43
0.0
 44
0.0
 45
0.0
 46
0.0
 47
0.0
 48
0.0
 49
0.0
140
0.0
141
0.0
142
1.0
143
1.0
 70
  1712
 72
     0
 73
     0
 74
     0
  7

 75
     0
147
1.0
148
0.0
149
0.0
100
AcDbLayout
  1
Model
 70
     1
 71
     0
 10
0.0
 20
0.0
 11
12.0
 21
9.0
 12
0.0
 22
0.0
 32
0.0
 14
0.0
 24
0.0
 34
0.0
 15
0.0
 25
0.0
 35
0.0
146
0.0
 13
0.0
 23
0.0
 33
0.0
 16
1.0
 26
0.0
 36
0.0
 17
0.0
 27
1.0
 37
0.0
 76
     0
330
24E6
  0
MLINESTYLE
  5
24DF
102
{ACAD_REACTORS
330
24DE
102
}
330
24DE
100
AcDbMlineStyle
  2
STANDARD
 70
     0
  3

 62
   256
 51
90.0
 52
90.0
 71
     2
 49
0.5
 62
   256
  6
BYLAYER
 49
-0.5
 62
   256
  6
BYLAYER
  0
ACDBPLACEHOLDER
  5
24D7
102
{ACAD_REACTORS
330
24D6
102
}
330
24D6
  0
DICTIONARYVAR
  5
27DF
102
{ACAD_REACTORS
330
27DE
102
}
330
27DE
100
DictionaryVariables
280
     0
  1
1
  0
ENDSEC
  0
EOF
