  0
SECTION
  2
HEADER
  9
$ACADVER
  1
AC1018
  9
$ACADMAINTVER
 70
     2
  9
$DWGCODEPAGE
  3
ANSI_1252
  9
$INSBASE
 10
0.0
 20
0.0
 30
0.0
  9
$EXTMIN
 10
-316.871277816964
 20
-261.9921494920362
 30
-0.0015258207003583
  9
$EXTMAX
 10
341.9492579506948
 20
141.0367698854595
 30
0.0000000349246037
  9
$LIMMIN
 10
-253.3340758451508
 20
-208.0220167942655
  9
$LIMMAX
 10
312.3324728557213
 20
141.0244702312479
  9
$ORTHOMODE
 70
     0
  9
$REGENMODE
 70
     1
  9
$FILLMODE
 70
     1
  9
$QTEXTMODE
 70
     0
  9
$MIRRTEXT
 70
     1
  9
$LTSCALE
 40
1.0
  9
$ATTMODE
 70
     1
  9
$TEXTSIZE
 40
3.5
  9
$TRACEWID
 40
0.5
  9
$TEXTSTYLE
  7
STANDARD
  9
$CLAYER
  8
0
  9
$CELTYPE
  6
ByLayer
  9
$CECOLOR
 62
   256
  9
$CELTSCALE
 40
1.0
  9
$DISPSILH
 70
     0
  9
$DIMSCALE
 40
1.0
  9
$DIMASZ
 40
0.18
  9
$DIMEXO
 40
0.0625
  9
$DIMDLI
 40
0.38
  9
$DIMRND
 40
0.0
  9
$DIMDLE
 40
0.0
  9
$DIMEXE
 40
0.18
  9
$DIMTP
 40
0.0
  9
$DIMTM
 40
0.0
  9
$DIMTXT
 40
0.18
  9
$DIMCEN
 40
0.09
  9
$DIMTSZ
 40
0.0
  9
$DIMTOL
 70
     0
  9
$DIMLIM
 70
     0
  9
$DIMTIH
 70
     1
  9
$DIMTOH
 70
     1
  9
$DIMSE1
 70
     0
  9
$DIMSE2
 70
     0
  9
$DIMTAD
 70
     0
  9
$DIMZIN
 70
     0
  9
$DIMBLK
  1

  9
$DIMASO
 70
     1
  9
$DIMSHO
 70
     1
  9
$DIMPOST
  1

  9
$DIMAPOST
  1

  9
$DIMALT
 70
     0
  9
$DIMALTD
 70
     2
  9
$DIMALTF
 40
25.4
  9
$DIMLFAC
 40
1.0
  9
$DIMTOFL
 70
     0
  9
$DIMTVP
 40
0.0
  9
$DIMTIX
 70
     0
  9
$DIMSOXD
 70
     0
  9
$DIMSAH
 70
     0
  9
$DIMBLK1
  1

  9
$DIMBLK2
  1

  9
$DIMSTYLE
  2
Standard
  9
$DIMCLRD
 70
     0
  9
$DIMCLRE
 70
     0
  9
$DIMCLRT
 70
     0
  9
$DIMTFAC
 40
1.0
  9
$DIMGAP
 40
0.09
  9
$DIMJUST
 70
     0
  9
$DIMSD1
 70
     0
  9
$DIMSD2
 70
     0
  9
$DIMTOLJ
 70
     1
  9
$DIMTZIN
 70
     0
  9
$DIMALTZ
 70
     0
  9
$DIMALTTZ
 70
     0
  9
$DIMUPT
 70
     0
  9
$DIMDEC
 70
     4
  9
$DIMTDEC
 70
     4
  9
$DIMALTU
 70
     2
  9
$DIMALTTD
 70
     2
  9
$DIMTXSTY
  7
STANDARD
  9
$DIMAUNIT
 70
     0
  9
$DIMADEC
 70
     0
  9
$DIMALTRND
 40
0.0
  9
$DIMAZIN
 70
     0
  9
$DIMDSEP
 70
    46
  9
$DIMATFIT
 70
     3
  9
$DIMFRAC
 70
     0
  9
$DIMLDRBLK
  1

  9
$DIMLUNIT
 70
     2
  9
$DIMLWD
 70
    -2
  9
$DIMLWE
 70
    -2
  9
$DIMTMOVE
 70
     0
  9
$LUNITS
 70
     2
  9
$LUPREC
 70
     4
  9
$SKETCHINC
 40
0.1
  9
$FILLETRAD
 40
2.0
  9
$AUNITS
 70
     0
  9
$AUPREC
 70
     0
  9
$MENU
  1
ACAD
  9
$ELEVATION
 40
0.0
  9
$PELEVATION
 40
0.0
  9
$THICKNESS
 40
0.0
  9
$LIMCHECK
 70
     0
  9
$CHAMFERA
 40
0.0
  9
$CHAMFERB
 40
0.0
  9
$CHAMFERC
 40
0.0
  9
$CHAMFERD
 40
0.0
  9
$SKPOLY
 70
     0
  9
$TDCREATE
 40
2453857.471303345
  9
$TDUCREATE
 40
2453857.637970012
  9
$TDUPDATE
 40
2457203.705736574
  9
$TDUUPDATE
 40
2457203.872403241
  9
$TDINDWG
 40
0.0055613079
  9
$TDUSRTIMER
 40
0.0055613079
  9
$USRTIMER
 70
     1
  9
$ANGBASE
 50
0.0
  9
$ANGDIR
 70
     0
  9
$PDMODE
 70
     0
  9
$PDSIZE
 40
0.0
  9
$PLINEWID
 40
0.0
  9
$SPLFRAME
 70
     0
  9
$SPLINETYPE
 70
     6
  9
$SPLINESEGS
 70
     8
  9
$HANDSEED
  5
544
  9
$SURFTAB1
 70
     6
  9
$SURFTAB2
 70
     6
  9
$SURFTYPE
 70
     6
  9
$SURFU
 70
     6
  9
$SURFV
 70
     6
  9
$UCSBASE
  2

  9
$UCSNAME
  2

  9
$UCSORG
 10
0.0
 20
0.0
 30
0.0
  9
$UCSXDIR
 10
1.0
 20
0.0
 30
0.0
  9
$UCSYDIR
 10
0.0
 20
1.0
 30
0.0
  9
$UCSORTHOREF
  2

  9
$UCSORTHOVIEW
 70
     0
  9
$UCSORGTOP
 10
0.0
 20
0.0
 30
0.0
  9
$UCSORGBOTTOM
 10
0.0
 20
0.0
 30
0.0
  9
$UCSORGLEFT
 10
0.0
 20
0.0
 30
0.0
  9
$UCSORGRIGHT
 10
0.0
 20
0.0
 30
0.0
  9
$UCSORGFRONT
 10
0.0
 20
0.0
 30
0.0
  9
$UCSORGBACK
 10
0.0
 20
0.0
 30
0.0
  9
$PUCSBASE
  2

  9
$PUCSNAME
  2

  9
$PUCSORG
 10
0.0
 20
0.0
 30
0.0
  9
$PUCSXDIR
 10
1.0
 20
0.0
 30
0.0
  9
$PUCSYDIR
 10
0.0
 20
1.0
 30
0.0
  9
$PUCSORTHOREF
  2

  9
$PUCSORTHOVIEW
 70
     0
  9
$PUCSORGTOP
 10
0.0
 20
0.0
 30
0.0
  9
$PUCSORGBOTTOM
 10
0.0
 20
0.0
 30
0.0
  9
$PUCSORGLEFT
 10
0.0
 20
0.0
 30
0.0
  9
$PUCSORGRIGHT
 10
0.0
 20
0.0
 30
0.0
  9
$PUCSORGFRONT
 10
0.0
 20
0.0
 30
0.0
  9
$PUCSORGBACK
 10
0.0
 20
0.0
 30
0.0
  9
$USERI1
 70
     0
  9
$USERI2
 70
     0
  9
$USERI3
 70
     0
  9
$USERI4
 70
     0
  9
$USERI5
 70
     0
  9
$USERR1
 40
0.0
  9
$USERR2
 40
0.0
  9
$USERR3
 40
0.0
  9
$USERR4
 40
0.0
  9
$USERR5
 40
0.0
  9
$WORLDVIEW
 70
     1
  9
$SHADEDGE
 70
     3
  9
$SHADEDIF
 70
    70
  9
$TILEMODE
 70
     1
  9
$MAXACTVP
 70
    64
  9
$PINSBASE
 10
0.0
 20
0.0
 30
0.0
  9
$PLIMCHECK
 70
     0
  9
$PEXTMIN
 10
1.000000000000000E+20
 20
1.000000000000000E+20
 30
1.000000000000000E+20
  9
$PEXTMAX
 10
-1.000000000000000E+20
 20
-1.000000000000000E+20
 30
-1.000000000000000E+20
  9
$PLIMMIN
 10
0.0
 20
0.0
  9
$PLIMMAX
 10
12.0
 20
9.0
  9
$UNITMODE
 70
     0
  9
$VISRETAIN
 70
     1
  9
$PLINEGEN
 70
     0
  9
$PSLTSCALE
 70
     1
  9
$TREEDEPTH
 70
  3020
  9
$CMLSTYLE
  2
Standard
  9
$CMLJUST
 70
     0
  9
$CMLSCALE
 40
1.0
  9
$PROXYGRAPHICS
 70
     1
  9
$MEASUREMENT
 70
     0
  9
$CELWEIGHT
370
    -1
  9
$ENDCAPS
280
     0
  9
$JOINSTYLE
280
     0
  9
$LWDISPLAY
290
     0
  9
$INSUNITS
 70
     0
  9
$HYPERLINKBASE
  1

  9
$STYLESHEET
  1

  9
$XEDIT
290
     1
  9
$CEPSNTYPE
380
     0
  9
$PSTYLEMODE
290
     1
  9
$FINGERPRINTGUID
  2
{C247FFFB-58BF-4FF4-8D07-73E68F5D366B}
  9
$VERSIONGUID
  2
{D897ADEC-8DE5-47E4-9AE7-A63C7D947A50}
  9
$EXTNAMES
290
     1
  9
$PSVPSCALE
 40
0.0
  9
$OLESTARTUP
290
     0
  9
$SORTENTS
280
   127
  9
$INDEXCTL
280
     1
  9
$HIDETEXT
280
     0
  9
$XCLIPFRAME
290
     0
  9
$HALOGAP
280
     0
  9
$OBSCOLOR
 70
   257
  9
$OBSLTYPE
280
     0
  9
$INTERSECTIONDISPLAY
280
     0
  9
$INTERSECTIONCOLOR
 70
   257
  9
$DIMASSOC
280
     1
  9
$PROJECTNAME
  1

  0
ENDSEC
  0
SECTION
  2
CLASSES
  0
CLASS
  1
ACDBDICTIONARYWDFLT
  2
AcDbDictionaryWithDefault
  3
ObjectDBX Classes
 90
        0
 91
        1
280
     0
281
     0
  0
CLASS
  1
DICTIONARYVAR
  2
AcDbDictionaryVar
  3
ObjectDBX Classes
 90
        0
 91
        1
280
     0
281
     0
  0
CLASS
  1
AMGSETTINGSOBJ
  2
AmgSettingsObj
  3
"AcadM|Product Description: AutoCAD Mechanical 2000|Company: Autodesk"
 90
        0
 91
        2
280
     0
281
     0
  0
CLASS
  1
ACME_DOCUMENT
  2
AcMeDbDoc
  3
AcMeServices
 90
        0
 91
        1
280
     0
281
     0
  0
CLASS
  1
ACMESCOPE
  2
AcMeScope
  3
AcMeServices
 90
        0
 91
        1
280
     0
281
     0
  0
CLASS
  1
ACMECOMMANDHISTORY
  2
AcMeCommandHistory
  3
AcMeServices
 90
        0
 91
        1
280
     0
281
     0
  0
CLASS
  1
ACIMSYSVARMAN
  2
AcImSysVarManager
  3
AcMeServices
 90
        0
 91
        5
280
     0
281
     0
  0
CLASS
  1
ACIMINTSYSVAR
  2
AcImIntSysVar
  3
AcMeServices
 90
        0
 91
       26
280
     0
281
     0
  0
CLASS
  1
ACMEDRAWINGMAN
  2
AcMeDrawingMan
  3
AcMeServices
 90
        0
 91
        1
280
     0
281
     0
  0
CLASS
  1
ACMEVIEW
  2
AcMeView
  3
AcMeServices
 90
        0
 91
        1
280
     0
281
     0
  0
CLASS
  1
ACDBENTITYCACHE
  2
AcMeEntityCache
  3
AcMeServices
 90
        0
 91
        1
280
     0
281
     0
  0
CLASS
  1
GSMANAGER
  2
AcMeGSManager
  3
AcMeServices
 90
        0
 91
        1
280
     0
281
     0
  0
CLASS
  1
AMDTINTERNALREACTOR
  2
AmdtInternalReactor
  3
AcMeServices
 90
        0
 91
        2
280
     0
281
     0
  0
CLASS
  1
ACMESTATEMGR
  2
AcMeStateMgr
  3
AcMeServices
 90
        0
 91
        1
280
     0
281
     0
  0
CLASS
  1
ACGREFMASTER
  2
AcGrefMaster
  3
AcAttribServices
 90
        0
 91
        1
280
     0
281
     0
  0
CLASS
  1
AM_DRAWING_MGR
  2
AcDmDwgMgr
  3
AcMechDwgViewMgmt
 90
        0
 91
        1
280
     0
281
     0
  0
CLASS
  1
AM_DWG_DOCUMENT
  2
AcDmDwgDocument
  3
AcMechDwgViewMgmt
 90
        0
 91
        1
280
     0
281
     0
  0
CLASS
  1
AM_DWG_SHEET
  2
AcDmSheet
  3
AcMechDwgViewMgmt
 90
        0
 91
        1
280
     0
281
     0
  0
CLASS
  1
AM_VIEWDIMPARMAP
  2
AcDmViewDimParMap
  3
AcMechDwgViewMgmt
 90
        0
 91
        1
280
     0
281
     0
  0
CLASS
  1
ACIMREALSYSVAR
  2
AcImRealSysVar
  3
AcMeServices
 90
        0
 91
        1
280
     0
281
     0
  0
CLASS
  1
AM_DWGMGR_NAME
  2
AcDmDwgMgrName
  3
AcMechDwgViewMgmt
 90
        0
 91
        1
280
     0
281
     0
  0
CLASS
  1
ACME_DATABASE
  2
AcMeDbDatabase
  3
AcMeServices
 90
        0
 91
        2
280
     0
281
     0
  0
CLASS
  1
ACRFINSADJUSTERMGR
  2
AcRfInsAdjusterMgr
  3
AcMeServices
 90
        0
 91
        1
280
     0
281
     0
  0
CLASS
  1
ACGREFACADMASTER
  2
AcGrefacadMaster
  3
AcGrefServices
 90
        0
 91
        1
280
     0
281
     0
  0
CLASS
  1
AMDTMENUSTATEMGR
  2
AmdtMenuStateMgr
  3
McadcomServices
 90
        0
 91
        1
280
     0
281
     0
  0
CLASS
  1
AMDTMCOMMENUSTATE
  2
AmdtMcomMenuState
  3
McadcomServices
 90
        0
 91
        1
280
     0
281
     0
  0
CLASS
  1
AMIMASTER
  2
AmiMaster
  3
AmiServices
 90
        0
 91
        1
280
     0
281
     0
  0
CLASS
  1
MAPIAMMOUDLE
  2
MApiAmModule
  3
MApiAmServices
 90
        0
 91
        1
280
     0
281
     0
  0
CLASS
  1
AMDTADMENUSTATE
  2
AmdtAdMenuState
  3
DesignerServices
 90
        0
 91
        1
280
     0
281
     0
  0
CLASS
  1
ADAPPL
  2
AcAdAppl
  3
DesignerServices
 90
        0
 91
        1
280
     0
281
     0
  0
CLASS
  1
DEPMGR
  2
AcAdDepMgr
  3
DesignerServices
 90
        0
 91
        1
280
     0
281
     0
  0
CLASS
  1
PARAMMGR
  2
AcAdParamMgr
  3
DesignerServices
 90
        0
 91
        1
280
     0
281
     0
  0
CLASS
  1
PARAMSCOPE
  2
AcAdParamScope
  3
DesignerServices
 90
        0
 91
        1
280
     0
281
     0
  0
CLASS
  1
NAMEDAPPL
  2
AcAdNamedAppl
  3
DesignerServices
 90
        0
 91
        1
280
     0
281
     0
  0
CLASS
  1
AMDTDMMENUSTATE
  2
AmdtDmMenuState
  3
AcMechDwgViewMgmt
 90
        0
 91
        1
280
     0
281
     0
  0
CLASS
  1
AMDTAMMENUSTATE
  2
AmdtAmMenuState
  3
DesignerAssemblies
 90
        0
 91
        1
280
     0
281
     0
  0
CLASS
  1
ACIMSTRSYSVAR
  2
AcImStrSysVar
  3
AcMeServices
 90
        0
 91
        5
280
     0
281
     0
  0
CLASS
  1
ACAMPROJECT
  2
AcAmProject
  3
DesignerAssemblies
 90
        0
 91
        1
280
     0
281
     0
  0
CLASS
  1
ACAMGRCOMPDEF
  2
AcAmGrCompDef
  3
DesignerAssemblies
 90
        0
 91
        1
280
     0
281
     0
  0
CLASS
  1
ACCMCONTEXT
  2
AcCmContext
  3
DesignerAssemblies
 90
        0
 91
        1
280
     0
281
     0
  0
CLASS
  1
ACAMCOMPDEF
  2
AcAmCompDef
  3
DesignerAssemblies
 90
        0
 91
        1
280
     0
281
     0
  0
CLASS
  1
ACAMCOMPDEFMGR
  2
AcAmCompDefMgr
  3
DesignerAssemblies
 90
        0
 91
        1
280
     0
281
     0
  0
CLASS
  1
AMCONTEXTMGR
  2
AcAmContextMgr
  3
DesignerAssemblies
 90
        0
 91
        1
280
     0
281
     0
  0
CLASS
  1
ACAMCONTEXTMODELER
  2
AcAmContextModeler
  3
DesignerAssemblies
 90
        0
 91
        1
280
     0
281
     0
  0
CLASS
  1
ACMDATADICTIONARY
  2
AcmDataDictionary
  3
"AcmSymBB|Product Description: AutoCAD Mechanical 2004 DX|Company: Autodesk"
 90
        0
 91
        1
280
     0
281
     0
  0
CLASS
  1
CATALOGSTATE
  2
AcAmCatalogState
  3
DesignerAssemblies
 90
        0
 91
        1
280
     0
281
     0
  0
CLASS
  1
ACAMGRCOMPDEFSET
  2
AcAmGrCompDefSet
  3
DesignerAssemblies
 90
        0
 91
        1
280
     0
281
     0
  0
CLASS
  1
AMDTBROWSERDBTAB
  2
AmdtBrowserDbTab
  3
McadcomServices
 90
        0
 91
        1
280
     0
281
     0
  0
CLASS
  1
CBROWSERAPPOBJECT
  2
CBrowserAppObject
  3
McadcomServices
 90
        0
 91
        3
280
     0
281
     0
  0
CLASS
  1
DM_PLACEHOLDER
  2
AcDmSelsetPlaceholder
  3
AcMechDwgViewMgmt
 90
        0
 91
        1
280
     0
281
     0
  0
CLASS
  1
ACMSTANDARDANSI
  2
AcmStandardANSI
  3
"Amdt_StdImp|Product Description: AutoCAD Mechanical 2004 DX|Company: Autodesk"
 90
        0
 91
        1
280
     0
281
     0
  0
CLASS
  1
AMGOBJPROPCFG
  2
AmgObjPropCfg
  3
"AmgLay|Product Description: AutoCAD Mechanical 2000|Company: Autodesk"
 90
        1
 91
        1
280
     0
281
     0
  0
CLASS
  1
ACMSURFSTANDARDANSI
  2
AcmSurfTextStdANSI
  3
"Amdt_StdImp|Product Description: AutoCAD Mechanical 2004 DX|Company: Autodesk"
 90
        0
 91
        1
280
     0
281
     0
  0
CLASS
  1
ACMFCFSTANDARDANSI
  2
AcmFCFStdANSI
  3
"Amdt_StdImp|Product Description: AutoCAD Mechanical 2004 DX|Company: Autodesk"
 90
        0
 91
        1
280
     0
281
     0
  0
CLASS
  1
ACMWELDSTANDARDANSI
  2
AcmWeldingStdANSI
  3
"Amdt_StdImp|Product Description: AutoCAD Mechanical 2004 DX|Company: Autodesk"
 90
        0
 91
        1
280
     0
281
     0
  0
CLASS
  1
ACMIDSTANDARDANSI
  2
AcmIdStdANSI
  3
"Amdt_StdImp|Product Description: AutoCAD Mechanical 2004 DX|Company: Autodesk"
 90
        0
 91
        1
280
     0
281
     0
  0
CLASS
  1
ACMDATUMSTANDARDANSI
  2
AcmDatumStdANSI
  3
"Amdt_StdImp|Product Description: AutoCAD Mechanical 2004 DX|Company: Autodesk"
 90
        0
 91
        1
280
     0
281
     0
  0
CLASS
  1
ACMBOMSTANDARDANSI
  2
AcmBOMStdANSI
  3
"Amdt_StdImp|Product Description: AutoCAD Mechanical 2004 DX|Company: Autodesk"
 90
        0
 91
        1
280
     0
281
     0
  0
CLASS
  1
ACMDETAILSTANDARDANSI
  2
AmdtDetailSymStdANSI
  3
"Amdt_StdImp|Product Description: AutoCAD Mechanical 2004 DX|Company: Autodesk"
 90
        0
 91
        1
280
     0
281
     0
  0
CLASS
  1
ACMSECTIONSTANDARDANSI
  2
AmdtSectionSymStdANSI
  3
"Amdt_StdImp|Product Description: AutoCAD Mechanical 2004 DX|Company: Autodesk"
 90
        0
 91
        1
280
     0
281
     0
  0
CLASS
  1
ACMCENTERLINESTANDARDANSI
  2
AmdtCenterLineStdANSI
  3
"Amdt_StdImp|Product Description: AutoCAD Mechanical 2004 DX|Company: Autodesk"
 90
        0
 91
        1
280
     0
281
     0
  0
CLASS
  1
ACMTHREADLINESTANDARDANSI
  2
AmdtThreadLineStdANSI
  3
"Amdt_StdImp|Product Description: AutoCAD Mechanical 2004 DX|Company: Autodesk"
 90
        0
 91
        1
280
     0
281
     0
  0
CLASS
  1
ACMNOTESTANDARDANSI
  2
AmdtNoteStdANSI
  3
"Amdt_StdImp|Product Description: AutoCAD Mechanical 2004 DX|Company: Autodesk"
 90
        0
 91
        1
280
     0
281
     0
  0
CLASS
  1
AMDTNOTETEMPLATEDB
  2
AmdtNoteTemplateDB
  3
AMDT_STDIMP_MODULE_NAME
 90
        0
 91
        4
280
     0
281
     0
  0
CLASS
  1
ACAMGLAYSTD
  2
AcAmgLayStd
  3
"AcAmgLayStd|Product Description: AutoCAD Mechanical 2000|Company: Autodesk"
 90
        0
 91
        1
280
     0
281
     0
  0
CLASS
  1
ACAMGDIMSTD
  2
AcAmgDimStd
  3
"AcAmgDimStd|Product Description: AutoCAD Mechanical 2000|Company: Autodesk"
 90
        0
 91
        1
280
     0
281
     0
  0
CLASS
  1
ACAMGHOLECHARTSTDANSI
  2
AcAmgHoleChartStdANSI
  3
ACMSYMBB_MODULE_NAME
 90
        0
 91
        1
280
     0
281
     0
  0
CLASS
  1
ACAMGTITLESTD
  2
AcAmgTitleStd
  3
"TITLEAPP"
 90
        0
 91
        1
280
     0
281
     0
  0
CLASS
  1
ACAMGFILTERDAT
  2
AcAmgFilterDat
  3
"AcadM|Product Description: AutoCAD Mechanical 2000|Company: Autodesk"
 90
        0
 91
        6
280
     0
281
     0
  0
CLASS
  1
ACRFATTGENMGR
  2
AcRfAttGeneralMgr
  3
AcAttribServices
 90
        0
 91
        1
280
     0
281
     0
  0
CLASS
  1
LAYER_INDEX
  2
AcDbLayerIndex
  3
ObjectDBX Classes
 90
        0
 91
        2
280
     0
281
     0
  0
CLASS
  1
IDBUFFER
  2
AcDbIdBuffer
  3
ObjectDBX Classes
 90
        0
 91
        6
280
     0
281
     0
  0
ENDSEC
  0
SECTION
  2
TABLES
  0
TABLE
  2
VPORT
  5
8
330
0
100
AcDbSymbolTable
 70
     9
  0
VPORT
  5
543
330
8
100
AcDbSymbolTableRecord
100
AcDbViewportTableRecord
  2
*Active
 70
     0
 10
0.0
 20
0.0
 11
1.0
 21
1.0
 12
12.53899006686537
 22
-60.47768980328834
 13
0.0
 23
0.0
 14
1.0
 24
1.0
 15
0.0
 25
0.0
 16
0.0
 26
0.0
 36
1.0
 17
0.0
 27
0.0
 37
0.0
 40
406.0180090144116
 41
1.868811881188118
 42
50.0
 43
0.0
 44
0.0
 50
0.0
 51
0.0
 71
     0
 72
   100
 73
     1
 74
     1
 75
     0
 76
     0
 77
     0
 78
     0
281
     0
 65
     0
110
0.0
120
0.0
130
0.0
111
1.0
121
0.0
131
0.0
112
0.0
122
1.0
132
0.0
 79
     0
146
0.0
  0
ENDTAB
  0
TABLE
  2
LTYPE
  5
5
330
0
100
AcDbSymbolTable
 70
    22
  0
LTYPE
  5
13
330
5
100
AcDbSymbolTableRecord
100
AcDbLinetypeTableRecord
  2
ByBlock
 70
     0
  3

 72
    65
 73
     0
 40
0.0
  0
LTYPE
  5
14
330
5
100
AcDbSymbolTableRecord
100
AcDbLinetypeTableRecord
  2
ByLayer
 70
     0
  3

 72
    65
 73
     0
 40
0.0
  0
LTYPE
  5
15
330
5
100
AcDbSymbolTableRecord
100
AcDbLinetypeTableRecord
  2
CONTINUOUS
 70
     0
  3
Solid line
 72
    65
 73
     0
 40
0.0
  0
LTYPE
  5
22
330
5
100
AcDbSymbolTableRecord
100
AcDbLinetypeTableRecord
  2
BORDER
 70
     0
  3
__ __ . __ __ .
 72
    65
 73
     6
 40
26.05043316385595
 49
7.442980903958842
 74
     0
 49
-3.721490451979422
 74
     0
 49
7.442980903958842
 74
     0
 49
-3.721490451979422
 74
     0
 49
0.0
 74
     0
 49
-3.721490451979422
 74
     0
  0
LTYPE
  5
23
330
5
100
AcDbSymbolTableRecord
100
AcDbLinetypeTableRecord
  2
CENTER
 70
     0
  3
____ _ ____ _
 72
    65
 73
     4
 40
29.77192361583536
 49
18.60745225989711
 74
     0
 49
-3.721490451979422
 74
     0
 49
3.721490451979422
 74
     0
 49
-3.721490451979422
 74
     0
  0
LTYPE
  5
24
330
5
100
AcDbSymbolTableRecord
100
AcDbLinetypeTableRecord
  2
DASHDOT
 70
     0
  3
__ . __ . __ .
 72
    65
 73
     4
 40
14.88596180791769
 49
7.442980903958842
 74
     0
 49
-3.721490451979422
 74
     0
 49
0.0
 74
     0
 49
-3.721490451979422
 74
     0
  0
LTYPE
  5
25
330
5
100
AcDbSymbolTableRecord
100
AcDbLinetypeTableRecord
  2
DASHED
 70
     0
  3
__ __ __ __ __
 72
    65
 73
     2
 40
11.16447135593826
 49
7.442980903958842
 74
     0
 49
-3.721490451979422
 74
     0
  0
LTYPE
  5
26
330
5
100
AcDbSymbolTableRecord
100
AcDbLinetypeTableRecord
  2
DIVIDE
 70
     0
  3
__ . . __ . . 
 72
    65
 73
     6
 40
18.60745225989711
 49
7.442980903958842
 74
     0
 49
-3.721490451979422
 74
     0
 49
0.0
 74
     0
 49
-3.721490451979422
 74
     0
 49
0.0
 74
     0
 49
-3.721490451979422
 74
     0
  0
LTYPE
  5
27
330
5
100
AcDbSymbolTableRecord
100
AcDbLinetypeTableRecord
  2
DOT
 70
     0
  3
..............
 72
    65
 73
     4
 40
7.442980903958842
 49
0.0
 74
     0
 49
-3.721490451979422
 74
     0
 49
0.0
 74
     0
 49
-3.721490451979422
 74
     0
  0
LTYPE
  5
28
330
5
100
AcDbSymbolTableRecord
100
AcDbLinetypeTableRecord
  2
HIDDEN
 70
     0
  3
_ _ _ _ _ _ _
 72
    65
 73
     2
 40
5.58223567796913
 49
3.721490451979422
 74
     0
 49
-1.860745225989711
 74
     0
  0
LTYPE
  5
29
330
5
100
AcDbSymbolTableRecord
100
AcDbLinetypeTableRecord
  2
PHANTOM
 70
     0
  3
_____ _ _ _____ _ _ 
 72
    65
 73
     6
 40
37.21490451979422
 49
18.60745225989711
 74
     0
 49
-3.721490451979422
 74
     0
 49
3.721490451979422
 74
     0
 49
-3.721490451979422
 74
     0
 49
3.721490451979422
 74
     0
 49
-3.721490451979422
 74
     0
  0
LTYPE
  5
49F
330
5
100
AcDbSymbolTableRecord
100
AcDbLinetypeTableRecord
  2
PHANTOM2
 70
     0
  3
Phantom (.5x) ___ _ _ ___ _ _ ___ _ _ ___ _ _
 72
    65
 73
     6
 40
1.25
 49
0.625
 74
     0
 49
-0.125
 74
     0
 49
0.125
 74
     0
 49
-0.125
 74
     0
 49
0.125
 74
     0
 49
-0.125
 74
     0
  0
LTYPE
  5
4E6
330
5
100
AcDbSymbolTableRecord
100
AcDbLinetypeTableRecord
  2
AM_ISO02W050
 70
     0
  3
__ __ __ __ __ __ __ __ __ __ __ __ __ __ __
 72
    65
 73
     2
 40
7.5
 49
6.0
 74
     0
 49
-1.5
 74
     0
  0
LTYPE
  5
4E7
330
5
100
AcDbSymbolTableRecord
100
AcDbLinetypeTableRecord
  2
AM_ISO08W050
 70
     0
  3
____ . ____ . ____ . ____ . ____ . ____ . ____
 72
    65
 73
     4
 40
18.0
 49
12.0
 74
     0
 49
-1.5
 74
     0
 49
3.0
 74
     0
 49
-1.5
 74
     0
  0
LTYPE
  5
4E8
330
5
100
AcDbSymbolTableRecord
100
AcDbLinetypeTableRecord
  2
AM_ISO09W050
 70
     0
  3
_____ . . _____ . . _____ . . ____ .. ____
 72
    65
 73
     6
 40
22.5
 49
12.0
 74
     0
 49
-1.5
 74
     0
 49
3.0
 74
     0
 49
-1.5
 74
     0
 49
3.0
 74
     0
 49
-1.5
 74
     0
  0
LTYPE
  5
4E9
330
5
100
AcDbSymbolTableRecord
100
AcDbLinetypeTableRecord
  2
Amconstr
 70
     0
  3
_______________________
 72
    65
 73
     2
 40
9999.0
 49
9999.0
 74
     0
 49
0.0
 74
     0
  0
LTYPE
  5
4EA
330
5
100
AcDbSymbolTableRecord
100
AcDbLinetypeTableRecord
  2
AM_ISO08W050x2
 70
     0
  3
__ . __ . __ . __ . __ . __
 72
    65
 73
     4
 40
9.0
 49
6.0
 74
     0
 49
-0.75
 74
     0
 49
1.5
 74
     0
 49
-0.75
 74
     0
  0
LTYPE
  5
4EB
330
5
100
AcDbSymbolTableRecord
100
AcDbLinetypeTableRecord
  2
AM_ISO02W050x2
 70
     0
  3
 _ _ _ _ _ _ _ _ _ _ _ _
 72
    65
 73
     2
 40
3.75
 49
3.0
 74
     0
 49
-0.75
 74
     0
  0
LTYPE
  5
4EE
330
5
100
AcDbSymbolTableRecord
100
AcDbLinetypeTableRecord
  2
Amzigzag
 70
     0
  3
/\/-/\/-/\/-/\/-/\/-/\/
 72
    65
 73
     2
 40
11.0001
 49
0.0001
 74
     4
 75
   135
340
4ED
 46
0.04
 50
0.0
 44
0.0
 45
0.0
 49
-11.0
 74
     0
  0
LTYPE
  5
4EF
330
5
100
AcDbSymbolTableRecord
100
AcDbLinetypeTableRecord
  2
CENTER2
 70
     0
  3
Center (.5x) ___ _ ___ _ ___ _ ___ _ ___ _ ___
 72
    65
 73
     4
 40
1.125
 49
0.75
 74
     0
 49
-0.125
 74
     0
 49
0.125
 74
     0
 49
-0.125
 74
     0
  0
LTYPE
  5
4F0
330
5
100
AcDbSymbolTableRecord
100
AcDbLinetypeTableRecord
  2
HIDDEN2
 70
     0
  3
Hidden (.5x) _ _ _ _ _ _ _ _ _ _ _ _ _ _ _ _ _
 72
    65
 73
     2
 40
0.1875
 49
0.125
 74
     0
 49
-0.0625
 74
     0
  0
LTYPE
  5
4F1
330
5
100
AcDbSymbolTableRecord
100
AcDbLinetypeTableRecord
  2
Amzigzag2
 70
     0
  3
/\/-/\/-/\/-/\/-/\/-/\/
 72
    65
 73
     2
 40
0.4401
 49
0.0001
 74
     4
 75
   135
340
4ED
 46
0.0016
 50
0.0
 44
0.0
 45
0.0
 49
-0.4400000000000001
 74
     0
  0
LTYPE
  5
4FF
330
5
100
AcDbSymbolTableRecord
100
AcDbLinetypeTableRecord
  2
ACANSTGB
 70
     0
  3
__ . . __ . .
 72
    65
 73
     6
 40
0.35433070866
 49
0.15748031496
 74
     0
 49
-0.03937007874
 74
     0
 49
0.03937007874
 74
     0
 49
-0.03937007874
 74
     0
 49
0.03937007874
 74
     0
 49
-0.03937007874
 74
     0
  0
LTYPE
  5
500
330
5
100
AcDbSymbolTableRecord
100
AcDbLinetypeTableRecord
  2
ACANSTGL
 70
     0
  3
_ _ _ _ _
 72
    65
 73
     2
 40
0.11811023622
 49
0.07874015748
 74
     0
 49
-0.03937007874
 74
     0
  0
ENDTAB
  0
TABLE
  2
LAYER
  5
2
330
0
100
AcDbSymbolTable
 70
     3
  0
LAYER
  5
10
330
2
100
AcDbSymbolTableRecord
100
AcDbLayerTableRecord
  2
0
 70
     0
 62
     7
  6
CONTINUOUS
370
    -3
390
F
  0
LAYER
  5
2A
330
2
100
AcDbSymbolTableRecord
100
AcDbLayerTableRecord
  2
1
 70
     0
 62
     7
  6
CONTINUOUS
370
    -3
390
F
  0
LAYER
  5
443
330
2
100
AcDbSymbolTableRecord
100
AcDbLayerTableRecord
  2
LAYER_1
 70
     0
 62
     5
  6
CONTINUOUS
370
    -3
390
F
  0
ENDTAB
  0
TABLE
  2
STYLE
  5
3
330
0
100
AcDbSymbolTable
 70
     7
  0
STYLE
  5
11
330
3
100
AcDbSymbolTableRecord
100
AcDbTextStyleTableRecord
  2
STANDARD
 70
     0
 40
0.0
 41
1.0
 50
0.0
 71
     0
 42
3.5
  3
txt
  4

  0
STYLE
  5
2B
330
3
100
AcDbSymbolTableRecord
100
AcDbTextStyleTableRecord
  2
SIMPLEX
 70
     0
 40
0.0
 41
1.0
 50
0.0
 71
     0
 42
3.5
  3
simplex
  4

  0
STYLE
  5
2C
330
3
100
AcDbSymbolTableRecord
100
AcDbTextStyleTableRecord
  2
COMPLEX
 70
     0
 40
0.0
 41
1.0
 50
0.0
 71
     0
 42
3.5
  3
complex
  4

  0
STYLE
  5
2D
330
3
100
AcDbSymbolTableRecord
100
AcDbTextStyleTableRecord
  2
ITALIC
 70
     0
 40
0.0
 41
1.0
 50
0.0
 71
     0
 42
3.5
  3
italic
  4

  0
STYLE
  5
4ED
330
3
100
AcDbSymbolTableRecord
100
AcDbTextStyleTableRecord
  2

 70
     1
 40
0.0
 41
1.0
 50
0.0
 71
     0
 42
3.5
  3
ltypeshp.shx
  4

  0
STYLE
  5
4F2
330
3
100
AcDbSymbolTableRecord
100
AcDbTextStyleTableRecord
  2
ACANSTS
 70
     0
 40
1.0
 41
1.0
 50
0.0
 71
     0
 42
3.5
  3
romans.shx
  4

  0
STYLE
  5
4FE
330
3
100
AcDbSymbolTableRecord
100
AcDbTextStyleTableRecord
  2
ACANSGDT
 70
     0
 40
0.0
 41
1.0
 50
0.0
 71
     0
 42
3.5
  3
amgdtans.shx
  4

  0
ENDTAB
  0
TABLE
  2
VIEW
  5
6
330
0
100
AcDbSymbolTable
 70
     0
  0
ENDTAB
  0
TABLE
  2
UCS
  5
7
330
0
100
AcDbSymbolTable
 70
     0
  0
ENDTAB
  0
TABLE
  2
APPID
  5
9
330
0
100
AcDbSymbolTable
 70
     8
  0
APPID
  5
12
330
9
100
AcDbSymbolTableRecord
100
AcDbRegAppTableRecord
  2
ACAD
 70
     0
  0
APPID
  5
485
330
9
100
AcDbSymbolTableRecord
100
AcDbRegAppTableRecord
  2
MCAD_NO_VIS
 70
     0
  0
APPID
  5
486
330
9
100
AcDbSymbolTableRecord
100
AcDbRegAppTableRecord
  2
ACAD_TEMP_GRAPHIC
 70
     0
  0
APPID
  5
4B4
330
9
100
AcDbSymbolTableRecord
100
AcDbRegAppTableRecord
  2
AD_DRAW
 70
     0
  0
APPID
  5
4B7
330
9
100
AcDbSymbolTableRecord
100
AcDbRegAppTableRecord
  2
ACATTRIBSERVICES
 70
     0
  0
APPID
  5
4D5
330
9
100
AcDbSymbolTableRecord
100
AcDbRegAppTableRecord
  2
DESIGNERASSEMBLIES
 70
     0
  0
APPID
  5
4DB
330
9
100
AcDbSymbolTableRecord
100
AcDbRegAppTableRecord
  2
ACADM_DIM_EDIT
 70
     0
  0
APPID
  5
4DC
330
9
100
AcDbSymbolTableRecord
100
AcDbRegAppTableRecord
  2
AMDT_DM_ADJ
 70
     0
  0
ENDTAB
  0
TABLE
  2
DIMSTYLE
  5
A
330
0
100
AcDbSymbolTable
 70
     7
100
AcDbDimStyleTable
 71
     0
  0
DIMSTYLE
105
3D6
330
A
100
AcDbSymbolTableRecord
100
AcDbDimStyleTableRecord
  2
Standard
 70
     0
340
11
  0
DIMSTYLE
105
508
330
A
100
AcDbSymbolTableRecord
100
AcDbDimStyleTableRecord
  2
AM_ANSI
 70
     0
  4
mm
 41
0.1
 42
0.05
 43
0.5
 44
0.1
 47
0.1
 48
0.1
 78
     7
 79
     2
140
0.12
141
0.0
146
0.71
147
0.06
176
   256
177
   256
178
     2
274
     4
284
     7
340
11
371
    -1
372
    -1
  0
DIMSTYLE
105
509
330
A
100
AcDbSymbolTableRecord
100
AcDbDimStyleTableRecord
  2
AM_ANSI$3
 70
     0
  4
mm
 41
0.1
 42
0.05
 43
0.5
 44
0.1
 47
0.1
 48
0.1
 78
     7
 79
     2
140
0.12
141
0.0
146
0.71
147
0.06
176
   256
177
   256
178
     2
274
     4
284
     7
288
     1
289
     0
340
11
371
    -1
372
    -1
  0
DIMSTYLE
105
50A
330
A
100
AcDbSymbolTableRecord
100
AcDbDimStyleTableRecord
  2
AM_ANSI$4
 70
     0
  4
mm
 41
0.1
 42
0.05
 43
0.5
 44
0.1
 47
0.1
 48
0.1
 78
     7
 79
     2
140
0.12
141
0.0
146
0.71
147
0.06
176
   256
177
   256
178
     2
274
     4
284
     7
288
     1
289
     0
340
11
371
    -1
372
    -1
  0
DIMSTYLE
105
50B
330
A
100
AcDbSymbolTableRecord
100
AcDbDimStyleTableRecord
  2
AM_ANSI$7
 70
     0
  4
mm
 41
0.1
 42
0.05
 43
0.5
 44
0.1
 47
0.1
 48
0.1
 78
     7
 79
     2
140
0.24
141
0.0
146
0.71
147
0.06
176
   256
177
   256
178
     2
274
     4
284
     7
340
11
371
    -1
372
    -1
  0
DIMSTYLE
105
50C
330
A
100
AcDbSymbolTableRecord
100
AcDbDimStyleTableRecord
  2
AM_ANSI$SF
 70
     0
  4
mm
 41
0.1
 42
0.05
 43
0.5
 44
0.1
 47
0.1
 48
0.1
 75
     1
 76
     1
 78
     7
 79
     2
140
0.12
141
0.0
146
0.71
147
0.06
176
   256
177
   256
178
     2
274
     4
284
     7
340
11
371
    -1
372
    -1
  0
DIMSTYLE
105
511
330
A
100
AcDbSymbolTableRecord
100
AcDbDimStyleTableRecord
  2
AM_ANSI$SH
 70
     0
  4
mm
 41
0.1
 42
0.05
 43
0.5
 44
0.1
 47
0.1
 48
0.1
 75
     1
 76
     1
 78
     7
 79
     2
140
0.12
141
0.0
146
0.71
147
0.06
173
     1
176
   256
177
   256
178
     2
274
     4
284
     7
340
11
343
50D
371
    -1
372
    -1
  0
ENDTAB
  0
TABLE
  2
BLOCK_RECORD
  5
1
330
0
100
AcDbSymbolTable
 70
    21
  0
BLOCK_RECORD
  5
1E
102
{ACAD_XDICTIONARY
360
53A
102
}
330
1
100
AcDbSymbolTableRecord
100
AcDbBlockTableRecord
  2
*Model_Space
340
21
  0
BLOCK_RECORD
  5
1A
330
1
100
AcDbSymbolTableRecord
100
AcDbBlockTableRecord
  2
*Paper_Space
340
1D
  0
BLOCK_RECORD
  5
3D7
330
1
100
AcDbSymbolTableRecord
100
AcDbBlockTableRecord
  2
AI9-BLK14
340
0
310
2800000020000000200000000100080000000000000400000000000000000000000000000000000000000000000080000080000000808000800000008000800080800000C0C0C000C0DCC000F0CAA6000020400000206000002080000020A0000020C0000020E00000400000004020000040400000406000004080000040A0
310
000040C0000040E00000600000006020000060400000606000006080000060A0000060C0000060E00000800000008020000080400000806000008080000080A0000080C0000080E00000A0000000A0200000A0400000A0600000A0800000A0A00000A0C00000A0E00000C0000000C0200000C0400000C0600000C0800000C0
310
A00000C0C00000C0E00000E0000000E0200000E0400000E0600000E0800000E0A00000E0C00000E0E00040000000400020004000400040006000400080004000A0004000C0004000E00040200000402020004020400040206000402080004020A0004020C0004020E000404000004040200040404000404060004040800040
310
40A0004040C0004040E00040600000406020004060400040606000406080004060A0004060C0004060E00040800000408020004080400040806000408080004080A0004080C0004080E00040A0000040A0200040A0400040A0600040A0800040A0A00040A0C00040A0E00040C0000040C0200040C0400040C0600040C08000
310
40C0A00040C0C00040C0E00040E0000040E0200040E0400040E0600040E0800040E0A00040E0C00040E0E00080000000800020008000400080006000800080008000A0008000C0008000E00080200000802020008020400080206000802080008020A0008020C0008020E00080400000804020008040400080406000804080
310
008040A0008040C0008040E00080600000806020008060400080606000806080008060A0008060C0008060E00080800000808020008080400080806000808080008080A0008080C0008080E00080A0000080A0200080A0400080A0600080A0800080A0A00080A0C00080A0E00080C0000080C0200080C0400080C0600080C0
310
800080C0A00080C0C00080C0E00080E0000080E0200080E0400080E0600080E0800080E0A00080E0C00080E0E000C0000000C0002000C0004000C0006000C0008000C000A000C000C000C000E000C0200000C0202000C0204000C0206000C0208000C020A000C020C000C020E000C0400000C0402000C0404000C0406000C0
310
408000C040A000C040C000C040E000C0600000C0602000C0604000C0606000C0608000C060A000C060C000C060E000C0800000C0802000C0804000C0806000C0808000C080A000C080C000C080E000C0A00000C0A02000C0A04000C0A06000C0A08000C0A0A000C0A0C000C0A0E000C0C00000C0C02000C0C04000C0C06000
310
C0C08000C0C0A000F0FBFF00A4A0A000808080000000FF0000FF000000FFFF00FF000000FF00FF00FFFF0000FFFFFF00FF00FFFFFFFF00FFFFFFFFFFFFFFFFFFFFFFFFFFFFFFFFFFFFFFFFFFFFFFFFFFFF00FFFFFFFF00FFFFFFFFFFFFFFFFFFFFFFFFFFFFFFFFFFFFFFFFFFFFFFFFFFFF00FFFFFFFF00FFFFFFFFFFFFFFFF
310
FFFFFFFFFFFFFFFFFFFFFFFFFFFFFFFFFFFF00FFFFFFFF00FFFFFFFFFFFFFFFFFFFFFFFFFFFFFFFFFFFFFFFFFFFFFFFFFFFF00FFFFFFFF00FFFFFFFFFFFFFFFFFFFFFFFFFFFFFFFFFFFFFFFFFFFFFFFFFFFF00FFFFFFFF00FFFFFFFFFFFFFFFFFFFFFFFFFFFFFFFFFFFFFFFFFFFFFFFFFFFF00FFFFFFFF00FFFFFFFFFFFFFF
310
FFFFFFFFFFFFFFFFFFFFFFFFFFFFFFFFFFFFFF00FFFFFFFF00FFFFFFFFFFFFFFFFFFFFFFFFFFFFFFFFFFFFFFFFFFFFFFFFFFFF00FFFFFFFF00FFFFFFFFFFFFFFFFFFFFFFFFFFFFFFFFFFFFFFFFFFFFFFFFFFFF00FFFFFFFF00FFFFFFFFFFFFFFFFFFFFFFFFFFFFFFFFFFFFFFFFFFFFFFFFFFFF00FFFFFFFF00FFFFFFFFFFFF
310
FFFFFFFFFFFFFFFFFFFFFFFFFFFFFFFFFFFFFFFF00FFFFFFFF00FFFFFFFFFFFFFFFFFFFFFFFFFFFFFFFFFFFFFFFFFFFFFFFFFFFF00FFFFFFFF00FFFFFFFFFFFFFFFFFFFFFFFFFFFFFFFFFFFFFFFFFFFFFFFFFFFF00FFFFFFFF0000000000000000000000000000000000000000000000000000FF00FFFFFFFFFFFFFFFFFFFF
310
FFFFFFFFFFFFFFFFFFFFFFFFFFFFFFFFFFFFFFFFFF00FFFFFFFFFFFFFFFFFFFFFFFFFFFFFFFFFFFFFFFFFFFFFFFFFFFFFFFFFFFFFF00FFFFFFFFFFFFFFFFFFFFFFFFFFFFFFFFFFFFFFFFFFFFFFFFFFFFFFFFFFFFFF00FFFFFFFFFFFFFFFFFFFFFFFFFFFFFFFFFFFFFFFFFFFFFFFFFFFFFFFFFF00FF00000000000000000000
310
0000000000000000000000000000000000000000FFFFFFFFFFFFFFFFFFFFFFFFFFFFFFFFFFFFFFFFFFFFFFFFFFFFFFFFFFFFFFFFFFFFFFFFFFFFFFFFFFFFFFFFFFFFFFFFFFFFFFFFFFFFFFFFFFFFFFFFFFFFFFFFFFFFFFFFFFFFFFFFFFFFFFFFFFFFFFFFFFFFFFFFFFFFFFFFFFFFFFFFFFFFFFFFFFFFFFFFFFFFFFFFFFFFFF
310
FFFFFFFFFFFFFFFFFFFFFFFFFFFFFFFFFFFFFFFFFFFFFFFFFFFFFFFFFFFFFFFFFFFFFFFFFFFFFFFFFFFFFFFFFFFFFFFFFFFFFFFFFFFFFFFFFFFFFFFFFFFFFFFFFFFFFFFFFFFFFFFFFFFFFFFFFFFFFFFFFFFFFFFFFFFFFFFFFFFFFFFFFFFFFFFFFFFFFFFFFFFFFFFFFFFFFFFFFFFFFFFFFFFFFFFFFFFFFFFFFFFFFFFFFFFFFF
310
FFFFFFFFFFFFFFFFFFFFFFFFFFFFFFFFFFFFFFFFFFFFFFFFFFFFFFFFFFFFFFFFFFFFFFFFFFFFFFFFFFFFFFFFFFFFFFFFFFFFFFFFFFFFFFFFFFFFFFFFFFFFFFFFFFFFFFFFFFFFFFFFFFFFFFFFFFFFFFFFFFFFFFFFFFFFFFFFFFFFFFFFFFFFFFFFFFFFFFFFFFFFFFFFFFFFFFFFFFFFFFFFFFFFFFFFFFFFFFFFFFFFFFFFFFFFFF
310
FFFFFFFFFFFFFFFFFFFFFFFFFFFFFFFFFFFFFFFFFFFFFFFFFFFFFFFFFFFFFFFFFFFFFFFFFFFFFFFFFFFFFFFFFFFFFFFFFFFFFFFFFFFFFFFF
102
{BLKREFS
331
418
102
}
  0
BLOCK_RECORD
  5
3DC
330
1
100
AcDbSymbolTableRecord
100
AcDbBlockTableRecord
  2
AI9-BLK13
340
0
310
2800000020000000200000000100080000000000000400000000000000000000000000000000000000000000000080000080000000808000800000008000800080800000C0C0C000C0DCC000F0CAA6000020400000206000002080000020A0000020C0000020E00000400000004020000040400000406000004080000040A0
310
000040C0000040E00000600000006020000060400000606000006080000060A0000060C0000060E00000800000008020000080400000806000008080000080A0000080C0000080E00000A0000000A0200000A0400000A0600000A0800000A0A00000A0C00000A0E00000C0000000C0200000C0400000C0600000C0800000C0
310
A00000C0C00000C0E00000E0000000E0200000E0400000E0600000E0800000E0A00000E0C00000E0E00040000000400020004000400040006000400080004000A0004000C0004000E00040200000402020004020400040206000402080004020A0004020C0004020E000404000004040200040404000404060004040800040
310
40A0004040C0004040E00040600000406020004060400040606000406080004060A0004060C0004060E00040800000408020004080400040806000408080004080A0004080C0004080E00040A0000040A0200040A0400040A0600040A0800040A0A00040A0C00040A0E00040C0000040C0200040C0400040C0600040C08000
310
40C0A00040C0C00040C0E00040E0000040E0200040E0400040E0600040E0800040E0A00040E0C00040E0E00080000000800020008000400080006000800080008000A0008000C0008000E00080200000802020008020400080206000802080008020A0008020C0008020E00080400000804020008040400080406000804080
310
008040A0008040C0008040E00080600000806020008060400080606000806080008060A0008060C0008060E00080800000808020008080400080806000808080008080A0008080C0008080E00080A0000080A0200080A0400080A0600080A0800080A0A00080A0C00080A0E00080C0000080C0200080C0400080C0600080C0
310
800080C0A00080C0C00080C0E00080E0000080E0200080E0400080E0600080E0800080E0A00080E0C00080E0E000C0000000C0002000C0004000C0006000C0008000C000A000C000C000C000E000C0200000C0202000C0204000C0206000C0208000C020A000C020C000C020E000C0400000C0402000C0404000C0406000C0
310
408000C040A000C040C000C040E000C0600000C0602000C0604000C0606000C0608000C060A000C060C000C060E000C0800000C0802000C0804000C0806000C0808000C080A000C080C000C080E000C0A00000C0A02000C0A04000C0A06000C0A08000C0A0A000C0A0C000C0A0E000C0C00000C0C02000C0C04000C0C06000
310
C0C08000C0C0A000F0FBFF00A4A0A000808080000000FF0000FF000000FFFF00FF000000FF00FF00FFFF0000FFFFFF00FFFFFFFFFFFFFFFFFFFFFFFFFFFFFFFFFFFFFFFFFFFFFFFFFFFFFFFFFFFFFFFFFFFFFFFFFFFFFFFFFFFFFF0000FFFFFFFFFFFF0000FFFFFFFFFFFFFFFFFFFFFFFFFFFFFFFFFFFFFFFFFFFF0000FFFF
310
FFFFFFFF0000FFFFFFFFFFFFFFFFFFFFFFFFFFFFFFFFFFFFFFFFFFFF0000FFFFFFFFFFFF0000FFFFFFFFFFFFFFFFFFFFFFFFFFFFFFFFFFFFFFFFFFFF0000FFFFFFFFFFFF0000FFFFFFFFFFFFFFFFFFFFFFFFFFFFFFFFFFFFFFFFFFFF0000FFFFFFFFFFFF0000FFFFFFFFFFFFFFFFFFFFFFFFFFFFFFFFFFFFFFFFFFFF0000FF
310
FFFFFFFFFF0000FFFFFFFFFFFFFFFFFFFFFFFFFFFFFFFFFFFFFFFFFFFF0000FFFFFFFFFFFF0000FFFFFFFFFFFFFFFFFFFFFFFFFFFFFFFFFFFFFFFFFFFF0000FFFFFFFFFFFF0000FFFFFFFFFFFFFFFFFFFFFFFFFFFFFFFFFFFFFFFFFFFF0000FFFFFFFFFFFF0000FFFFFFFFFFFFFFFFFFFFFFFFFFFFFFFFFFFFFFFFFFFF0000
310
FFFFFFFFFFFF0000FFFFFFFFFFFFFFFFFFFFFFFFFFFFFFFFFFFFFFFFFFFF0000FFFFFFFFFFFF0000FFFFFFFFFFFFFFFFFFFFFFFFFFFFFFFFFFFFFFFFFFFF0000FFFFFFFFFFFF0000FFFFFFFFFFFFFFFFFFFFFFFFFFFFFFFFFFFFFFFFFFFF0000FFFFFFFFFFFF0000FFFFFFFFFFFFFFFFFFFFFFFFFFFFFFFFFFFFFFFFFFFF00
310
00FFFFFFFFFFFF0000FFFFFFFFFFFFFFFFFFFFFFFFFFFFFFFFFFFFFFFFFFFF00000000000000000000FFFFFFFFFFFFFFFFFFFFFFFFFFFFFFFFFFFFFFFFFFFF00FFFFFFFFFFFFFFFF00FFFFFFFFFFFFFFFFFFFFFFFFFFFFFFFFFFFFFFFFFFFF00FFFFFFFFFFFFFFFF00FFFFFFFFFFFFFFFFFFFFFFFFFFFFFFFFFFFFFFFFFFFF
310
00000000000000000000FFFFFFFFFFFFFFFFFFFFFFFFFFFFFFFFFFFFFFFFFFFF0000FFFFFFFFFFFF0000FFFFFFFFFFFFFFFFFFFFFFFFFFFFFFFFFFFFFFFFFFFF0000FFFFFFFFFFFF0000FFFFFFFFFFFFFFFFFFFFFFFFFFFFFFFFFFFFFFFFFFFF0000FFFFFFFFFFFF0000FFFFFFFFFFFFFFFFFFFFFFFFFFFFFFFFFFFFFFFFFF
310
FF0000FFFFFFFFFFFF0000FFFFFFFFFFFFFFFFFFFFFFFFFFFFFFFFFFFFFFFFFFFF0000FFFFFFFFFFFF0000FFFFFFFFFFFFFFFFFFFFFFFFFFFFFFFFFFFFFFFFFFFF0000FFFFFFFFFFFF0000FFFFFFFFFFFFFFFFFFFFFFFFFFFFFFFFFFFFFFFFFFFF0000FFFFFFFFFFFF0000FFFFFFFFFFFFFFFFFFFFFFFFFFFFFFFFFFFFFFFF
310
FFFF0000FFFFFFFFFFFF0000FFFFFFFFFFFFFFFFFFFFFFFFFFFFFFFFFFFFFFFFFFFF0000FFFFFFFFFFFF0000FFFFFFFFFFFFFFFFFFFFFFFFFFFFFFFFFFFFFFFFFFFF0000FFFFFFFFFFFF0000FFFFFFFFFFFFFFFFFFFFFFFFFFFFFFFFFFFFFFFFFFFF0000FFFFFFFFFFFF0000FFFFFFFFFFFFFFFFFFFFFFFFFFFFFFFFFFFFFF
310
FFFFFF0000FFFFFFFFFFFF0000FFFFFFFFFFFFFFFFFFFFFFFFFFFFFFFFFFFFFFFFFFFFFFFFFFFFFFFFFFFFFFFFFFFFFFFFFFFFFFFFFFFFFF
102
{BLKREFS
331
419
102
}
  0
BLOCK_RECORD
  5
3E1
330
1
100
AcDbSymbolTableRecord
100
AcDbBlockTableRecord
  2
AI9-BLK11
340
0
310
2800000020000000200000000100080000000000000400000000000000000000000000000000000000000000000080000080000000808000800000008000800080800000C0C0C000C0DCC000F0CAA6000020400000206000002080000020A0000020C0000020E00000400000004020000040400000406000004080000040A0
310
000040C0000040E00000600000006020000060400000606000006080000060A0000060C0000060E00000800000008020000080400000806000008080000080A0000080C0000080E00000A0000000A0200000A0400000A0600000A0800000A0A00000A0C00000A0E00000C0000000C0200000C0400000C0600000C0800000C0
310
A00000C0C00000C0E00000E0000000E0200000E0400000E0600000E0800000E0A00000E0C00000E0E00040000000400020004000400040006000400080004000A0004000C0004000E00040200000402020004020400040206000402080004020A0004020C0004020E000404000004040200040404000404060004040800040
310
40A0004040C0004040E00040600000406020004060400040606000406080004060A0004060C0004060E00040800000408020004080400040806000408080004080A0004080C0004080E00040A0000040A0200040A0400040A0600040A0800040A0A00040A0C00040A0E00040C0000040C0200040C0400040C0600040C08000
310
40C0A00040C0C00040C0E00040E0000040E0200040E0400040E0600040E0800040E0A00040E0C00040E0E00080000000800020008000400080006000800080008000A0008000C0008000E00080200000802020008020400080206000802080008020A0008020C0008020E00080400000804020008040400080406000804080
310
008040A0008040C0008040E00080600000806020008060400080606000806080008060A0008060C0008060E00080800000808020008080400080806000808080008080A0008080C0008080E00080A0000080A0200080A0400080A0600080A0800080A0A00080A0C00080A0E00080C0000080C0200080C0400080C0600080C0
310
800080C0A00080C0C00080C0E00080E0000080E0200080E0400080E0600080E0800080E0A00080E0C00080E0E000C0000000C0002000C0004000C0006000C0008000C000A000C000C000C000E000C0200000C0202000C0204000C0206000C0208000C020A000C020C000C020E000C0400000C0402000C0404000C0406000C0
310
408000C040A000C040C000C040E000C0600000C0602000C0604000C0606000C0608000C060A000C060C000C060E000C0800000C0802000C0804000C0806000C0808000C080A000C080C000C080E000C0A00000C0A02000C0A04000C0A06000C0A08000C0A0A000C0A0C000C0A0E000C0C00000C0C02000C0C04000C0C06000
310
C0C08000C0C0A000F0FBFF00A4A0A000808080000000FF0000FF000000FFFF00FF000000FF00FF00FFFF0000FFFFFF00FFFFFFFFFFFFFFFFFFFFFFFFFFFFFFFFFFFFFFFFFFFFFFFFFFFFFFFFFFFFFFFFFFFFFFFFFFFFFFFFFFFFFFFFFFFF00000000FFFFFFFFFFFFFFFFFFFFFF000000FFFFFFFFFFFFFFFFFFFFFFFFFFFF00
310
FFFF00FFFFFFFFFFFFFFFFFFFFFF00FFFFFFFFFFFFFFFFFFFFFFFFFFFFFFFF00FFFF00FFFFFFFFFFFFFFFFFFFFFF00FFFFFFFFFFFFFFFFFFFFFFFFFFFFFFFF00FFFF00FFFFFFFFFFFFFFFFFFFFFF00FFFFFFFFFFFFFFFFFFFFFFFFFFFFFFFF00FFFF00FFFFFFFFFFFFFFFFFFFFFF00FFFFFFFFFFFFFFFFFFFFFFFFFFFFFFFF
310
00FFFF00FFFFFFFFFFFFFFFFFFFFFF00FFFFFFFFFFFFFFFFFFFFFFFFFFFFFFFF00FFFF00FFFFFFFFFFFFFFFFFFFFFF00FFFFFFFFFFFFFFFFFFFFFFFFFFFFFFFF00FFFF00FFFFFFFFFFFFFFFFFFFFFF00FFFFFFFFFFFFFFFFFFFFFFFFFFFFFFFF00FFFF00FFFFFFFFFFFFFFFFFFFFFF00FFFFFFFFFFFFFFFFFFFFFFFFFFFFFF
310
FF00FFFF00FFFFFFFFFFFFFFFFFFFFFF00FFFFFFFFFFFFFFFFFFFFFFFFFFFFFFFF00FFFF00FFFFFFFFFFFFFFFFFFFFFF00FFFFFFFFFFFFFFFFFFFFFFFFFFFFFFFF00FFFF00FFFFFFFFFFFFFFFFFFFFFF00FFFFFFFFFFFFFFFFFFFFFFFFFFFFFFFF00FFFF00FFFFFFFFFFFFFFFFFFFFFF00FFFFFFFFFFFFFFFFFFFFFFFFFFFF
310
FFFF00FFFF00FFFFFFFFFFFFFFFFFFFFFF00FFFFFFFFFFFFFFFFFFFFFFFFFFFFFFFF00FFFF00FFFFFFFFFFFFFFFFFFFFFF00FFFFFFFFFFFFFFFFFFFFFFFFFFFFFFFF00FFFF00FFFFFFFFFFFFFFFFFFFFFF00FFFFFFFFFFFFFFFFFFFFFFFFFFFFFFFF00FFFF00FFFFFFFFFFFFFFFFFFFF00FFFFFFFFFFFFFFFFFFFFFFFFFFFF
310
FFFFFF00FFFF00FFFFFFFFFFFFFFFFFFFF00FFFFFFFFFFFFFFFFFFFFFFFFFFFFFFFFFF00FFFF00FFFFFFFFFFFFFFFFFFFF00FFFFFFFFFFFFFFFFFFFFFFFFFFFFFFFFFF00FFFF00FFFFFFFFFFFFFFFFFFFF00FFFFFFFFFFFFFFFFFFFFFFFFFFFFFFFFFF00FFFF00FFFFFFFFFFFFFFFFFFFF00FFFFFFFFFFFFFFFFFFFFFFFFFF
310
FFFFFFFF00FFFF00FFFFFFFFFFFFFFFFFF0000FFFF00FFFFFFFFFFFFFFFFFFFFFFFFFFFF00FFFF00FFFFFFFFFFFFFFFF0000FFFFFF00FFFFFFFFFFFFFFFFFFFFFFFFFFFF00FFFF00000000000000000000FFFFFFFF00FFFFFFFFFFFFFFFFFFFFFFFFFFFF00FFFFFFFFFFFFFFFFFFFFFFFFFFFFFF00FFFFFFFFFFFFFFFFFFFF
310
FFFFFFFFFF00FFFFFFFFFFFFFFFFFFFFFFFFFFFF00FFFFFFFFFFFFFFFFFFFFFFFFFFFFFFFF00FFFFFFFFFFFFFFFFFFFFFFFFFFFF00FFFFFFFFFFFFFFFFFFFFFFFFFFFFFFFF00FFFFFFFFFFFFFFFFFFFFFFFFFFFFFF00FFFFFFFFFFFFFFFFFFFFFFFFFFFFFF00FFFFFFFFFFFFFFFFFFFFFFFFFFFFFF00FFFFFFFFFFFFFFFFFF
310
FFFFFFFFFFFF00FFFF00000000000000000000FFFFFFFF00FFFFFFFFFFFFFFFFFFFFFFFFFFFF00FFFF00FFFFFFFFFFFFFFFFFF0000FFFF00
102
{BLKREFS
331
41A
102
}
  0
BLOCK_RECORD
  5
3E6
330
1
100
AcDbSymbolTableRecord
100
AcDbBlockTableRecord
  2
AI9-BLK10
340
0
310
2800000020000000200000000100080000000000000400000000000000000000000000000000000000000000000080000080000000808000800000008000800080800000C0C0C000C0DCC000F0CAA6000020400000206000002080000020A0000020C0000020E00000400000004020000040400000406000004080000040A0
310
000040C0000040E00000600000006020000060400000606000006080000060A0000060C0000060E00000800000008020000080400000806000008080000080A0000080C0000080E00000A0000000A0200000A0400000A0600000A0800000A0A00000A0C00000A0E00000C0000000C0200000C0400000C0600000C0800000C0
310
A00000C0C00000C0E00000E0000000E0200000E0400000E0600000E0800000E0A00000E0C00000E0E00040000000400020004000400040006000400080004000A0004000C0004000E00040200000402020004020400040206000402080004020A0004020C0004020E000404000004040200040404000404060004040800040
310
40A0004040C0004040E00040600000406020004060400040606000406080004060A0004060C0004060E00040800000408020004080400040806000408080004080A0004080C0004080E00040A0000040A0200040A0400040A0600040A0800040A0A00040A0C00040A0E00040C0000040C0200040C0400040C0600040C08000
310
40C0A00040C0C00040C0E00040E0000040E0200040E0400040E0600040E0800040E0A00040E0C00040E0E00080000000800020008000400080006000800080008000A0008000C0008000E00080200000802020008020400080206000802080008020A0008020C0008020E00080400000804020008040400080406000804080
310
008040A0008040C0008040E00080600000806020008060400080606000806080008060A0008060C0008060E00080800000808020008080400080806000808080008080A0008080C0008080E00080A0000080A0200080A0400080A0600080A0800080A0A00080A0C00080A0E00080C0000080C0200080C0400080C0600080C0
310
800080C0A00080C0C00080C0E00080E0000080E0200080E0400080E0600080E0800080E0A00080E0C00080E0E000C0000000C0002000C0004000C0006000C0008000C000A000C000C000C000E000C0200000C0202000C0204000C0206000C0208000C020A000C020C000C020E000C0400000C0402000C0404000C0406000C0
310
408000C040A000C040C000C040E000C0600000C0602000C0604000C0606000C0608000C060A000C060C000C060E000C0800000C0802000C0804000C0806000C0808000C080A000C080C000C080E000C0A00000C0A02000C0A04000C0A06000C0A08000C0A0A000C0A0C000C0A0E000C0C00000C0C02000C0C04000C0C06000
310
C0C08000C0C0A000F0FBFF00A4A0A000808080000000FF0000FF000000FFFF00FF000000FF00FF00FFFF0000FFFFFF00FFFFFFFFFFFFFFFFFFFFFFFFFFFFFFFF00FFFFFFFFFFFFFFFFFFFFFFFF00FFFFFFFFFFFFFFFFFFFFFFFFFFFFFFFFFFFF00FFFFFFFFFFFFFFFFFFFFFF00FFFFFFFFFFFFFFFFFFFFFFFFFFFFFFFFFFFF
310
FF00FFFFFFFFFFFFFFFFFFFFFF00FFFFFFFFFFFFFFFFFFFFFFFFFFFFFFFFFFFFFF00FFFFFFFFFFFFFFFFFFFFFF00FFFFFFFFFFFFFFFFFFFFFFFFFFFFFFFFFFFFFF00FFFFFFFFFFFFFFFFFFFFFF00FFFFFFFFFFFFFFFFFFFFFFFFFFFFFFFFFFFFFF00FFFFFFFFFFFFFFFFFFFFFF00FFFFFFFFFFFFFFFFFFFFFFFFFFFFFFFFFF
310
FFFF00FFFFFFFFFFFFFFFFFFFFFF00FFFFFFFFFFFFFFFFFFFFFFFFFFFFFFFFFFFFFF00FFFFFFFFFFFFFFFFFFFF00FFFFFFFFFFFFFFFFFFFFFFFFFFFFFFFFFFFFFFFF00FFFFFFFFFFFFFFFFFFFF00FFFFFFFFFFFFFFFFFFFFFFFFFFFFFFFFFFFFFFFF00FFFFFFFFFFFFFFFFFFFF00FFFFFFFFFFFFFFFFFFFFFFFFFFFFFFFFFF
310
FFFFFF00FFFFFFFFFFFFFFFFFFFF00FFFFFFFFFFFFFFFFFFFFFFFFFFFFFFFFFFFFFFFF00FFFFFFFFFFFFFFFFFFFF00FFFFFFFFFFFFFFFFFFFFFFFFFFFFFFFFFFFFFFFF00FFFFFFFFFFFFFFFFFFFF00FFFFFFFFFFFFFFFFFFFFFFFFFFFFFFFFFFFFFFFF00FFFFFFFFFFFFFFFFFF00FFFFFFFFFFFFFFFFFFFFFFFFFFFFFFFFFF
310
FFFFFFFF00FFFFFFFFFFFFFFFFFF00FFFFFFFFFFFFFFFFFFFFFFFFFFFFFFFFFFFFFFFFFF00FFFFFFFFFFFFFFFFFF00FFFFFFFFFFFFFFFFFFFFFFFFFFFFFFFFFFFFFFFFFF0000000000000000000000FFFFFFFFFFFFFFFFFFFFFFFFFFFFFFFFFFFFFFFFFFFFFFFFFFFFFFFFFFFFFFFFFFFFFFFFFFFFFFFFFFFFFFFFFFFFFFFF
310
FFFFFFFFFFFFFFFFFFFFFFFFFFFFFFFFFFFFFFFFFFFFFFFFFFFFFFFFFFFFFFFFFFFFFFFFFFFFFFFFFFFFFFFFFFFFFFFFFFFFFFFFFFFFFFFFFFFFFFFFFFFFFFFFFFFFFFFFFFFFFFFFFFFFFFFFFFFFFFFFFFFFFFFFFFFFFFFFFFFFFFFFFFFFFFFFFFFFFFFFFFFFFFFFFFFFFFFFFFFFFFFFFFFFFFFFFFFFFFFFFFFFFFFFFFFFFF
310
FFFFFFFFFFFFFFFFFFFFFFFFFFFFFFFFFFFFFFFFFFFFFFFFFFFFFFFFFFFFFFFFFFFFFFFFFFFFFFFFFFFFFFFFFFFFFFFFFFFFFFFFFFFFFFFFFFFFFFFFFFFFFFFFFFFFFFFFFFFFFFFFFFFFFFFFFFFFFFFFFFFFFFFFFFFFFFFFFFFFFFFFFFFFFFFFFFFFFFFFFFFFFFFFFFFFFFFFFFFFFFFFFFFFFFFFFFFFFFFFFFFFFFFFFFFFFF
310
FFFFFFFFFFFFFFFFFFFFFFFFFFFFFFFFFFFFFFFFFFFFFFFFFFFFFFFFFFFFFFFFFFFFFFFFFFFFFFFFFFFFFFFFFFFFFFFFFFFFFFFFFFFFFFFFFFFFFFFFFFFFFFFFFFFFFFFFFFFFFFFFFFFFFFFFFFFFFFFFFFFFFFFFFFFFFFFFFFFFFFFFFFFFFFFFFFFFFFFFFFFFFFFFFFFFFFFFFFFFFFFFFFFFFFFFFFFFFFFFFFFFFFFFFFFFFF
310
FFFFFFFFFFFFFFFFFFFFFFFFFFFFFFFFFFFFFFFFFFFFFFFFFFFFFFFFFFFFFFFFFFFFFFFFFFFFFFFFFFFFFFFFFFFFFFFFFFFFFFFFFFFFFFFF
102
{BLKREFS
331
41B
102
}
  0
BLOCK_RECORD
  5
3EA
330
1
100
AcDbSymbolTableRecord
100
AcDbBlockTableRecord
  2
AI9-BLK9
340
0
310
2800000020000000200000000100080000000000000400000000000000000000000000000000000000000000000080000080000000808000800000008000800080800000C0C0C000C0DCC000F0CAA6000020400000206000002080000020A0000020C0000020E00000400000004020000040400000406000004080000040A0
310
000040C0000040E00000600000006020000060400000606000006080000060A0000060C0000060E00000800000008020000080400000806000008080000080A0000080C0000080E00000A0000000A0200000A0400000A0600000A0800000A0A00000A0C00000A0E00000C0000000C0200000C0400000C0600000C0800000C0
310
A00000C0C00000C0E00000E0000000E0200000E0400000E0600000E0800000E0A00000E0C00000E0E00040000000400020004000400040006000400080004000A0004000C0004000E00040200000402020004020400040206000402080004020A0004020C0004020E000404000004040200040404000404060004040800040
310
40A0004040C0004040E00040600000406020004060400040606000406080004060A0004060C0004060E00040800000408020004080400040806000408080004080A0004080C0004080E00040A0000040A0200040A0400040A0600040A0800040A0A00040A0C00040A0E00040C0000040C0200040C0400040C0600040C08000
310
40C0A00040C0C00040C0E00040E0000040E0200040E0400040E0600040E0800040E0A00040E0C00040E0E00080000000800020008000400080006000800080008000A0008000C0008000E00080200000802020008020400080206000802080008020A0008020C0008020E00080400000804020008040400080406000804080
310
008040A0008040C0008040E00080600000806020008060400080606000806080008060A0008060C0008060E00080800000808020008080400080806000808080008080A0008080C0008080E00080A0000080A0200080A0400080A0600080A0800080A0A00080A0C00080A0E00080C0000080C0200080C0400080C0600080C0
310
800080C0A00080C0C00080C0E00080E0000080E0200080E0400080E0600080E0800080E0A00080E0C00080E0E000C0000000C0002000C0004000C0006000C0008000C000A000C000C000C000E000C0200000C0202000C0204000C0206000C0208000C020A000C020C000C020E000C0400000C0402000C0404000C0406000C0
310
408000C040A000C040C000C040E000C0600000C0602000C0604000C0606000C0608000C060A000C060C000C060E000C0800000C0802000C0804000C0806000C0808000C080A000C080C000C080E000C0A00000C0A02000C0A04000C0A06000C0A08000C0A0A000C0A0C000C0A0E000C0C00000C0C02000C0C04000C0C06000
310
C0C08000C0C0A000F0FBFF00A4A0A000808080000000FF0000FF000000FFFF00FF000000FF00FF00FFFF0000FFFFFF00FFFFFFFFFFFFFFFFFFFFFFFFFFFFFFFFFFFFFFFFFFFFFFFFFFFFFFFFFFFFFFFFFFFFFFFFFFFFFFFFFFFFFFFFFFFFFF0000FFFFFFFFFFFFFFFFFFFFFFFFFFFFFFFFFFFFFFFFFFFFFFFFFFFFFFFF0000
310
FF0000FFFFFFFFFFFFFFFFFFFFFFFFFFFFFFFFFFFFFFFFFFFFFFFFFFFFFF00FFFFFF0000FFFFFFFFFFFFFFFFFFFFFFFFFFFFFFFFFFFFFFFFFFFFFFFFFFFF00FFFFFFFF0000FFFFFFFFFFFFFFFFFFFFFFFFFFFFFFFFFFFFFFFFFFFFFFFF00FF00000000FF00FFFFFFFFFFFFFFFFFFFFFFFFFFFFFFFFFFFFFFFFFFFFFFFF0000
310
00FFFF00FF00FFFFFFFFFFFFFFFFFFFFFFFFFFFFFFFFFFFFFFFFFFFFFFFF0000FFFFFFFF0000FFFFFFFFFFFFFFFFFFFFFFFFFFFFFFFFFFFFFFFFFFFFFFFF0000FFFFFFFF0000FFFFFFFFFFFFFFFFFFFFFFFFFFFFFFFFFFFFFFFFFFFFFF00FF00FFFFFFFF00FF00FFFFFFFFFFFFFFFFFFFFFFFFFFFFFFFFFFFFFFFFFFFF0000
310
FFFFFFFFFF00FF00FFFFFFFFFFFFFFFFFFFFFFFFFFFFFFFFFFFFFFFFFFFF0000FFFFFFFFFFFF0000FFFFFFFFFFFFFFFFFFFFFFFFFFFFFFFFFFFFFFFFFFFF0000FFFFFFFFFFFF0000FFFFFFFFFFFFFFFFFFFFFFFFFFFFFFFFFFFFFFFFFFFF0000FFFFFFFFFFFF0000FFFFFFFFFFFFFFFFFFFFFFFFFFFFFFFFFFFFFFFFFFFF00
310
00FFFFFFFFFFFF0000FFFFFFFFFFFFFFFFFFFFFFFFFFFFFFFFFFFFFFFFFFFF0000FFFFFFFFFFFF0000FFFFFFFFFFFFFFFFFFFFFFFFFFFFFFFFFFFFFFFFFFFF0000FFFFFFFFFFFF0000FFFFFFFFFFFFFFFFFFFFFFFFFFFFFFFFFFFFFFFFFFFF0000FFFFFFFFFFFF0000FFFFFFFFFFFFFFFFFFFFFFFFFFFFFFFFFFFFFFFFFFFF
310
0000FFFFFFFFFFFF0000FFFFFFFFFFFFFFFFFFFFFFFFFFFFFFFFFFFFFFFFFFFF0000FFFFFFFFFFFF0000FFFFFFFFFFFFFFFFFFFFFFFFFFFFFFFFFFFFFFFFFFFF0000FFFFFFFFFFFF0000FFFFFFFFFFFFFFFFFFFFFFFFFFFFFFFFFFFFFFFFFFFF00FF00FFFFFFFF00FF00FFFFFFFFFFFFFFFFFFFFFFFFFFFFFFFFFFFFFFFFFF
310
FF00FF00FFFFFFFF00FF00FFFFFFFFFFFFFFFFFFFFFFFFFFFFFFFFFFFFFFFFFFFF00FF00FFFFFFFF00FF00FFFFFFFFFFFFFFFFFFFFFFFFFFFFFFFFFFFFFFFFFFFFFF0000FFFFFFFF0000FFFFFFFFFFFFFFFFFFFFFFFFFFFFFFFFFFFFFFFFFFFFFFFF00FF00FFFF00FF00FFFFFFFFFFFFFFFFFFFFFFFFFFFFFFFFFFFFFFFFFF
310
FFFFFF00FF00000000FF00FFFFFFFFFFFFFFFFFFFFFFFFFFFFFFFFFFFFFFFFFFFFFFFFFF00FFFFFFFF0000FFFFFFFFFFFFFFFFFFFFFFFFFFFFFFFFFFFFFFFFFFFFFFFFFF00FFFFFFFF00FFFFFFFFFFFFFFFFFFFFFFFFFFFFFFFFFFFFFFFFFFFFFFFFFFFFFF00000000FFFFFFFFFFFFFFFFFFFFFFFFFFFFFFFFFFFFFFFFFFFF
310
FFFFFFFFFFFFFF0000FFFFFFFFFFFFFFFFFFFFFFFFFFFFFFFFFFFFFFFFFFFFFFFFFFFFFFFFFFFFFFFFFFFFFFFFFFFFFFFFFFFFFFFFFFFFFF
102
{BLKREFS
331
41C
102
}
  0
BLOCK_RECORD
  5
3EF
330
1
100
AcDbSymbolTableRecord
100
AcDbBlockTableRecord
  2
AI9-BLK8
340
0
310
2800000020000000200000000100080000000000000400000000000000000000000000000000000000000000000080000080000000808000800000008000800080800000C0C0C000C0DCC000F0CAA6000020400000206000002080000020A0000020C0000020E00000400000004020000040400000406000004080000040A0
310
000040C0000040E00000600000006020000060400000606000006080000060A0000060C0000060E00000800000008020000080400000806000008080000080A0000080C0000080E00000A0000000A0200000A0400000A0600000A0800000A0A00000A0C00000A0E00000C0000000C0200000C0400000C0600000C0800000C0
310
A00000C0C00000C0E00000E0000000E0200000E0400000E0600000E0800000E0A00000E0C00000E0E00040000000400020004000400040006000400080004000A0004000C0004000E00040200000402020004020400040206000402080004020A0004020C0004020E000404000004040200040404000404060004040800040
310
40A0004040C0004040E00040600000406020004060400040606000406080004060A0004060C0004060E00040800000408020004080400040806000408080004080A0004080C0004080E00040A0000040A0200040A0400040A0600040A0800040A0A00040A0C00040A0E00040C0000040C0200040C0400040C0600040C08000
310
40C0A00040C0C00040C0E00040E0000040E0200040E0400040E0600040E0800040E0A00040E0C00040E0E00080000000800020008000400080006000800080008000A0008000C0008000E00080200000802020008020400080206000802080008020A0008020C0008020E00080400000804020008040400080406000804080
310
008040A0008040C0008040E00080600000806020008060400080606000806080008060A0008060C0008060E00080800000808020008080400080806000808080008080A0008080C0008080E00080A0000080A0200080A0400080A0600080A0800080A0A00080A0C00080A0E00080C0000080C0200080C0400080C0600080C0
310
800080C0A00080C0C00080C0E00080E0000080E0200080E0400080E0600080E0800080E0A00080E0C00080E0E000C0000000C0002000C0004000C0006000C0008000C000A000C000C000C000E000C0200000C0202000C0204000C0206000C0208000C020A000C020C000C020E000C0400000C0402000C0404000C0406000C0
310
408000C040A000C040C000C040E000C0600000C0602000C0604000C0606000C0608000C060A000C060C000C060E000C0800000C0802000C0804000C0806000C0808000C080A000C080C000C080E000C0A00000C0A02000C0A04000C0A06000C0A08000C0A0A000C0A0C000C0A0E000C0C00000C0C02000C0C04000C0C06000
310
C0C08000C0C0A000F0FBFF00A4A0A000808080000000FF0000FF000000FFFF00FF000000FF00FF00FFFF0000FFFFFF00FFFFFFFFFFFFFFFFFFFFFFFFFFFFFFFFFFFFFFFFFFFFFFFFFFFFFFFFFFFFFFFFFFFFFFFFFFFFFFFFFFFFFF0000FFFFFFFFFFFF0000FFFFFFFFFFFFFFFFFFFFFFFFFFFFFFFFFFFFFFFFFFFF0000FFFF
310
FFFFFFFF0000FFFFFFFFFFFFFFFFFFFFFFFFFFFFFFFFFFFFFFFFFFFF0000FFFFFFFFFF00FF00FFFFFFFFFFFFFFFFFFFFFFFFFFFFFFFFFFFFFFFFFFFF0000FFFFFFFFFF00FF00FFFFFFFFFFFFFFFFFFFFFFFFFFFFFFFFFFFFFFFFFFFF0000FFFFFFFFFF00FF00FFFFFFFFFFFFFFFFFFFFFFFFFFFFFFFFFFFFFFFFFFFF0000FF
310
FFFFFF00FFFF00FFFFFFFFFFFFFFFFFFFFFFFFFFFFFFFFFFFFFFFFFFFF0000FFFFFFFF00FF0000FFFFFFFFFFFFFFFFFFFFFFFFFFFFFFFFFFFFFFFFFFFF0000FFFFFFFF00FF0000FFFFFFFFFFFFFFFFFFFFFFFFFFFFFFFFFFFFFFFFFFFF0000FFFFFFFF00000000FFFFFFFFFFFFFFFFFFFFFFFFFFFFFFFFFFFFFFFFFFFF0000
310
FFFFFF00FF000000FFFFFFFFFFFFFFFFFFFFFFFFFFFFFFFFFFFFFFFFFFFF0000FFFFFF00FF000000FFFFFFFFFFFFFFFFFFFFFFFFFFFFFFFFFFFFFFFFFFFF0000FFFFFF00FF000000FFFFFFFFFFFFFFFFFFFFFFFFFFFFFFFFFFFFFFFFFFFF0000FFFF00FF00FF0000FFFFFFFFFFFFFFFFFFFFFFFFFFFFFFFFFFFFFFFFFFFF00
310
00FFFF00FF00FF0000FFFFFFFFFFFFFFFFFFFFFFFFFFFFFFFFFFFFFFFFFFFF0000FFFF00FF00FF0000FFFFFFFFFFFFFFFFFFFFFFFFFFFFFFFFFFFFFFFFFFFF0000FF00FFFF00FF0000FFFFFFFFFFFFFFFFFFFFFFFFFFFFFFFFFFFFFFFFFFFF0000FF00FF00FFFF0000FFFFFFFFFFFFFFFFFFFFFFFFFFFFFFFFFFFFFFFFFFFF
310
0000FF00FF00FFFF0000FFFFFFFFFFFFFFFFFFFFFFFFFFFFFFFFFFFFFFFFFFFF0000FF00FF00FFFF0000FFFFFFFFFFFFFFFFFFFFFFFFFFFFFFFFFFFFFFFFFFFF000000FFFF00FFFF0000FFFFFFFFFFFFFFFFFFFFFFFFFFFFFFFFFFFFFFFFFFFF000000FF00FFFFFF0000FFFFFFFFFFFFFFFFFFFFFFFFFFFFFFFFFFFFFFFFFF
310
FF000000FF00FFFFFF0000FFFFFFFFFFFFFFFFFFFFFFFFFFFFFFFFFFFFFFFFFFFF0000FFFF00FFFFFF0000FFFFFFFFFFFFFFFFFFFFFFFFFFFFFFFFFFFFFFFFFFFF0000FFFF00FFFFFF0000FFFFFFFFFFFFFFFFFFFFFFFFFFFFFFFFFFFFFFFFFFFF00FFFF00FFFFFFFF0000FFFFFFFFFFFFFFFFFFFFFFFFFFFFFFFFFFFFFFFF
310
FFFF00FFFF00FFFFFFFF0000FFFFFFFFFFFFFFFFFFFFFFFFFFFFFFFFFFFFFFFFFFFF00FFFF00FFFFFFFF0000FFFFFFFFFFFFFFFFFFFFFFFFFFFFFFFFFFFFFFFFFFFF00FFFF00FFFFFFFF0000FFFFFFFFFFFFFFFFFFFFFFFFFFFFFFFFFFFFFFFFFFFF00FF00FFFFFFFFFF0000FFFFFFFFFFFFFFFFFFFFFFFFFFFFFFFFFFFFFF
310
FFFFFF000000FFFFFFFFFF0000FFFFFFFFFFFFFFFFFFFFFFFFFFFFFFFFFFFFFFFFFFFFFFFFFFFFFFFFFFFFFFFFFFFFFFFFFFFFFFFFFFFFFF
102
{BLKREFS
331
41D
102
}
  0
BLOCK_RECORD
  5
3F4
330
1
100
AcDbSymbolTableRecord
100
AcDbBlockTableRecord
  2
AI9-BLK7
340
0
310
2800000020000000200000000100080000000000000400000000000000000000000000000000000000000000000080000080000000808000800000008000800080800000C0C0C000C0DCC000F0CAA6000020400000206000002080000020A0000020C0000020E00000400000004020000040400000406000004080000040A0
310
000040C0000040E00000600000006020000060400000606000006080000060A0000060C0000060E00000800000008020000080400000806000008080000080A0000080C0000080E00000A0000000A0200000A0400000A0600000A0800000A0A00000A0C00000A0E00000C0000000C0200000C0400000C0600000C0800000C0
310
A00000C0C00000C0E00000E0000000E0200000E0400000E0600000E0800000E0A00000E0C00000E0E00040000000400020004000400040006000400080004000A0004000C0004000E00040200000402020004020400040206000402080004020A0004020C0004020E000404000004040200040404000404060004040800040
310
40A0004040C0004040E00040600000406020004060400040606000406080004060A0004060C0004060E00040800000408020004080400040806000408080004080A0004080C0004080E00040A0000040A0200040A0400040A0600040A0800040A0A00040A0C00040A0E00040C0000040C0200040C0400040C0600040C08000
310
40C0A00040C0C00040C0E00040E0000040E0200040E0400040E0600040E0800040E0A00040E0C00040E0E00080000000800020008000400080006000800080008000A0008000C0008000E00080200000802020008020400080206000802080008020A0008020C0008020E00080400000804020008040400080406000804080
310
008040A0008040C0008040E00080600000806020008060400080606000806080008060A0008060C0008060E00080800000808020008080400080806000808080008080A0008080C0008080E00080A0000080A0200080A0400080A0600080A0800080A0A00080A0C00080A0E00080C0000080C0200080C0400080C0600080C0
310
800080C0A00080C0C00080C0E00080E0000080E0200080E0400080E0600080E0800080E0A00080E0C00080E0E000C0000000C0002000C0004000C0006000C0008000C000A000C000C000C000E000C0200000C0202000C0204000C0206000C0208000C020A000C020C000C020E000C0400000C0402000C0404000C0406000C0
310
408000C040A000C040C000C040E000C0600000C0602000C0604000C0606000C0608000C060A000C060C000C060E000C0800000C0802000C0804000C0806000C0808000C080A000C080C000C080E000C0A00000C0A02000C0A04000C0A06000C0A08000C0A0A000C0A0C000C0A0E000C0C00000C0C02000C0C04000C0C06000
310
C0C08000C0C0A000F0FBFF00A4A0A000808080000000FF0000FF000000FFFF00FF000000FF00FF00FFFF0000FFFFFF00FFFFFFFFFFFFFFFFFFFFFFFFFFFFFFFFFFFFFFFFFFFFFFFFFFFFFFFFFFFFFFFFFFFFFFFFFFFFFFFFFFFFFFFFFFFFFF0000FFFFFFFFFFFFFFFFFFFFFFFFFFFFFFFFFFFFFFFFFFFFFFFFFFFFFFFFFFFF
310
0000FFFFFFFFFFFFFFFFFFFFFFFFFFFFFFFFFFFFFFFFFFFFFFFFFFFFFFFFFFFF0000FFFFFFFFFFFFFFFFFFFFFFFFFFFFFFFFFFFFFFFFFFFFFFFFFFFFFFFFFFFF0000FFFFFFFFFFFFFFFFFFFFFFFFFFFFFFFFFFFFFFFFFFFFFFFFFFFFFFFFFFFF0000FFFFFFFFFFFFFFFFFFFFFFFFFFFFFFFFFFFFFFFFFFFFFFFFFFFFFFFFFF
310
FF0000FFFFFFFFFFFFFFFFFFFFFFFFFFFFFFFFFFFFFFFFFFFFFFFFFFFFFFFFFFFF0000FFFFFFFFFFFFFFFFFFFFFFFFFFFFFFFFFFFFFFFFFFFFFFFFFFFFFFFFFFFF0000FFFFFFFFFFFFFFFFFFFFFFFFFFFFFFFFFFFFFFFFFFFFFFFFFFFFFFFFFFFF0000FFFFFFFFFFFFFFFFFFFFFFFFFFFFFFFFFFFFFFFFFFFFFFFFFFFFFFFF
310
FFFF0000FFFFFFFFFFFFFFFFFFFFFFFFFFFFFFFFFFFFFFFFFFFFFFFFFFFFFFFFFFFF0000FFFFFFFFFFFFFFFFFFFFFFFFFFFFFFFFFFFFFFFFFFFFFFFFFFFFFFFFFFFF0000FFFFFFFFFFFFFFFFFFFFFFFFFFFFFFFFFFFFFFFFFFFFFFFFFFFFFFFFFFFF0000FFFFFFFFFFFFFFFFFFFFFFFFFFFFFFFFFFFFFFFFFFFFFFFFFFFFFF
310
FFFFFF0000FFFFFFFFFFFFFFFFFFFFFFFFFFFFFFFFFFFFFFFFFFFFFFFFFFFFFFFFFFFF0000FFFFFFFFFFFFFFFFFFFFFFFFFFFFFFFFFFFFFFFFFFFFFFFFFFFFFFFFFFFF0000FFFFFFFFFFFFFFFFFFFFFFFFFFFFFFFFFFFFFFFFFFFFFFFFFFFFFFFFFFFF0000FFFFFFFFFFFFFFFFFFFFFFFFFFFFFFFFFFFFFFFFFFFFFFFFFFFF
310
FFFFFFFF0000FFFFFFFFFFFFFFFFFFFFFFFFFFFFFFFFFFFFFFFFFFFFFFFFFFFFFFFFFFFF0000FFFFFFFFFFFFFFFFFFFFFFFFFFFFFFFFFFFFFFFFFFFFFFFFFFFFFFFFFFFF0000FFFFFFFFFFFFFFFFFFFFFFFFFFFFFFFFFFFFFFFFFFFFFFFFFFFFFFFFFFFF0000FFFFFFFFFFFFFFFFFFFFFFFFFFFFFFFFFFFFFFFFFFFFFFFFFF
310
FFFFFFFFFF0000FFFFFFFFFFFFFFFFFFFFFFFFFFFFFFFFFFFFFFFFFFFFFFFFFFFFFFFFFFFF0000FFFFFFFFFFFFFFFFFFFFFFFFFFFFFFFFFFFFFFFFFFFFFFFFFFFFFFFFFFFF0000FFFFFFFFFFFFFFFFFFFFFFFFFFFFFFFFFFFFFFFFFFFFFFFFFFFFFFFFFFFF0000FFFFFFFFFFFFFFFFFFFFFFFFFFFFFFFFFFFFFFFFFFFFFFFF
310
FFFFFFFFFFFF0000FFFFFFFFFFFFFFFFFFFFFFFFFFFFFFFFFFFFFFFFFFFFFFFFFFFFFFFFFFFF0000FFFFFFFFFFFFFFFFFFFFFFFFFFFFFFFFFFFFFFFFFFFFFFFFFFFFFFFFFFFF0000FFFFFFFFFFFFFFFFFFFFFFFFFFFFFFFFFFFFFFFFFFFFFFFFFFFFFFFFFFFF0000FFFFFFFFFFFFFFFFFFFFFFFFFFFFFFFFFFFFFFFFFFFFFF
310
FFFFFFFFFFFFFF0000FFFFFFFFFFFFFFFFFFFFFFFFFFFFFFFFFFFFFFFFFFFFFFFFFFFFFFFFFFFFFFFFFFFFFFFFFFFFFFFFFFFFFFFFFFFFFF
102
{BLKREFS
331
41E
102
}
  0
BLOCK_RECORD
  5
3F9
330
1
100
AcDbSymbolTableRecord
100
AcDbBlockTableRecord
  2
AI9-BLK6
340
0
310
2800000020000000200000000100080000000000000400000000000000000000000000000000000000000000000080000080000000808000800000008000800080800000C0C0C000C0DCC000F0CAA6000020400000206000002080000020A0000020C0000020E00000400000004020000040400000406000004080000040A0
310
000040C0000040E00000600000006020000060400000606000006080000060A0000060C0000060E00000800000008020000080400000806000008080000080A0000080C0000080E00000A0000000A0200000A0400000A0600000A0800000A0A00000A0C00000A0E00000C0000000C0200000C0400000C0600000C0800000C0
310
A00000C0C00000C0E00000E0000000E0200000E0400000E0600000E0800000E0A00000E0C00000E0E00040000000400020004000400040006000400080004000A0004000C0004000E00040200000402020004020400040206000402080004020A0004020C0004020E000404000004040200040404000404060004040800040
310
40A0004040C0004040E00040600000406020004060400040606000406080004060A0004060C0004060E00040800000408020004080400040806000408080004080A0004080C0004080E00040A0000040A0200040A0400040A0600040A0800040A0A00040A0C00040A0E00040C0000040C0200040C0400040C0600040C08000
310
40C0A00040C0C00040C0E00040E0000040E0200040E0400040E0600040E0800040E0A00040E0C00040E0E00080000000800020008000400080006000800080008000A0008000C0008000E00080200000802020008020400080206000802080008020A0008020C0008020E00080400000804020008040400080406000804080
310
008040A0008040C0008040E00080600000806020008060400080606000806080008060A0008060C0008060E00080800000808020008080400080806000808080008080A0008080C0008080E00080A0000080A0200080A0400080A0600080A0800080A0A00080A0C00080A0E00080C0000080C0200080C0400080C0600080C0
310
800080C0A00080C0C00080C0E00080E0000080E0200080E0400080E0600080E0800080E0A00080E0C00080E0E000C0000000C0002000C0004000C0006000C0008000C000A000C000C000C000E000C0200000C0202000C0204000C0206000C0208000C020A000C020C000C020E000C0400000C0402000C0404000C0406000C0
310
408000C040A000C040C000C040E000C0600000C0602000C0604000C0606000C0608000C060A000C060C000C060E000C0800000C0802000C0804000C0806000C0808000C080A000C080C000C080E000C0A00000C0A02000C0A04000C0A06000C0A08000C0A0A000C0A0C000C0A0E000C0C00000C0C02000C0C04000C0C06000
310
C0C08000C0C0A000F0FBFF00A4A0A000808080000000FF0000FF000000FFFF00FF000000FF00FF00FFFF0000FFFFFF00FFFFFFFFFFFFFFFFFFFFFFFF00FFFFFFFFFFFFFF00FFFFFFFFFFFFFFFFFFFFFFFFFFFFFFFFFFFFFFFFFFFFFF00FFFFFFFFFFFFFF00FFFFFFFFFFFFFFFFFFFFFFFFFFFFFFFFFFFFFFFFFFFFFF00FFFF
310
FFFFFFFFFF00FFFFFFFFFFFFFFFFFFFFFFFFFFFFFFFFFFFFFFFFFFFF00FFFFFFFFFFFFFFFF00FFFFFFFFFFFFFFFFFFFFFFFFFFFFFFFFFFFFFFFFFFFF00FFFFFFFFFFFFFF00FFFFFFFFFFFFFFFFFFFFFFFFFFFFFFFFFFFFFFFFFFFFFF00FFFFFFFFFFFFFF00FFFFFFFFFFFFFFFFFFFFFFFFFFFFFFFFFFFFFFFFFFFF00FFFFFF
310
FFFFFFFFFF00FFFFFFFFFFFFFFFFFFFFFFFFFFFFFFFFFFFFFFFFFFFF00FFFFFFFFFFFFFF00FFFFFFFFFFFFFFFFFFFFFFFFFFFFFFFFFFFFFFFFFFFF00FFFFFFFFFFFFFFFF00FFFFFFFFFFFFFFFFFFFFFFFFFFFFFFFFFFFFFFFFFF00FFFFFFFFFFFFFFFFFF00FFFFFFFFFFFFFFFFFFFFFFFFFFFFFFFFFFFFFFFF00FFFFFFFFFF
310
FFFFFFFFFF00FFFFFFFFFFFFFFFFFFFFFFFFFFFFFFFFFFFFFF00FFFFFFFFFFFFFFFFFFFF00FFFFFFFFFFFFFFFFFFFFFFFFFFFFFFFFFFFF0000FFFFFFFFFFFFFFFFFFFFFF00FFFFFFFFFFFFFFFFFFFFFFFFFFFF00000000FFFFFFFFFFFFFFFFFFFFFFFFFF00FFFFFFFFFFFFFFFFFFFFFFFFFFFFFFFFFFFFFFFFFFFFFFFFFFFF
310
FFFFFFFF00FFFFFFFFFFFFFFFFFFFFFFFFFFFFFFFFFFFFFFFFFFFFFFFFFFFFFFFFFFFFFF00FFFFFFFFFFFFFFFFFFFFFFFFFFFFFFFFFFFFFFFFFFFFFFFFFFFFFFFFFFFFFF00FFFFFFFFFFFFFFFFFFFFFFFFFFFFFFFFFFFFFFFFFFFFFFFFFFFFFFFFFFFF00FFFFFFFFFFFFFFFFFFFFFFFFFFFFFFFFFFFFFFFFFFFFFFFFFFFFFF
310
FFFFFFFF00FFFFFFFFFFFFFFFFFFFFFFFFFFFFFFFFFFFFFFFFFFFFFFFFFFFFFFFFFFFF00FFFFFFFFFFFFFFFFFFFFFFFFFFFFFFFFFFFFFFFFFFFFFFFFFFFFFFFFFFFF00FFFFFFFFFFFFFFFFFFFFFFFFFFFFFFFFFFFFFFFFFFFFFFFFFFFFFFFFFFFF00FFFFFFFFFFFFFFFFFFFFFFFFFFFFFFFFFFFFFFFFFFFFFFFFFFFFFFFFFF
310
FF00FFFFFFFFFFFFFFFFFFFFFFFFFFFFFFFFFFFFFFFFFFFFFFFFFFFFFFFFFFFFFF00FFFFFFFFFFFFFFFFFFFFFFFFFFFFFFFFFFFFFFFFFFFFFFFFFFFFFFFFFFFF00FFFFFFFFFFFFFFFFFFFFFFFFFFFFFFFFFFFFFFFFFFFFFFFFFFFFFFFFFF0000FFFFFFFFFFFFFFFFFFFFFFFFFFFFFFFFFFFFFFFFFFFFFFFFFFFFFFFF0000FF
310
FFFFFFFFFFFFFFFFFFFFFFFFFFFFFFFFFFFFFFFFFFFFFFFFFF00000000FFFFFFFFFFFFFFFFFFFFFFFFFFFFFFFFFFFFFFFFFFFFFFFFFFFF0000FFFFFFFFFFFFFFFFFFFFFFFFFFFFFFFFFFFFFFFFFFFFFFFFFFFFFFFFFFFFFFFFFFFFFFFFFFFFFFFFFFFFFFFFFFFFFFFFFFFFFFFFFFFFFFFFFFFFFFFFFFFFFFFFFFFFFFFFFFFF
310
FFFFFFFFFFFFFFFFFFFFFFFFFFFFFFFFFFFFFFFFFFFFFFFFFFFFFFFFFFFFFFFFFFFFFFFFFFFFFFFFFFFFFFFFFFFFFFFFFFFFFFFFFFFFFFFF
102
{BLKREFS
331
41F
102
}
  0
BLOCK_RECORD
  5
3FD
330
1
100
AcDbSymbolTableRecord
100
AcDbBlockTableRecord
  2
AI9-BLK5
340
0
310
2800000020000000200000000100080000000000000400000000000000000000000000000000000000000000000080000080000000808000800000008000800080800000C0C0C000C0DCC000F0CAA6000020400000206000002080000020A0000020C0000020E00000400000004020000040400000406000004080000040A0
310
000040C0000040E00000600000006020000060400000606000006080000060A0000060C0000060E00000800000008020000080400000806000008080000080A0000080C0000080E00000A0000000A0200000A0400000A0600000A0800000A0A00000A0C00000A0E00000C0000000C0200000C0400000C0600000C0800000C0
310
A00000C0C00000C0E00000E0000000E0200000E0400000E0600000E0800000E0A00000E0C00000E0E00040000000400020004000400040006000400080004000A0004000C0004000E00040200000402020004020400040206000402080004020A0004020C0004020E000404000004040200040404000404060004040800040
310
40A0004040C0004040E00040600000406020004060400040606000406080004060A0004060C0004060E00040800000408020004080400040806000408080004080A0004080C0004080E00040A0000040A0200040A0400040A0600040A0800040A0A00040A0C00040A0E00040C0000040C0200040C0400040C0600040C08000
310
40C0A00040C0C00040C0E00040E0000040E0200040E0400040E0600040E0800040E0A00040E0C00040E0E00080000000800020008000400080006000800080008000A0008000C0008000E00080200000802020008020400080206000802080008020A0008020C0008020E00080400000804020008040400080406000804080
310
008040A0008040C0008040E00080600000806020008060400080606000806080008060A0008060C0008060E00080800000808020008080400080806000808080008080A0008080C0008080E00080A0000080A0200080A0400080A0600080A0800080A0A00080A0C00080A0E00080C0000080C0200080C0400080C0600080C0
310
800080C0A00080C0C00080C0E00080E0000080E0200080E0400080E0600080E0800080E0A00080E0C00080E0E000C0000000C0002000C0004000C0006000C0008000C000A000C000C000C000E000C0200000C0202000C0204000C0206000C0208000C020A000C020C000C020E000C0400000C0402000C0404000C0406000C0
310
408000C040A000C040C000C040E000C0600000C0602000C0604000C0606000C0608000C060A000C060C000C060E000C0800000C0802000C0804000C0806000C0808000C080A000C080C000C080E000C0A00000C0A02000C0A04000C0A06000C0A08000C0A0A000C0A0C000C0A0E000C0C00000C0C02000C0C04000C0C06000
310
C0C08000C0C0A000F0FBFF00A4A0A000808080000000FF0000FF000000FFFF00FF000000FF00FF00FFFF0000FFFFFF00FFFFFFFFFFFFFFFFFFFFFFFFFFFFFFFFFFFFFFFFFFFFFFFFFFFFFFFFFFFFFFFFFFFFFFFFFFFFFFFF000000000000000000000000000000000000000000000000FFFFFFFFFFFFFFFF00FFFFFFFFFFFF
310
FFFFFFFFFFFFFFFFFFFFFFFFFFFFFFFFFFFFFFFFFFFFFFFFFF00FFFFFFFFFFFFFFFFFFFFFFFFFFFFFFFFFFFFFFFFFFFFFFFFFFFFFFFFFFFFFF00FFFFFFFFFFFFFFFFFFFFFFFFFFFFFFFFFFFFFFFFFFFFFFFFFFFFFFFFFFFFFF00FFFFFFFFFFFFFFFFFFFFFFFFFFFFFFFFFFFFFFFFFFFFFFFFFFFFFFFFFFFFFF00FFFFFFFFFF
310
FFFFFFFFFFFFFFFFFFFFFFFFFFFFFFFFFFFFFFFFFFFFFFFFFFFF00FFFFFFFFFFFFFFFFFFFFFFFFFFFFFFFFFFFFFFFFFFFFFFFFFFFFFFFFFFFFFF00FFFFFFFFFFFFFFFFFFFFFFFFFFFFFFFFFFFFFFFFFFFFFFFFFFFFFFFFFFFFFF00FFFFFFFFFFFFFFFFFFFFFFFFFFFFFFFFFFFFFFFFFFFFFFFFFFFFFFFFFFFFFF00FFFFFFFF
310
FFFFFFFFFFFFFFFFFFFFFFFFFFFFFFFFFFFFFFFFFFFFFFFFFFFFFF00FFFFFFFFFFFFFFFFFFFFFFFFFFFFFFFFFFFFFFFFFFFFFFFFFFFFFFFFFFFFFF00FFFFFFFFFFFFFFFFFFFFFFFFFFFFFFFFFFFFFFFFFFFFFFFFFFFFFFFFFFFFFF00FFFFFFFFFFFFFFFFFFFFFFFFFFFFFFFFFFFFFFFFFFFFFFFFFFFFFFFFFFFFFF00FFFFFF
310
FFFFFFFFFFFFFFFFFFFFFFFFFFFFFFFFFFFFFFFFFFFFFFFFFFFFFFFF00FFFFFFFFFFFFFFFFFFFFFFFFFFFFFFFFFFFFFFFFFFFFFFFFFFFFFFFFFFFFFF00FFFFFFFFFFFFFFFFFFFFFFFFFFFFFFFFFFFFFFFFFFFFFFFFFFFFFFFFFFFFFF00FFFFFFFFFFFFFFFFFFFFFFFFFFFFFFFFFFFFFFFFFFFFFFFFFFFFFFFFFFFFFF00FFFF
310
FFFFFFFFFFFFFFFFFFFFFFFFFFFFFFFFFFFFFFFFFFFFFFFFFFFFFFFFFF00FFFFFFFFFFFFFFFFFFFFFFFFFFFFFFFFFFFFFFFFFFFFFFFFFFFFFFFFFFFFFF00FFFFFFFFFFFFFFFFFFFFFFFFFFFFFFFFFFFFFFFFFFFFFFFFFFFFFFFFFFFFFF00FFFFFFFFFFFFFFFFFFFFFFFFFFFFFFFFFFFFFFFFFFFFFFFFFFFFFFFFFFFFFF00FF
310
FFFFFFFFFFFFFFFFFFFFFFFFFFFFFFFFFFFFFFFFFFFFFFFFFFFFFFFFFFFF00FFFFFFFFFFFFFFFFFFFFFFFFFFFFFFFFFFFFFFFFFFFFFFFFFFFFFFFFFFFFFF00FFFFFFFFFFFFFFFFFFFFFFFFFFFFFFFFFFFFFFFFFFFFFFFFFFFFFFFFFFFFFF00FFFFFFFFFFFFFFFFFFFFFFFFFFFFFFFFFFFFFFFFFFFFFFFFFFFFFFFFFFFFFF00
310
FFFFFFFFFFFFFFFFFFFFFFFFFFFFFFFFFFFFFFFFFFFFFFFFFFFFFFFFFFFFFF00FFFFFFFFFFFFFFFFFFFFFFFFFFFFFFFFFFFFFFFFFFFFFFFFFFFFFFFFFFFFFF00FFFFFFFFFFFFFFFFFFFFFFFFFFFFFFFFFFFFFFFFFFFFFFFFFFFFFFFFFFFFFF00FFFFFFFFFFFFFFFFFFFFFFFFFFFFFFFFFFFFFFFFFFFFFFFFFFFFFFFFFFFFFF
310
00FFFFFFFFFFFFFFFFFFFFFFFFFFFF000000000000000000FFFFFFFFFFFFFFFF00FFFFFFFFFFFFFFFFFFFFFFFFFFFF00FFFFFFFFFFFFFFFF
102
{BLKREFS
331
420
102
}
  0
BLOCK_RECORD
  5
402
330
1
100
AcDbSymbolTableRecord
100
AcDbBlockTableRecord
  2
AI9-BLK4
340
0
310
2800000020000000200000000100080000000000000400000000000000000000000000000000000000000000000080000080000000808000800000008000800080800000C0C0C000C0DCC000F0CAA6000020400000206000002080000020A0000020C0000020E00000400000004020000040400000406000004080000040A0
310
000040C0000040E00000600000006020000060400000606000006080000060A0000060C0000060E00000800000008020000080400000806000008080000080A0000080C0000080E00000A0000000A0200000A0400000A0600000A0800000A0A00000A0C00000A0E00000C0000000C0200000C0400000C0600000C0800000C0
310
A00000C0C00000C0E00000E0000000E0200000E0400000E0600000E0800000E0A00000E0C00000E0E00040000000400020004000400040006000400080004000A0004000C0004000E00040200000402020004020400040206000402080004020A0004020C0004020E000404000004040200040404000404060004040800040
310
40A0004040C0004040E00040600000406020004060400040606000406080004060A0004060C0004060E00040800000408020004080400040806000408080004080A0004080C0004080E00040A0000040A0200040A0400040A0600040A0800040A0A00040A0C00040A0E00040C0000040C0200040C0400040C0600040C08000
310
40C0A00040C0C00040C0E00040E0000040E0200040E0400040E0600040E0800040E0A00040E0C00040E0E00080000000800020008000400080006000800080008000A0008000C0008000E00080200000802020008020400080206000802080008020A0008020C0008020E00080400000804020008040400080406000804080
310
008040A0008040C0008040E00080600000806020008060400080606000806080008060A0008060C0008060E00080800000808020008080400080806000808080008080A0008080C0008080E00080A0000080A0200080A0400080A0600080A0800080A0A00080A0C00080A0E00080C0000080C0200080C0400080C0600080C0
310
800080C0A00080C0C00080C0E00080E0000080E0200080E0400080E0600080E0800080E0A00080E0C00080E0E000C0000000C0002000C0004000C0006000C0008000C000A000C000C000C000E000C0200000C0202000C0204000C0206000C0208000C020A000C020C000C020E000C0400000C0402000C0404000C0406000C0
310
408000C040A000C040C000C040E000C0600000C0602000C0604000C0606000C0608000C060A000C060C000C060E000C0800000C0802000C0804000C0806000C0808000C080A000C080C000C080E000C0A00000C0A02000C0A04000C0A06000C0A08000C0A0A000C0A0C000C0A0E000C0C00000C0C02000C0C04000C0C06000
310
C0C08000C0C0A000F0FBFF00A4A0A000808080000000FF0000FF000000FFFF00FF000000FF00FF00FFFF0000FFFFFF00FFFFFFFFFFFFFFFFFFFFFFFFFFFFFFFFFFFFFFFFFFFFFFFFFFFFFFFFFFFFFFFFFFFFFFFFFFFFFFFFFFFFFFFFFFFF00000000FFFFFFFFFFFFFFFFFFFFFF000000FFFFFFFFFFFFFFFFFFFFFFFFFFFF00
310
FFFF00FFFFFFFFFFFFFFFFFFFFFF00FFFFFFFFFFFFFFFFFFFFFFFFFFFFFFFF00FFFF00FFFFFFFFFFFFFFFFFFFFFF00FFFFFFFFFFFFFFFFFFFFFFFFFFFFFFFF00FFFF00FFFFFFFFFFFFFFFFFFFFFF00FFFFFFFFFFFFFFFFFFFFFFFFFFFFFFFF00FFFF00FFFFFFFFFFFFFFFFFFFFFF00FFFFFFFFFFFFFFFFFFFFFFFFFFFFFFFF
310
00FFFF00FFFFFFFFFFFFFFFFFFFFFF00FFFFFFFFFFFFFFFFFFFFFFFFFFFFFFFF00FFFF00FFFFFFFFFFFFFFFFFFFFFF00FFFFFFFFFFFFFFFFFFFFFFFFFFFFFFFF00FFFF00FFFFFFFFFFFFFFFFFFFFFF00FFFFFFFFFFFFFFFFFFFFFFFFFFFFFFFF00FFFF00FFFFFFFFFFFFFFFFFFFFFF00FFFFFFFFFFFFFFFFFFFFFFFFFFFFFF
310
FF00FFFF00FFFFFFFFFFFFFFFFFFFFFF00FFFFFFFFFFFFFFFFFFFFFFFFFFFFFFFF00FFFF00FFFFFFFFFFFFFFFFFFFFFF00FFFFFFFFFFFFFFFFFFFFFFFFFFFFFFFF00FFFF00FFFFFFFFFFFFFFFFFFFFFF00FFFFFFFFFFFFFFFFFFFFFFFFFFFFFFFF00FFFF00FFFFFFFFFFFFFFFFFFFFFF00FFFFFFFFFFFFFFFFFFFFFFFFFFFF
310
FFFF00FFFF00FFFFFFFFFFFFFFFFFFFFFF00FFFFFFFFFFFFFFFFFFFFFFFFFFFFFFFF00FFFF00FFFFFFFFFFFFFFFFFFFFFF00FFFFFFFFFFFFFFFFFFFFFFFFFFFFFFFF00FFFF00FFFFFFFFFFFFFFFFFFFFFF00FFFFFFFFFFFFFFFFFFFFFFFFFFFFFFFF00FFFF00FFFFFFFFFFFFFFFFFFFF00FFFFFFFFFFFFFFFFFFFFFFFFFFFF
310
FFFFFF00FFFF00FFFFFFFFFFFFFFFFFFFF00FFFFFFFFFFFFFFFFFFFFFFFFFFFFFFFFFF00FFFF00FFFFFFFFFFFFFFFFFFFF00FFFFFFFFFFFFFFFFFFFFFFFFFFFFFFFFFF00FFFF00FFFFFFFFFFFFFFFFFFFF00FFFFFFFFFFFFFFFFFFFFFFFFFFFFFFFFFF00FFFF00FFFFFFFFFFFFFFFFFFFF00FFFFFFFFFFFFFFFFFFFFFFFFFF
310
FFFFFFFF00FFFF00FFFFFFFFFFFFFFFFFF0000FFFF00FFFFFFFFFFFFFFFFFFFFFFFFFFFF00FFFF00FFFFFFFFFFFFFFFF0000FFFFFF00FFFFFFFFFFFFFFFFFFFFFFFFFFFF00FFFF00000000000000000000FFFFFFFF00FFFFFFFFFFFFFFFFFFFFFFFFFFFF00FFFFFFFFFFFFFFFFFFFFFFFFFFFFFF00FFFFFFFFFFFFFFFFFFFF
310
FFFFFFFFFF00FFFFFFFFFFFFFFFFFFFFFFFFFFFF00FFFFFFFFFFFFFFFFFFFFFFFFFFFFFFFF00FFFFFFFFFFFFFFFFFFFFFFFFFFFF00FFFFFFFFFFFFFFFFFFFFFFFFFFFFFFFF00FFFFFFFFFFFFFFFFFFFFFFFFFFFFFF00FFFFFFFFFFFFFFFFFFFFFFFFFFFFFF00FFFFFFFFFFFFFFFFFFFFFFFFFFFFFF00FFFFFFFFFFFFFFFFFF
310
FFFFFFFFFFFF00FFFF00000000000000000000FFFFFFFF00FFFFFFFFFFFFFFFFFFFFFFFFFFFF00FFFF00FFFFFFFFFFFFFFFFFF0000FFFF00
102
{BLKREFS
331
421
102
}
  0
BLOCK_RECORD
  5
407
330
1
100
AcDbSymbolTableRecord
100
AcDbBlockTableRecord
  2
AI9-BLK3
340
0
310
2800000020000000200000000100080000000000000400000000000000000000000000000000000000000000000080000080000000808000800000008000800080800000C0C0C000C0DCC000F0CAA6000020400000206000002080000020A0000020C0000020E00000400000004020000040400000406000004080000040A0
310
000040C0000040E00000600000006020000060400000606000006080000060A0000060C0000060E00000800000008020000080400000806000008080000080A0000080C0000080E00000A0000000A0200000A0400000A0600000A0800000A0A00000A0C00000A0E00000C0000000C0200000C0400000C0600000C0800000C0
310
A00000C0C00000C0E00000E0000000E0200000E0400000E0600000E0800000E0A00000E0C00000E0E00040000000400020004000400040006000400080004000A0004000C0004000E00040200000402020004020400040206000402080004020A0004020C0004020E000404000004040200040404000404060004040800040
310
40A0004040C0004040E00040600000406020004060400040606000406080004060A0004060C0004060E00040800000408020004080400040806000408080004080A0004080C0004080E00040A0000040A0200040A0400040A0600040A0800040A0A00040A0C00040A0E00040C0000040C0200040C0400040C0600040C08000
310
40C0A00040C0C00040C0E00040E0000040E0200040E0400040E0600040E0800040E0A00040E0C00040E0E00080000000800020008000400080006000800080008000A0008000C0008000E00080200000802020008020400080206000802080008020A0008020C0008020E00080400000804020008040400080406000804080
310
008040A0008040C0008040E00080600000806020008060400080606000806080008060A0008060C0008060E00080800000808020008080400080806000808080008080A0008080C0008080E00080A0000080A0200080A0400080A0600080A0800080A0A00080A0C00080A0E00080C0000080C0200080C0400080C0600080C0
310
800080C0A00080C0C00080C0E00080E0000080E0200080E0400080E0600080E0800080E0A00080E0C00080E0E000C0000000C0002000C0004000C0006000C0008000C000A000C000C000C000E000C0200000C0202000C0204000C0206000C0208000C020A000C020C000C020E000C0400000C0402000C0404000C0406000C0
310
408000C040A000C040C000C040E000C0600000C0602000C0604000C0606000C0608000C060A000C060C000C060E000C0800000C0802000C0804000C0806000C0808000C080A000C080C000C080E000C0A00000C0A02000C0A04000C0A06000C0A08000C0A0A000C0A0C000C0A0E000C0C00000C0C02000C0C04000C0C06000
310
C0C08000C0C0A000F0FBFF00A4A0A000808080000000FF0000FF000000FFFF00FF000000FF00FF00FFFF0000FFFFFF00FFFFFFFFFFFFFFFFFFFFFFFFFFFFFFFFFFFFFFFFFFFFFFFFFFFFFFFFFFFFFFFFFFFFFFFFFFFFFFFFFFFFFFFFFFFFFF0000FFFFFFFFFFFFFFFFFFFFFFFFFFFFFFFFFFFFFFFFFFFFFFFFFFFFFFFFFFFF
310
0000FFFFFFFFFFFFFFFFFFFFFFFFFFFFFFFFFFFFFFFFFFFFFFFFFFFFFFFFFFFF0000FFFFFFFFFFFFFFFFFFFFFFFFFFFFFFFFFFFFFFFFFFFFFFFFFFFFFFFFFFFF0000FFFFFFFFFFFFFFFFFFFFFFFFFFFFFFFFFFFFFFFFFFFFFFFFFFFFFFFFFFFF0000FFFFFFFFFFFFFFFFFFFFFFFFFFFFFFFFFFFFFFFFFFFFFFFFFFFFFFFFFF
310
FF0000FFFFFFFFFFFFFFFFFFFFFFFFFFFFFFFFFFFFFFFFFFFFFFFFFFFFFFFFFFFF0000FFFFFFFFFFFFFFFFFFFFFFFFFFFFFFFFFFFFFFFFFFFFFFFFFFFFFFFFFFFF0000FFFFFFFFFFFFFFFFFFFFFFFFFFFFFFFFFFFFFFFFFFFFFFFFFFFFFFFFFFFF0000FFFFFFFFFFFFFFFFFFFFFFFFFFFFFFFFFFFFFFFFFFFFFFFFFFFFFFFF
310
FFFF0000FFFFFFFFFFFFFFFFFFFFFFFFFFFFFFFFFFFFFFFFFFFFFFFFFFFFFFFFFFFF0000FFFFFFFFFFFFFFFFFFFFFFFFFFFFFFFFFFFFFFFFFFFFFFFFFFFFFFFFFFFF0000FFFFFFFFFFFFFFFFFFFFFFFFFFFFFFFFFFFFFFFFFFFFFFFFFFFFFFFFFFFF0000FFFFFFFFFFFFFFFFFFFFFFFFFFFFFFFFFFFFFFFFFFFFFFFFFFFFFF
310
FFFFFF0000FFFFFFFFFFFFFFFFFFFFFFFFFFFFFFFFFFFFFFFFFFFFFFFFFFFFFFFFFFFF0000FFFFFFFFFFFFFFFFFFFFFFFFFFFFFFFFFFFFFFFFFFFFFFFFFFFFFFFFFFFF0000FFFFFFFFFFFFFFFFFFFFFFFFFFFFFFFFFFFFFFFFFFFFFFFFFFFFFFFFFFFF0000FFFFFFFFFFFFFFFFFFFFFFFFFFFFFFFFFFFFFFFFFFFFFFFFFFFF
310
FFFFFFFF0000FFFFFFFFFFFFFFFFFFFFFFFFFFFFFFFFFFFFFFFFFFFFFFFFFFFFFFFFFFFF0000FFFFFFFFFFFFFFFFFFFFFFFFFFFFFFFFFFFFFFFFFFFFFFFFFFFFFFFFFFFF0000FFFFFFFFFFFFFFFFFFFFFFFFFFFFFFFFFFFFFFFFFFFFFFFFFFFFFFFFFFFF0000FFFFFFFFFFFFFFFFFFFFFFFFFFFFFFFFFFFFFFFFFFFFFFFFFF
310
FFFFFFFFFF0000FFFFFFFFFFFFFFFFFFFFFFFFFFFFFFFFFFFFFFFFFFFFFFFFFFFFFFFFFFFF0000FFFFFFFFFFFFFFFFFFFFFFFFFFFFFFFFFFFFFFFFFFFFFFFFFFFFFFFFFFFF0000FFFFFFFFFFFFFFFFFFFFFFFFFFFFFFFFFFFFFFFFFFFFFFFFFFFFFFFFFFFF0000FFFFFFFFFFFFFFFFFFFFFFFFFFFFFFFFFFFFFFFFFFFFFFFF
310
FFFFFFFFFFFF0000FFFFFFFFFFFFFFFFFFFFFFFFFFFFFFFFFFFFFFFFFFFFFFFFFFFFFFFFFFFF0000FFFFFFFFFFFFFFFFFFFFFFFFFFFFFFFFFFFFFFFFFFFFFFFFFFFFFFFFFFFF0000FFFFFFFFFFFFFFFFFFFFFFFFFFFFFFFFFFFFFFFFFFFFFFFFFFFFFFFFFFFF0000FFFFFFFFFFFFFFFFFFFFFFFFFFFFFFFFFFFFFFFFFFFFFF
310
FFFFFFFFFFFFFF0000FFFFFFFFFFFFFFFFFFFFFFFFFFFFFFFFFFFFFFFFFFFFFFFFFFFFFFFFFFFFFFFFFFFFFFFFFFFFFFFFFFFFFFFFFFFFFF
102
{BLKREFS
331
422
102
}
  0
BLOCK_RECORD
  5
40C
330
1
100
AcDbSymbolTableRecord
100
AcDbBlockTableRecord
  2
AI9-BLK2
340
0
310
2800000020000000200000000100080000000000000400000000000000000000000000000000000000000000000080000080000000808000800000008000800080800000C0C0C000C0DCC000F0CAA6000020400000206000002080000020A0000020C0000020E00000400000004020000040400000406000004080000040A0
310
000040C0000040E00000600000006020000060400000606000006080000060A0000060C0000060E00000800000008020000080400000806000008080000080A0000080C0000080E00000A0000000A0200000A0400000A0600000A0800000A0A00000A0C00000A0E00000C0000000C0200000C0400000C0600000C0800000C0
310
A00000C0C00000C0E00000E0000000E0200000E0400000E0600000E0800000E0A00000E0C00000E0E00040000000400020004000400040006000400080004000A0004000C0004000E00040200000402020004020400040206000402080004020A0004020C0004020E000404000004040200040404000404060004040800040
310
40A0004040C0004040E00040600000406020004060400040606000406080004060A0004060C0004060E00040800000408020004080400040806000408080004080A0004080C0004080E00040A0000040A0200040A0400040A0600040A0800040A0A00040A0C00040A0E00040C0000040C0200040C0400040C0600040C08000
310
40C0A00040C0C00040C0E00040E0000040E0200040E0400040E0600040E0800040E0A00040E0C00040E0E00080000000800020008000400080006000800080008000A0008000C0008000E00080200000802020008020400080206000802080008020A0008020C0008020E00080400000804020008040400080406000804080
310
008040A0008040C0008040E00080600000806020008060400080606000806080008060A0008060C0008060E00080800000808020008080400080806000808080008080A0008080C0008080E00080A0000080A0200080A0400080A0600080A0800080A0A00080A0C00080A0E00080C0000080C0200080C0400080C0600080C0
310
800080C0A00080C0C00080C0E00080E0000080E0200080E0400080E0600080E0800080E0A00080E0C00080E0E000C0000000C0002000C0004000C0006000C0008000C000A000C000C000C000E000C0200000C0202000C0204000C0206000C0208000C020A000C020C000C020E000C0400000C0402000C0404000C0406000C0
310
408000C040A000C040C000C040E000C0600000C0602000C0604000C0606000C0608000C060A000C060C000C060E000C0800000C0802000C0804000C0806000C0808000C080A000C080C000C080E000C0A00000C0A02000C0A04000C0A06000C0A08000C0A0A000C0A0C000C0A0E000C0C00000C0C02000C0C04000C0C06000
310
C0C08000C0C0A000F0FBFF00A4A0A000808080000000FF0000FF000000FFFF00FF000000FF00FF00FFFF0000FFFFFF00FFFFFFFFFFFFFFFFFFFFFFFFFFFFFFFFFFFFFFFFFFFFFFFFFFFFFFFFFFFFFFFFFFFFFFFFFFFFFFFFFFFFFFFFFFFFFF0000FFFFFFFFFFFFFFFFFFFFFFFFFFFFFFFFFFFFFFFFFFFFFFFFFFFFFFFFFFFF
310
0000FFFFFFFFFFFFFFFFFFFFFFFFFFFFFFFFFFFFFFFFFFFFFFFFFFFFFFFFFFFF0000FFFFFFFFFFFFFFFFFFFFFFFFFFFFFFFFFFFFFFFFFFFFFFFFFFFFFFFFFF00FFFF00FFFFFFFFFFFFFFFFFFFFFFFFFFFFFFFFFFFFFFFFFFFFFFFFFFFFFFFF00FFFF00FFFFFFFFFFFFFFFFFFFFFFFFFFFFFFFFFFFFFFFFFFFFFFFFFFFFFFFF
310
00FF0000FFFFFFFFFFFFFFFFFFFFFFFFFFFFFFFFFFFFFFFFFFFFFFFFFFFFFFFF00FF0000FFFFFFFFFFFFFFFFFFFFFFFFFFFFFFFFFFFFFFFFFFFFFFFFFFFFFFFF00FF0000FFFFFFFFFFFFFFFFFFFFFFFFFFFFFFFFFFFFFFFFFFFFFFFFFFFFFFFF00000000FFFFFFFFFFFFFFFFFFFFFFFFFFFFFFFFFFFFFFFFFFFFFFFFFFFFFF
310
00FF00FF0000FFFFFFFFFFFFFFFFFFFFFFFFFFFFFFFFFFFFFFFFFFFFFFFFFFFF00FF00FF0000FFFFFFFFFFFFFFFFFFFFFFFFFFFFFFFFFFFFFFFFFFFFFFFFFFFF00FF00FF0000FFFFFFFFFFFFFFFFFFFFFFFFFFFFFFFFFFFFFFFFFFFFFFFFFFFF00FF00FF0000FFFFFFFFFFFFFFFFFFFFFFFFFFFFFFFFFFFFFFFFFFFFFFFFFF
310
FF00FF00FF0000FFFFFFFFFFFFFFFFFFFFFFFFFFFFFFFFFFFFFFFFFFFFFFFFFFFF0000FFFF0000FFFFFFFFFFFFFFFFFFFFFFFFFFFFFFFFFFFFFFFFFFFFFFFFFF00FF00FFFF00FF00FFFFFFFFFFFFFFFFFFFFFFFFFFFFFFFFFFFFFFFFFFFFFFFF00FF00FFFF00FF00FFFFFFFFFFFFFFFFFFFFFFFFFFFFFFFFFFFFFFFFFFFFFF
310
FF00FF00FFFFFF0000FFFFFFFFFFFFFFFFFFFFFFFFFFFFFFFFFFFFFFFFFFFFFFFF00FF00FFFFFF0000FFFFFFFFFFFFFFFFFFFFFFFFFFFFFFFFFFFFFFFFFFFFFFFF00FF00FFFFFF0000FFFFFFFFFFFFFFFFFFFFFFFFFFFFFFFFFFFFFFFFFFFFFFFF0000FFFFFFFF0000FFFFFFFFFFFFFFFFFFFFFFFFFFFFFFFFFFFFFFFFFFFF
310
FF00FF00FFFFFFFF00FF00FFFFFFFFFFFFFFFFFFFFFFFFFFFFFFFFFFFFFFFFFFFF00FF00FFFFFFFF00FF00FFFFFFFFFFFFFFFFFFFFFFFFFFFFFFFFFFFFFFFFFFFF00FF00FFFFFFFF00FF00FFFFFFFFFFFFFFFFFFFFFFFFFFFFFFFFFFFFFFFFFFFF00FF00FFFFFFFF00FF00FFFFFFFFFFFFFFFFFFFFFFFFFFFFFFFFFFFFFFFF
310
FFFF00FF00FFFFFFFFFF0000FFFFFFFFFFFFFFFFFFFFFFFFFFFFFFFFFFFFFFFFFFFF0000FFFFFFFFFFFF0000FFFFFFFFFFFFFFFFFFFFFFFFFFFFFFFFFFFFFFFFFF00FF00FFFFFFFFFFFF00FF00FFFFFFFFFFFFFFFFFFFFFFFFFFFFFFFFFFFFFFFF00FF00FFFFFFFFFFFF00FF00FFFFFFFFFFFFFFFFFFFFFFFFFFFFFFFFFFFF
310
FFFF000000FFFFFFFFFFFF000000FFFFFFFFFFFFFFFFFFFFFFFFFFFFFFFFFFFFFFFFFFFFFFFFFFFFFFFFFFFFFFFFFFFFFFFFFFFFFFFFFFFF
102
{BLKREFS
331
423
102
}
  0
BLOCK_RECORD
  5
411
330
1
100
AcDbSymbolTableRecord
100
AcDbBlockTableRecord
  2
AI9-BLK1
340
0
310
2800000020000000200000000100080000000000000400000000000000000000000000000000000000000000000080000080000000808000800000008000800080800000C0C0C000C0DCC000F0CAA6000020400000206000002080000020A0000020C0000020E00000400000004020000040400000406000004080000040A0
310
000040C0000040E00000600000006020000060400000606000006080000060A0000060C0000060E00000800000008020000080400000806000008080000080A0000080C0000080E00000A0000000A0200000A0400000A0600000A0800000A0A00000A0C00000A0E00000C0000000C0200000C0400000C0600000C0800000C0
310
A00000C0C00000C0E00000E0000000E0200000E0400000E0600000E0800000E0A00000E0C00000E0E00040000000400020004000400040006000400080004000A0004000C0004000E00040200000402020004020400040206000402080004020A0004020C0004020E000404000004040200040404000404060004040800040
310
40A0004040C0004040E00040600000406020004060400040606000406080004060A0004060C0004060E00040800000408020004080400040806000408080004080A0004080C0004080E00040A0000040A0200040A0400040A0600040A0800040A0A00040A0C00040A0E00040C0000040C0200040C0400040C0600040C08000
310
40C0A00040C0C00040C0E00040E0000040E0200040E0400040E0600040E0800040E0A00040E0C00040E0E00080000000800020008000400080006000800080008000A0008000C0008000E00080200000802020008020400080206000802080008020A0008020C0008020E00080400000804020008040400080406000804080
310
008040A0008040C0008040E00080600000806020008060400080606000806080008060A0008060C0008060E00080800000808020008080400080806000808080008080A0008080C0008080E00080A0000080A0200080A0400080A0600080A0800080A0A00080A0C00080A0E00080C0000080C0200080C0400080C0600080C0
310
800080C0A00080C0C00080C0E00080E0000080E0200080E0400080E0600080E0800080E0A00080E0C00080E0E000C0000000C0002000C0004000C0006000C0008000C000A000C000C000C000E000C0200000C0202000C0204000C0206000C0208000C020A000C020C000C020E000C0400000C0402000C0404000C0406000C0
310
408000C040A000C040C000C040E000C0600000C0602000C0604000C0606000C0608000C060A000C060C000C060E000C0800000C0802000C0804000C0806000C0808000C080A000C080C000C080E000C0A00000C0A02000C0A04000C0A06000C0A08000C0A0A000C0A0C000C0A0E000C0C00000C0C02000C0C04000C0C06000
310
C0C08000C0C0A000F0FBFF00A4A0A000808080000000FF0000FF000000FFFF00FF000000FF00FF00FFFF0000FFFFFF00FFFFFFFFFFFFFFFFFFFFFFFFFFFFFFFFFFFFFFFFFFFFFFFFFFFFFFFFFFFFFFFFFFFFFFFFFFFFFFFFFFFFFF00000000000000000000FFFFFFFFFFFFFFFFFFFFFFFFFFFFFFFFFFFFFFFFFFFF00FFFFFF
310
FFFFFFFFFF00FFFFFFFFFFFFFFFFFFFFFFFFFFFFFFFFFFFFFFFFFFFF00FFFFFFFFFFFFFFFF00FFFFFFFFFFFFFFFFFFFFFFFFFFFFFFFFFFFFFFFFFFFF00FFFFFFFFFFFFFFFF00FFFFFFFFFFFFFFFFFFFFFFFFFFFFFFFFFFFFFFFFFFFF00FF0000000000000000FFFFFFFFFFFFFFFFFFFFFFFFFFFFFFFFFFFFFFFFFFFF00FF00
310
FFFFFFFFFFFFFFFFFFFFFFFFFFFFFFFFFFFFFFFFFFFFFFFFFFFFFFFFFF00FF00FFFFFFFFFFFFFFFFFFFFFFFFFFFFFFFFFFFFFFFFFFFFFFFFFFFFFFFFFF00FF00FFFFFFFFFFFFFFFFFFFFFFFFFFFFFFFFFFFFFFFFFFFFFFFFFFFFFFFFFF00FF00FFFFFFFFFFFFFFFFFFFFFFFFFFFFFFFFFFFFFFFFFFFFFFFFFFFFFFFFFF00FF
310
00FFFFFFFFFFFFFFFFFFFFFFFFFFFFFFFFFFFFFFFFFFFFFFFFFFFFFFFFFF00FF00FFFFFFFFFFFFFFFFFFFFFFFFFFFFFFFFFFFFFFFFFFFFFFFFFFFFFFFFFF00FF00FFFFFFFFFFFFFFFFFFFFFFFFFFFFFFFFFFFFFFFFFFFFFFFFFFFFFFFFFF00FF00FFFFFFFFFFFFFFFFFFFFFFFFFFFFFFFFFFFFFFFFFFFFFFFFFFFFFFFFFF00
310
FF00000000000000FFFFFFFFFFFFFFFFFFFFFFFFFFFFFFFFFFFFFFFFFFFFFF00FFFFFFFFFFFFFF00FFFFFFFFFFFFFFFFFFFFFFFFFFFFFFFFFFFFFFFFFFFFFF00FFFFFFFFFFFFFF00FFFFFFFFFFFFFFFFFFFFFFFFFFFFFFFFFFFFFFFFFFFFFF00FFFFFFFFFFFFFF00FFFFFFFFFFFFFFFFFFFFFFFFFFFFFFFFFFFFFFFFFFFFFF
310
00FF00000000000000FFFFFFFFFFFFFFFFFFFFFFFFFFFFFFFFFFFFFFFFFFFFFF00FF00FFFFFFFFFFFFFFFFFFFFFFFFFFFFFFFFFFFFFFFFFFFFFFFFFFFFFFFFFF00FF00FFFFFFFFFFFFFFFFFFFFFFFFFFFFFFFFFFFFFFFFFFFFFFFFFFFFFFFFFF00FF00FFFFFFFFFFFFFFFFFFFFFFFFFFFFFFFFFFFFFFFFFFFFFFFFFFFFFFFF
310
FF00FF00FFFFFFFFFFFFFFFFFFFFFFFFFFFFFFFFFFFFFFFFFFFFFFFFFFFFFFFFFF00FF00FFFFFFFFFFFFFFFFFFFFFFFFFFFFFFFFFFFFFFFFFFFFFFFFFFFFFFFFFF00FF00FFFFFFFFFFFFFFFFFFFFFFFFFFFFFFFFFFFFFFFFFFFFFFFFFFFFFFFFFF00FF00FFFFFFFFFFFFFFFFFFFFFFFFFFFFFFFFFFFFFFFFFFFFFFFFFFFFFF
310
FFFF00FF0000000000000000FFFFFFFFFFFFFFFFFFFFFFFFFFFFFFFFFFFFFFFFFFFF00FFFFFFFFFFFFFFFF00FFFFFFFFFFFFFFFFFFFFFFFFFFFFFFFFFFFFFFFFFFFF00FFFFFFFFFFFFFFFF00FFFFFFFFFFFFFFFFFFFFFFFFFFFFFFFFFFFFFFFFFFFF00FFFFFFFFFFFFFFFF00FFFFFFFFFFFFFFFFFFFFFFFFFFFFFFFFFFFFFF
310
FFFFFF00000000000000000000FFFFFFFFFFFFFFFFFFFFFFFFFFFFFFFFFFFFFFFFFFFFFFFFFFFFFFFFFFFFFFFFFFFFFFFFFFFFFFFFFFFFFF
102
{BLKREFS
331
424
102
}
  0
BLOCK_RECORD
  5
416
330
1
100
AcDbSymbolTableRecord
100
AcDbBlockTableRecord
  2
HD_LLC_logo_OT5
340
0
310
2800000020000000200000000100080000000000000400000000000000000000000000000000000000000000000080000080000000808000800000008000800080800000C0C0C000C0DCC000F0CAA6000020400000206000002080000020A0000020C0000020E00000400000004020000040400000406000004080000040A0
310
000040C0000040E00000600000006020000060400000606000006080000060A0000060C0000060E00000800000008020000080400000806000008080000080A0000080C0000080E00000A0000000A0200000A0400000A0600000A0800000A0A00000A0C00000A0E00000C0000000C0200000C0400000C0600000C0800000C0
310
A00000C0C00000C0E00000E0000000E0200000E0400000E0600000E0800000E0A00000E0C00000E0E00040000000400020004000400040006000400080004000A0004000C0004000E00040200000402020004020400040206000402080004020A0004020C0004020E000404000004040200040404000404060004040800040
310
40A0004040C0004040E00040600000406020004060400040606000406080004060A0004060C0004060E00040800000408020004080400040806000408080004080A0004080C0004080E00040A0000040A0200040A0400040A0600040A0800040A0A00040A0C00040A0E00040C0000040C0200040C0400040C0600040C08000
310
40C0A00040C0C00040C0E00040E0000040E0200040E0400040E0600040E0800040E0A00040E0C00040E0E00080000000800020008000400080006000800080008000A0008000C0008000E00080200000802020008020400080206000802080008020A0008020C0008020E00080400000804020008040400080406000804080
310
008040A0008040C0008040E00080600000806020008060400080606000806080008060A0008060C0008060E00080800000808020008080400080806000808080008080A0008080C0008080E00080A0000080A0200080A0400080A0600080A0800080A0A00080A0C00080A0E00080C0000080C0200080C0400080C0600080C0
310
800080C0A00080C0C00080C0E00080E0000080E0200080E0400080E0600080E0800080E0A00080E0C00080E0E000C0000000C0002000C0004000C0006000C0008000C000A000C000C000C000E000C0200000C0202000C0204000C0206000C0208000C020A000C020C000C020E000C0400000C0402000C0404000C0406000C0
310
408000C040A000C040C000C040E000C0600000C0602000C0604000C0606000C0608000C060A000C060C000C060E000C0800000C0802000C0804000C0806000C0808000C080A000C080C000C080E000C0A00000C0A02000C0A04000C0A06000C0A08000C0A0A000C0A0C000C0A0E000C0C00000C0C02000C0C04000C0C06000
310
C0C08000C0C0A000F0FBFF00A4A0A000808080000000FF0000FF000000FFFF00FF000000FF00FF00FFFF0000FFFFFF00FFFFFFFFFFFFFFFFFFFFFFFFFFFFFFFFFFFFFFFFFFFFFFFFFFFFFFFFFFFFFFFFFFFFFFFFFFFFFFFFFFFFFFFFFFFFFFFFFFFFFFFFFFFFFFFFFFFFFFFFFFFFFFFFFFFFFFFFFFFFFFFFFFFFFFFFFFFFFF
310
FFFFFFFFFFFFFFFFFFFFFFFFFFFFFFFFFFFFFFFFFFFFFFFFFFFFFFFFFFFFFFFFFFFFFFFFFFFFFFFFFFFFFFFFFFFFFFFFFFFFFFFFFFFFFFFFFFFFFFFFFFFFFFFFFFFFFFFFFFFFFFFFFFFFFFFFFFFFFFFFFFFFFFFFFFFFFFFFFFFFFFFFFFFFFFFFFFFFFFFFFFFFFFFFFFFFFFFFFFFFFFFFFFFFFFFFFFFFFFFFFFFFFFFFFFFFFF
310
FFFFFFFFFFFFFFFFFFFFFFFFFFFFFFFFFFFFFFFFFFFFFFFFFFFFFFFFFFFFFFFFFFFFFFFFFFFFFFFFFFFFFFFFFFFFFFFFFFFFFFFFFFFFFFFFFFFFFFFFFFFFFFFFFFFFFFFFFFFFFFFFFFFFFFFFFFFFFFFFFFFFFFFFFFFFFFFFFFFFFFFFFFFFFFFFFFFFFFFFFFFFFFFFFFFFFFFFFFFFFFFFFFFFFFFFFFFFFFFFFFFFFFFFFFFFFF
310
FFFFFFFFFFFFFFFFFFFFFFFFFFFFFFFFFFFFFFFFFFFFFFFFFFFFFFFFFFFFFFFFFFFFFFFFFFFFFFFFFFFFFFFFFFFFFFFFFFFFFFFF0000000000000000000000000000000000000000000000000000000000FFFFFF0000000000000000000000000000000000FFFFFFFFFFFFFFFFFFFF0000FFFFFF0000000000000000000000
310
00000000000000FFFFFFFFFFFFFFFFFFFF0000FFFF000000000000000000000000000000000000FFFFFF00000000FFFFFF0000FFFF00FFFFFFFFFFFF00FFFFFF00FFFFFFFFFF00FFFFFF0000000000FFFF0000FFFF00FFFFFFFFFFFF00FFFFFF00FFFFFFFFFF00FFFFFF00FFFF0000FFFF0000FFFF00FFFFFFFFFFFF00FFFF
310
00FFFFFFFFFFFF00FFFFFF00FFFF0000FFFF0000FFFF0000000000FFFF00000000FFFFFF00000000FFFFFF00000000FFFFFF0000FFFFFFFFFFFF00FFFFFFFFFFFFFFFFFF00FFFFFFFFFFFFFFFFFFFFFFFFFF0000FFFFFFFFFFFF00FFFFFFFFFFFFFFFFFF00FFFFFFFFFFFFFFFFFFFFFFFFFF0000FFFFFFFFFFFF00FFFFFFFF
310
FFFFFFFFFF00FFFFFFFFFFFFFFFFFFFFFFFF0000FFFFFF0000000000FFFF00000000FFFFFF0000000000000000000000000000FFFFFFFF00FFFFFFFFFFFF00FFFF00FFFFFFFFFFFF00FFFFFFFFFFFFFFFFFFFFFFFFFFFF00FFFFFFFFFFFF00FFFFFF00FFFFFFFFFF00FFFFFFFFFFFFFFFFFFFFFFFFFFFF0000000000000000
310
FFFFFF00000000000000FFFFFFFFFFFFFFFFFFFFFFFFFFFFFFFFFFFFFFFFFFFFFFFFFFFFFFFFFFFFFFFFFFFFFFFFFFFFFFFFFFFFFFFFFFFFFFFFFFFFFFFFFFFFFFFFFFFFFFFFFFFFFFFFFFFFFFFFFFFFFFFFFFFFFFFFFFFFFFFFFFFFFFFFFFFFFFFFFFFFFFFFFFFFFFFFFFFFFFFFFFFFFFFFFFFFFFFFFFFFFFFFFFFFFFFFFF
310
FFFFFFFFFFFFFFFFFFFFFFFFFFFFFFFFFFFFFFFFFFFFFFFFFFFFFFFFFFFFFFFFFFFFFFFFFFFFFFFFFFFFFFFFFFFFFFFFFFFFFFFFFFFFFFFF
102
{BLKREFS
331
43C
102
}
  0
BLOCK_RECORD
  5
43B
330
1
100
AcDbSymbolTableRecord
100
AcDbBlockTableRecord
  2
HD logo-new
340
0
310
2800000020000000200000000100080000000000000400000000000000000000000000000000000000000000000080000080000000808000800000008000800080800000C0C0C000C0DCC000F0CAA6000020400000206000002080000020A0000020C0000020E00000400000004020000040400000406000004080000040A0
310
000040C0000040E00000600000006020000060400000606000006080000060A0000060C0000060E00000800000008020000080400000806000008080000080A0000080C0000080E00000A0000000A0200000A0400000A0600000A0800000A0A00000A0C00000A0E00000C0000000C0200000C0400000C0600000C0800000C0
310
A00000C0C00000C0E00000E0000000E0200000E0400000E0600000E0800000E0A00000E0C00000E0E00040000000400020004000400040006000400080004000A0004000C0004000E00040200000402020004020400040206000402080004020A0004020C0004020E000404000004040200040404000404060004040800040
310
40A0004040C0004040E00040600000406020004060400040606000406080004060A0004060C0004060E00040800000408020004080400040806000408080004080A0004080C0004080E00040A0000040A0200040A0400040A0600040A0800040A0A00040A0C00040A0E00040C0000040C0200040C0400040C0600040C08000
310
40C0A00040C0C00040C0E00040E0000040E0200040E0400040E0600040E0800040E0A00040E0C00040E0E00080000000800020008000400080006000800080008000A0008000C0008000E00080200000802020008020400080206000802080008020A0008020C0008020E00080400000804020008040400080406000804080
310
008040A0008040C0008040E00080600000806020008060400080606000806080008060A0008060C0008060E00080800000808020008080400080806000808080008080A0008080C0008080E00080A0000080A0200080A0400080A0600080A0800080A0A00080A0C00080A0E00080C0000080C0200080C0400080C0600080C0
310
800080C0A00080C0C00080C0E00080E0000080E0200080E0400080E0600080E0800080E0A00080E0C00080E0E000C0000000C0002000C0004000C0006000C0008000C000A000C000C000C000E000C0200000C0202000C0204000C0206000C0208000C020A000C020C000C020E000C0400000C0402000C0404000C0406000C0
310
408000C040A000C040C000C040E000C0600000C0602000C0604000C0606000C0608000C060A000C060C000C060E000C0800000C0802000C0804000C0806000C0808000C080A000C080C000C080E000C0A00000C0A02000C0A04000C0A06000C0A08000C0A0A000C0A0C000C0A0E000C0C00000C0C02000C0C04000C0C06000
310
C0C08000C0C0A000F0FBFF00A4A0A000808080000000FF0000FF000000FFFF00FF000000FF00FF00FFFF0000FFFFFF00FFFFFFFFFFFFFFFFFFFFFFFFFFFFFFFFFFFFFFFFFFFFFFFFFFFFFFFFFFFFFFFFFFFFFFFFFFFFFFFFFFFFFFFFFFFFFFFFFFFFFFFFFFFFFFFFFFFFFFFFFFFFFFFFFFFFFFFFFFFFFFFFFFFFFFFFFFFFFF
310
FFFFFFFFFFFFFFFFFFFFFFFFFFFFFFFFFFFFFFFFFFFFFFFFFFFFFFFFFFFFFFFFFFFFFFFFFFFFFFFFFFFFFFFFFFFFFFFFFFFFFFFFFFFFFFFFFFFFFFFFFFFFFFFFFFFFFFFFFFFFFFFFFFFFFFFFFFFFFFFFFFFFFFFFFFFFFFFFFFFFFFFFFFFFFFFFFFFFFFFFFFFFFFFFFFFFFFFFFFFFFFFFFFFFFFFFFFFFFFFFFFFFFFFFFFFFFF
310
FFFFFFFFFFFFFFFFFFFFFFFFFFFFFFFFFFFFFFFFFFFFFFFFFFFFFFFFFFFFFFFFFFFFFFFFFFFFFFFFFFFFFFFFFFFFFFFFFFFFFFFFFFFFFFFFFFFFFFFFFFFFFFFFFFFFFFFFFFFFFFFFFFFFFFFFFFFFFFFFFFFFFFFFFFFFFFFFFFFFFFFFFFFFFFFFFFFFFFFFFFFFFFFFFFFFFFFFFFFFFFFFFFFFFFFFFFFFFFFFFFFFFFFFFFFFFF
310
FFFFFFFFFFFFFFFFFFFFFFFFFFFFFFFFFFFFFFFFFFFFFFFFFFFFFFFFFFFFFFFFFFFFFFFFFFFFFFFFFFFFFFFFFFFFFFFFFFFFFFFF0000000000000000000000000000000000000000000000000000000000FFFFFF0000000000000000000000000000000000FFFFFFFFFFFFFFFFFFFF0000FFFFFF0000000000000000000000
310
00000000000000FFFFFFFFFFFFFFFFFFFF0000FFFF000000000000000000000000000000000000FFFFFF00000000FFFFFF0000FFFF00FFFFFFFFFFFF00FFFFFF00FFFFFFFFFF00FFFFFF0000000000FFFF0000FFFF00FFFFFFFFFFFF00FFFFFF00FFFFFFFFFF00FFFFFF00FFFF0000FFFF0000FFFF00FFFFFFFFFFFF00FFFF
310
00FFFFFFFFFFFF00FFFFFF00FFFF0000FFFF0000FFFF0000000000FFFF00000000FFFFFF00000000FFFFFF00000000FFFFFF0000FFFFFFFFFFFF00FFFFFFFFFFFFFFFFFF00FFFFFFFFFFFFFFFFFFFFFFFFFF0000FFFFFFFFFFFF00FFFFFFFFFFFFFFFFFF00FFFFFFFFFFFFFFFFFFFFFFFFFF0000FFFFFFFFFFFF00FFFFFFFF
310
FFFFFFFFFF00FFFFFFFFFFFFFFFFFFFFFFFF0000FFFFFF0000000000FFFF00000000FFFFFF0000000000000000000000000000FFFFFFFF00FFFFFFFFFFFF00FFFF00FFFFFFFFFFFF00FFFFFFFFFFFFFFFFFFFFFFFFFFFF00FFFFFFFFFFFF00FFFFFF00FFFFFFFFFF00FFFFFFFFFFFFFFFFFFFFFFFFFFFF0000000000000000
310
FFFFFF00000000000000FFFFFFFFFFFFFFFFFFFFFFFFFFFFFFFFFFFFFFFFFFFFFFFFFFFFFFFFFFFFFFFFFFFFFFFFFFFFFFFFFFFFFFFFFFFFFFFFFFFFFFFFFFFFFFFFFFFFFFFFFFFFFFFFFFFFFFFFFFFFFFFFFFFFFFFFFFFFFFFFFFFFFFFFFFFFFFFFFFFFFFFFFFFFFFFFFFFFFFFFFFFFFFFFFFFFFFFFFFFFFFFFFFFFFFFFFF
310
FFFFFFFFFFFFFFFFFFFFFFFFFFFFFFFFFFFFFFFFFFFFFFFFFFFFFFFFFFFFFFFFFFFFFFFFFFFFFFFFFFFFFFFFFFFFFFFFFFFFFFFFFFFFFFFF
102
{BLKREFS
331
440
102
}
  0
BLOCK_RECORD
  5
43F
330
1
100
AcDbSymbolTableRecord
100
AcDbBlockTableRecord
  2
HD Logo
340
0
310
2800000020000000200000000100080000000000000400000000000000000000000000000000000000000000000080000080000000808000800000008000800080800000C0C0C000C0DCC000F0CAA6000020400000206000002080000020A0000020C0000020E00000400000004020000040400000406000004080000040A0
310
000040C0000040E00000600000006020000060400000606000006080000060A0000060C0000060E00000800000008020000080400000806000008080000080A0000080C0000080E00000A0000000A0200000A0400000A0600000A0800000A0A00000A0C00000A0E00000C0000000C0200000C0400000C0600000C0800000C0
310
A00000C0C00000C0E00000E0000000E0200000E0400000E0600000E0800000E0A00000E0C00000E0E00040000000400020004000400040006000400080004000A0004000C0004000E00040200000402020004020400040206000402080004020A0004020C0004020E000404000004040200040404000404060004040800040
310
40A0004040C0004040E00040600000406020004060400040606000406080004060A0004060C0004060E00040800000408020004080400040806000408080004080A0004080C0004080E00040A0000040A0200040A0400040A0600040A0800040A0A00040A0C00040A0E00040C0000040C0200040C0400040C0600040C08000
310
40C0A00040C0C00040C0E00040E0000040E0200040E0400040E0600040E0800040E0A00040E0C00040E0E00080000000800020008000400080006000800080008000A0008000C0008000E00080200000802020008020400080206000802080008020A0008020C0008020E00080400000804020008040400080406000804080
310
008040A0008040C0008040E00080600000806020008060400080606000806080008060A0008060C0008060E00080800000808020008080400080806000808080008080A0008080C0008080E00080A0000080A0200080A0400080A0600080A0800080A0A00080A0C00080A0E00080C0000080C0200080C0400080C0600080C0
310
800080C0A00080C0C00080C0E00080E0000080E0200080E0400080E0600080E0800080E0A00080E0C00080E0E000C0000000C0002000C0004000C0006000C0008000C000A000C000C000C000E000C0200000C0202000C0204000C0206000C0208000C020A000C020C000C020E000C0400000C0402000C0404000C0406000C0
310
408000C040A000C040C000C040E000C0600000C0602000C0604000C0606000C0608000C060A000C060C000C060E000C0800000C0802000C0804000C0806000C0808000C080A000C080C000C080E000C0A00000C0A02000C0A04000C0A06000C0A08000C0A0A000C0A0C000C0A0E000C0C00000C0C02000C0C04000C0C06000
310
C0C08000C0C0A000F0FBFF00A4A0A000808080000000FF0000FF000000FFFF00FF000000FF00FF00FFFF0000FFFFFF00FFFFFFFFFFFFFFFFFFFFFFFFFFFFFFFFFFFFFFFFFFFFFFFFFFFFFFFFFFFFFFFFFFFFFFFFFFFFFFFFFFFFFFFFFFFFFFFFFFFFFFFFFFFFFFFFFFFFFFFFFFFFFFFFFFFFFFFFFFFFFFFFFFFFFFFFFFFFFF
310
FFFFFFFFFFFFFFFFFFFFFFFFFFFFFFFFFFFFFFFFFFFFFFFFFFFFFFFFFFFFFFFFFFFFFFFFFFFFFFFFFFFFFFFFFFFFFFFFFFFFFFFFFFFFFFFFFFFFFFFFFFFFFFFFFFFFFFFFFFFFFFFFFFFFFFFFFFFFFFFFFFFFFFFFFFFFFFFFFFFFFFFFFFFFFFFFFFFFFFFFFFFFFFFFFFFFFFFFFFFFFFFFFFFFFFFFFFFFFFFFFFFFFFFFFFFFFF
310
FFFFFFFFFFFFFFFFFFFFFFFFFFFFFFFFFFFFFFFFFFFFFFFFFFFFFFFFFFFFFFFFFFFFFFFFFFFFFFFFFFFFFFFFFFFFFFFFFFFFFFFFFFFFFFFFFFFFFFFFFFFFFFFFFFFFFFFFFFFFFFFFFFFFFFFFFFFFFFFFFFFFFFFFFFFFFFFFFFFFFFFFFFFFFFFFFFFFFFFFFFFFFFFFFFFFFFFFFFFFFFFFFFFFFFFFFFFFFFFFFFFFFFFFFFFFFF
310
FFFFFFFFFFFFFFFFFFFFFFFFFFFFFFFFFFFFFFFFFFFFFFFFFFFFFFFFFFFFFFFFFFFFFFFFFFFFFFFFFFFFFFFFFFFFFFFFFFFFFFFF0000000000000000000000000000000000000000000000000000000000FFFFFF0000000000000000000000000000000000FFFFFFFFFFFFFFFFFFFF0000FFFFFF0000000000000000000000
310
00000000000000FFFFFFFFFFFFFFFFFFFF0000FFFF000000000000000000000000000000000000FFFFFF00000000FFFFFF0000FFFF00FFFFFFFFFFFF00FFFFFF00FFFFFFFFFF00FFFFFF0000000000FFFF0000FFFF00FFFFFFFFFFFF00FFFFFF00FFFFFFFFFF00FFFFFF00FFFF0000FFFF0000FFFF00FFFFFFFFFFFF00FFFF
310
00FFFFFFFFFFFF00FFFFFF00FFFF0000FFFF0000FFFF0000000000FFFF00000000FFFFFF00000000FFFFFF00000000FFFFFF0000FFFFFFFFFFFF00FFFFFFFFFFFFFFFFFF00FFFFFFFFFFFFFFFFFFFFFFFFFF0000FFFFFFFFFFFF00FFFFFFFFFFFFFFFFFF00FFFFFFFFFFFFFFFFFFFFFFFFFF0000FFFFFFFFFFFF00FFFFFFFF
310
FFFFFFFFFF00FFFFFFFFFFFFFFFFFFFFFFFF0000FFFFFF0000000000FFFF00000000FFFFFF0000000000000000000000000000FFFFFFFF00FFFFFFFFFFFF00FFFF00FFFFFFFFFFFF00FFFFFFFFFFFFFFFFFFFFFFFFFFFF00FFFFFFFFFFFF00FFFFFF00FFFFFFFFFF00FFFFFFFFFFFFFFFFFFFFFFFFFFFF0000000000000000
310
FFFFFF00000000000000FFFFFFFFFFFFFFFFFFFFFFFFFFFFFFFFFFFFFFFFFFFFFFFFFFFFFFFFFFFFFFFFFFFFFFFFFFFFFFFFFFFFFFFFFFFFFFFFFFFFFFFFFFFFFFFFFFFFFFFFFFFFFFFFFFFFFFFFFFFFFFFFFFFFFFFFFFFFFFFFFFFFFFFFFFFFFFFFFFFFFFFFFFFFFFFFFFFFFFFFFFFFFFFFFFFFFFFFFFFFFFFFFFFFFFFFFF
310
FFFFFFFFFFFFFFFFFFFFFFFFFFFFFFFFFFFFFFFFFFFFFFFFFFFFFFFFFFFFFFFFFFFFFFFFFFFFFFFFFFFFFFFFFFFFFFFFFFFFFFFFFFFFFFFF
102
{BLKREFS
331
449
102
}
  0
BLOCK_RECORD
  5
44A
330
1
100
AcDbSymbolTableRecord
100
AcDbBlockTableRecord
  2
Harmonic Drive LLC
340
0
310
2800000020000000200000000100080000000000000400000000000000000000000000000000000000000000000080000080000000808000800000008000800080800000C0C0C000C0DCC000F0CAA6000020400000206000002080000020A0000020C0000020E00000400000004020000040400000406000004080000040A0
310
000040C0000040E00000600000006020000060400000606000006080000060A0000060C0000060E00000800000008020000080400000806000008080000080A0000080C0000080E00000A0000000A0200000A0400000A0600000A0800000A0A00000A0C00000A0E00000C0000000C0200000C0400000C0600000C0800000C0
310
A00000C0C00000C0E00000E0000000E0200000E0400000E0600000E0800000E0A00000E0C00000E0E00040000000400020004000400040006000400080004000A0004000C0004000E00040200000402020004020400040206000402080004020A0004020C0004020E000404000004040200040404000404060004040800040
310
40A0004040C0004040E00040600000406020004060400040606000406080004060A0004060C0004060E00040800000408020004080400040806000408080004080A0004080C0004080E00040A0000040A0200040A0400040A0600040A0800040A0A00040A0C00040A0E00040C0000040C0200040C0400040C0600040C08000
310
40C0A00040C0C00040C0E00040E0000040E0200040E0400040E0600040E0800040E0A00040E0C00040E0E00080000000800020008000400080006000800080008000A0008000C0008000E00080200000802020008020400080206000802080008020A0008020C0008020E00080400000804020008040400080406000804080
310
008040A0008040C0008040E00080600000806020008060400080606000806080008060A0008060C0008060E00080800000808020008080400080806000808080008080A0008080C0008080E00080A0000080A0200080A0400080A0600080A0800080A0A00080A0C00080A0E00080C0000080C0200080C0400080C0600080C0
310
800080C0A00080C0C00080C0E00080E0000080E0200080E0400080E0600080E0800080E0A00080E0C00080E0E000C0000000C0002000C0004000C0006000C0008000C000A000C000C000C000E000C0200000C0202000C0204000C0206000C0208000C020A000C020C000C020E000C0400000C0402000C0404000C0406000C0
310
408000C040A000C040C000C040E000C0600000C0602000C0604000C0606000C0608000C060A000C060C000C060E000C0800000C0802000C0804000C0806000C0808000C080A000C080C000C080E000C0A00000C0A02000C0A04000C0A06000C0A08000C0A0A000C0A0C000C0A0E000C0C00000C0C02000C0C04000C0C06000
310
C0C08000C0C0A000F0FBFF00A4A0A000808080000000FF0000FF000000FFFF00FF000000FF00FF00FFFF0000FFFFFF00FFFFFFFFFFFFFFFFFFFFFFFFFFFFFFFFFFFFFFFFFFFFFFFFFFFFFFFFFFFFFFFFFFFFFFFFFFFFFFFFFFFFFFFFFFFFFFFFFFFFFFFFFFFFFFFFFFFFFFFFFFFFFFFFFFFFFFFFFFFFFFFFFFFFFFFFFFFFFF
310
FFFFFFFFFFFFFFFFFFFFFFFFFFFFFFFFFFFFFFFFFFFFFFFFFFFFFFFFFFFFFFFFFFFFFFFFFFFFFFFFFFFFFFFFFFFFFFFFFFFFFFFFFFFFFFFFFFFFFFFFFFFFFFFFFFFFFFFFFFFFFFFFFFFFFFFFFFFFFFFFFFFFFFFFFFFFFFFFFFFFFFFFFFFFFFFFFFFFFFFFFFFFFFFFFFFFFFFFFFFFFFFFFFFFFFFFFFFFFFFFFFFFFFFFFFFFFF
310
FFFFFFFFFFFFFFFFFFFFFFFFFFFFFFFFFFFFFFFFFFFFFFFFFFFFFFFFFFFFFFFFFFFFFFFFFFFFFFFFFFFFFFFFFFFFFFFFFFFFFFFFFFFFFFFFFFFFFFFFFFFFFFFFFFFFFFFFFFFFFFFFFFFFFFFFFFFFFFFFFFFFFFFFFFFFFFFFFFFFFFFFFFFFFFFFFFFFFFFFFFFFFFFFFFFFFFFFFFFFFFFFFFFFFFFFFFFFFFFFFFFFFFFFFFFFFF
310
FFFFFFFFFFFFFFFFFFFFFFFFFFFFFFFFFFFFFFFFFFFFFFFFFFFFFFFFFFFFFFFFFFFFFFFFFFFFFFFFFFFFFFFFFFFFFFFFFFFFFFFFFFFFFFFFFFFFFFFFFFFFFFFFFFFFFFFFFFFFFFFFFFFFFFFFFFFFFFFFFFFFFFFFFFFFFF000000000000000000000000000000000000000000000000FFFFFFFFFFFFFFFF0000000000000000
310
00000000000000000000000000000000FFFFFFFFFFFFFFFFFFFFFFFF00000000FF00000000FF000000000000FFFFFFFFFFFFFFFFFFFFFFFFFFFFFFFF00000000000000000000000000000000FFFFFFFFFFFFFFFFFFFFFFFFFF00000000000000000000FF000000000000FF00000000FFFFFFFFFFFFFFFFFFFF000000000000
310
00000000FF000000000000FF00000000FFFFFFFFFFFFFFFFFFFFFFFFFFFFFFFFFFFFFFFFFFFFFFFFFFFFFFFFFFFFFFFFFFFFFFFFFFFFFFFFFFFFFFFFFFFFFFFFFFFFFFFFFFFFFFFFFFFFFFFFFFFFFFFFFFFFFFFFFFFFFFFFFFFFFFFFFFFFFFFFFFFFFFFFFFFFFFFFFFFFFFFFFFFFFFFFFFFFFFFFFFFFFFFFFFFFFFFFFFFFFF
310
FFFFFFFFFFFFFFFFFFFFFFFFFFFFFFFFFFFFFFFFFFFFFFFFFFFFFFFFFFFFFFFFFFFFFFFFFFFFFFFFFFFFFFFFFFFFFFFFFFFFFFFFFFFFFFFFFFFFFFFFFFFFFFFFFFFFFFFFFFFFFFFFFFFFFFFFFFFFFFFFFFFFFFFFFFFFFFFFFFFFFFFFFFFFFFFFFFFFFFFFFFFFFFFFFFFFFFFFFFFFFFFFFFFFFFFFFFFFFFFFFFFFFFFFFFFFFF
310
FFFFFFFFFFFFFFFFFFFFFFFFFFFFFFFFFFFFFFFFFFFFFFFFFFFFFFFFFFFFFFFFFFFFFFFFFFFFFFFFFFFFFFFFFFFFFFFFFFFFFFFFFFFFFFFFFFFFFFFFFFFFFFFFFFFFFFFFFFFFFFFFFFFFFFFFFFFFFFFFFFFFFFFFFFFFFFFFFFFFFFFFFFFFFFFFFFFFFFFFFFFFFFFFFFFFFFFFFFFFFFFFFFFFFFFFFFFFFFFFFFFFFFFFFFFFFF
310
FFFFFFFFFFFFFFFFFFFFFFFFFFFFFFFFFFFFFFFFFFFFFFFFFFFFFFFFFFFFFFFFFFFFFFFFFFFFFFFFFFFFFFFFFFFFFFFFFFFFFFFFFFFFFFFF
102
{BLKREFS
331
453
102
}
  0
BLOCK_RECORD
  5
45D
330
1
100
AcDbSymbolTableRecord
100
AcDbBlockTableRecord
  2
NTC
340
0
310
2800000020000000200000000100080000000000000400000000000000000000000000000000000000000000000080000080000000808000800000008000800080800000C0C0C000C0DCC000F0CAA6000020400000206000002080000020A0000020C0000020E00000400000004020000040400000406000004080000040A0
310
000040C0000040E00000600000006020000060400000606000006080000060A0000060C0000060E00000800000008020000080400000806000008080000080A0000080C0000080E00000A0000000A0200000A0400000A0600000A0800000A0A00000A0C00000A0E00000C0000000C0200000C0400000C0600000C0800000C0
310
A00000C0C00000C0E00000E0000000E0200000E0400000E0600000E0800000E0A00000E0C00000E0E00040000000400020004000400040006000400080004000A0004000C0004000E00040200000402020004020400040206000402080004020A0004020C0004020E000404000004040200040404000404060004040800040
310
40A0004040C0004040E00040600000406020004060400040606000406080004060A0004060C0004060E00040800000408020004080400040806000408080004080A0004080C0004080E00040A0000040A0200040A0400040A0600040A0800040A0A00040A0C00040A0E00040C0000040C0200040C0400040C0600040C08000
310
40C0A00040C0C00040C0E00040E0000040E0200040E0400040E0600040E0800040E0A00040E0C00040E0E00080000000800020008000400080006000800080008000A0008000C0008000E00080200000802020008020400080206000802080008020A0008020C0008020E00080400000804020008040400080406000804080
310
008040A0008040C0008040E00080600000806020008060400080606000806080008060A0008060C0008060E00080800000808020008080400080806000808080008080A0008080C0008080E00080A0000080A0200080A0400080A0600080A0800080A0A00080A0C00080A0E00080C0000080C0200080C0400080C0600080C0
310
800080C0A00080C0C00080C0E00080E0000080E0200080E0400080E0600080E0800080E0A00080E0C00080E0E000C0000000C0002000C0004000C0006000C0008000C000A000C000C000C000E000C0200000C0202000C0204000C0206000C0208000C020A000C020C000C020E000C0400000C0402000C0404000C0406000C0
310
408000C040A000C040C000C040E000C0600000C0602000C0604000C0606000C0608000C060A000C060C000C060E000C0800000C0802000C0804000C0806000C0808000C080A000C080C000C080E000C0A00000C0A02000C0A04000C0A06000C0A08000C0A0A000C0A0C000C0A0E000C0C00000C0C02000C0C04000C0C06000
310
C0C08000C0C0A000F0FBFF00A4A0A000808080000000FF0000FF000000FFFF00FF000000FF00FF00FFFF0000FFFFFF00FFFFFFFFFFFFFFFFFFFFFFFFFFFFFFFFFFFFFFFFFFFFFFFFFFFFFFFFFFFFFFFFFFFFFFFFFFFFFFFFFFFFFFFFFFFFFFFFFFFFFFFFFFFFFFFFFFFFFFFFFFFFFFFFFFFFFFFFFFFFFFFFFFFFFFFFFFFFFF
310
FFFFFFFFFFFFFFFFFFFFFFFFFFFFFFFFFFFFFFFFFFFFFFFFFFFFFFFFFFFFFFFFFFFFFFFFFFFFFFFFFFFFFFFFFFFFFFFFFFFFFFFFFFFFFFFFFFFFFFFFFFFFFFFFFFFFFFFFFFFFFFFFFFFFFFFFFFFFFFFFFFFFFFFFFFFFFFFFFFFFFFFFFFFFFFFFFFFFFFFFFFFFFFFFFFFFFFFFFFFFFFFFFFFFFFFFFFFFFFFFFFFFFFFFFFFFFF
310
FFFFFFFFFFFFFFFFFFFFFFFFFFFFFFFFFFFFFFFFFFFFFFFFFFFFFFFFFFFFFFFFFFFFFFFFFFFFFFFFFFFFFFFFFFFFFFFFFFFFFFFFFFFFFFFFFFFFFFFFFFFFFFFFFFFFFFFFFFFFFFFFFFFFFFFFFFFFFFFFFFFFFFFFFFFFFFFFFFFFFFFFFFFFFFFFFFFFFFFFFFFFFFFFFFFFFFFFFFFFFFFFFFFFFFFFFFFFFFFFFFFFFFFFFFFFFF
310
FFFFFFFFFFFFFFFFFFFFFFFFFFFFFFFFFFFFFFFF000000000000000000000000000000000000000000000000000000000000FFFF00FF0000000000000000FFFFFFFFFFFFFFFFFFFFFFFFFFFFFFFFFFFFFF00FFFF00FF0000000000000000FFFFFFFFFFFFFFFFFFFFFFFFFFFFFFFFFFFFFF00FFFF00FF000000000000000000
310
00000000000000000000000000FFFFFFFFFF00FFFF00FF0000000000000000000000000000000000000000000000000000FF00FFFF00FF0000000000000000000000000000000000000000000000000000FF00FFFF00FF0000000000000000000000000000000000000000000000000000FF00FFFF00FF0000000000000000
310
00000000000000000000000000000000FFFFFF00FFFF00FF0000000000FFFFFFFFFFFFFFFFFFFFFFFFFFFFFFFFFFFFFFFFFFFF00FFFF000000000000000000000000000000000000000000000000000000000000FFFFFFFFFFFFFFFFFFFFFFFFFFFFFFFFFFFFFFFFFFFFFFFFFFFFFFFFFFFFFFFFFFFFFFFFFFFFFFFFFFFFFF
310
FFFFFFFFFFFFFFFFFFFFFFFFFFFFFFFFFFFFFFFFFFFFFFFFFFFFFFFFFFFFFFFFFFFFFFFFFFFFFFFFFFFFFFFFFFFFFFFFFFFFFFFFFFFFFFFFFFFFFFFFFFFFFFFFFFFFFFFFFFFFFFFFFFFFFFFFFFFFFFFFFFFFFFFFFFFFFFFFFFFFFFFFFFFFFFFFFFFFFFFFFFFFFFFFFFFFFFFFFFFFFFFFFFFFFFFFFFFFFFFFFFFFFFFFFFFFFF
310
FFFFFFFFFFFFFFFFFFFFFFFFFFFFFFFFFFFFFFFFFFFFFFFFFFFFFFFFFFFFFFFFFFFFFFFFFFFFFFFFFFFFFFFFFFFFFFFFFFFFFFFFFFFFFFFFFFFFFFFFFFFFFFFFFFFFFFFFFFFFFFFFFFFFFFFFFFFFFFFFFFFFFFFFFFFFFFFFFFFFFFFFFFFFFFFFFFFFFFFFFFFFFFFFFFFFFFFFFFFFFFFFFFFFFFFFFFFFFFFFFFFFFFFFFFFFFF
310
FFFFFFFFFFFFFFFFFFFFFFFFFFFFFFFFFFFFFFFFFFFFFFFFFFFFFFFFFFFFFFFFFFFFFFFFFFFFFFFFFFFFFFFFFFFFFFFFFFFFFFFFFFFFFFFF
102
{BLKREFS
331
468
102
}
  0
BLOCK_RECORD
  5
4CC
330
1
100
AcDbSymbolTableRecord
100
AcDbBlockTableRecord
  2
*U18
340
0
  0
BLOCK_RECORD
  5
50D
330
1
100
AcDbSymbolTableRecord
100
AcDbBlockTableRecord
  2
GENAXEH
340
0
  0
ENDTAB
  0
ENDSEC
  0
SECTION
  2
BLOCKS
  0
BLOCK
  5
1F
330
1E
100
AcDbEntity
  8
0
100
AcDbBlockBegin
  2
*Model_Space
 70
     0
 10
0.0
 20
0.0
 30
0.0
  3
*Model_Space
  1

  0
ENDBLK
  5
20
330
1E
100
AcDbEntity
  8
0
100
AcDbBlockEnd
  0
BLOCK
  5
1B
330
1A
100
AcDbEntity
 67
     1
  8
0
100
AcDbBlockBegin
  2
*Paper_Space
 70
     0
 10
0.0
 20
0.0
 30
0.0
  3
*Paper_Space
  1

  0
ENDBLK
  5
1C
330
1A
100
AcDbEntity
 67
     1
  8
0
100
AcDbBlockEnd
  0
BLOCK
  5
3DA
330
3D7
100
AcDbEntity
  8
0
 62
     7
100
AcDbBlockBegin
  2
AI9-BLK14
 70
     0
 10
0.0
 20
0.0
 30
0.0
  3
AI9-BLK14
  1

  0
SPLINE
  5
3D8
330
3D7
100
AcDbEntity
  8
LAYER_1
 62
     7
100
AcDbSpline
210
0.0
220
0.0
230
1.0
 70
    11
 71
     3
 72
    23
 73
    19
 74
     0
 42
0.0000000001
 43
0.0000000001
 40
0.0
 40
0.0
 40
0.0
 40
0.0
 40
1.0
 40
1.0
 40
1.0
 40
2.0
 40
2.0
 40
2.0
 40
3.0
 40
3.0
 40
3.0
 40
4.0
 40
4.0
 40
4.0
 40
5.0
 40
5.0
 40
5.0
 40
6.0
 40
6.0
 40
6.0
 40
6.0
 10
-10.90321044921874
 20
10.88107571072048
 30
0.0
 10
-10.90321044921874
 20
10.88107571072048
 30
0.0
 10
-10.90321044921874
 20
-10.88107571072048
 30
0.0
 10
-10.90321044921874
 20
-10.88107571072048
 30
0.0
 10
-10.90321044921874
 20
-10.88107571072048
 30
0.0
 10
1.752692328559025
 20
-10.88107571072048
 30
0.0
 10
1.752692328559025
 20
-10.88107571072048
 30
0.0
 10
3.280592176649305
 20
-10.88107571072048
 30
0.0
 10
10.90321044921874
 20
-10.32383151584201
 30
0.0
 10
10.90321044921874
 20
0.6792867024739583
 30
0.0
 10
10.90321044921874
 20
10.61700914171006
 30
0.0
 10
2.773129611545138
 20
10.87952541775172
 30
0.0
 10
2.691136338975693
 20
10.88090345594618
 30
0.0
 10
2.691136338975693
 20
10.88090345594618
 30
0.0
 10
-9.903099229600693
 20
10.88107571072048
 30
0.0
 10
-9.903099229600693
 20
10.88107571072048
 30
0.0
 10
-9.903099229600693
 20
10.88107571072048
 30
0.0
 10
-10.90321044921874
 20
10.88107571072048
 30
0.0
 10
-10.90321044921874
 20
10.88107571072048
 30
0.0
  0
SPLINE
  5
3D9
330
3D7
100
AcDbEntity
  8
LAYER_1
 62
     7
100
AcDbSpline
210
0.0
220
0.0
230
1.0
 70
    11
 71
     3
 72
    20
 73
    16
 74
     0
 42
0.0000000001
 43
0.0000000001
 40
0.0
 40
0.0
 40
0.0
 40
0.0
 40
1.0
 40
1.0
 40
1.0
 40
2.0
 40
2.0
 40
2.0
 40
3.0
 40
3.0
 40
3.0
 40
4.0
 40
4.0
 40
4.0
 40
5.0
 40
5.0
 40
5.0
 40
5.0
 10
2.672877332899305
 20
8.881197781032986
 30
0.0
 10
2.905421278211805
 20
8.874307590060762
 30
0.0
 10
8.902988009982637
 20
8.616442192925347
 30
0.0
 10
8.902988009982637
 20
0.6792867024739583
 30
0.0
 10
8.902988009982637
 20
-8.191661919487842
 30
0.0
 10
3.430109320746526
 20
-8.881197781032986
 30
0.0
 10
1.752692328559025
 20
-8.881197781032986
 30
0.0
 10
1.752692328559025
 20
-8.881197781032986
 30
0.0
 10
-7.231427680121528
 20
-8.881197781032986
 30
0.0
 10
-8.902988009982637
 20
-8.881197781032986
 30
0.0
 10
-8.902988009982637
 20
-7.174497477213541
 30
0.0
 10
-8.902988009982637
 20
7.174497477213541
 30
0.0
 10
-8.902988009982637
 20
8.881197781032986
 30
0.0
 10
-7.208690049913191
 20
8.881197781032986
 30
0.0
 10
2.672877332899305
 20
8.881197781032986
 30
0.0
 10
2.672877332899305
 20
8.881197781032986
 30
0.0
  0
ENDBLK
  5
3DB
330
3D7
100
AcDbEntity
  8
0
100
AcDbBlockEnd
  0
BLOCK
  5
3DF
330
3DC
100
AcDbEntity
  8
0
 62
     7
100
AcDbBlockBegin
  2
AI9-BLK13
 70
     0
 10
0.0
 20
0.0
 30
0.0
  3
AI9-BLK13
  1

  0
LWPOLYLINE
  5
3DD
330
3DC
100
AcDbEntity
  8
LAYER_1
 62
     7
100
AcDbPolyline
 90
       12
 70
     1
 43
0.0
 10
-3.792361111111107
 20
10.7376736111111
 10
-2.469444444444443
 20
10.7376736111111
 10
-2.469444444444443
 20
1.874131944444444
 10
2.469444444444443
 20
1.874131944444444
 10
2.469444444444443
 20
10.7376736111111
 10
3.792361111111107
 20
10.7376736111111
 10
3.792361111111107
 20
-10.7376736111111
 10
2.469444444444443
 20
-10.7376736111111
 10
2.469444444444443
 20
-0.6835069444444444
 10
-2.469444444444443
 20
-0.6835069444444444
 10
-2.469444444444443
 20
-10.7376736111111
 10
-3.792361111111107
 20
-10.7376736111111
  0
HATCH
  5
3DE
330
3DC
100
AcDbEntity
  8
LAYER_1
 62
     7
100
AcDbHatch
 10
0.0
 20
0.0
 30
0.0
210
0.0
220
0.0
230
1.0
  2
SOLID
 70
     1
 71
     0
 91
        1
 92
        3
 72
     0
 73
     1
 93
       12
 10
-3.792361111111107
 20
10.7376736111111
 10
-2.469444444444443
 20
10.7376736111111
 10
-2.469444444444443
 20
1.874131944444444
 10
2.469444444444443
 20
1.874131944444444
 10
2.469444444444443
 20
10.7376736111111
 10
3.792361111111107
 20
10.7376736111111
 10
3.792361111111107
 20
-10.7376736111111
 10
2.469444444444443
 20
-10.7376736111111
 10
2.469444444444443
 20
-0.6835069444444444
 10
-2.469444444444443
 20
-0.6835069444444444
 10
-2.469444444444443
 20
-10.7376736111111
 10
-3.792361111111107
 20
-10.7376736111111
 97
        0
 75
     2
 76
     1
 98
        1
 10
0.0
 20
0.0
450
        0
451
        0
460
0.0
461
0.0
452
        0
462
0.0
453
        0
470

  0
ENDBLK
  5
3E0
330
3DC
100
AcDbEntity
  8
0
100
AcDbBlockEnd
  0
BLOCK
  5
3E4
330
3E1
100
AcDbEntity
  8
0
 62
     7
100
AcDbBlockBegin
  2
AI9-BLK11
 70
     0
 10
0.0
 20
0.0
 30
0.0
  3
AI9-BLK11
  1

  0
SPLINE
  5
3E2
330
3E1
100
AcDbEntity
  8
LAYER_1
 62
     7
100
AcDbSpline
210
0.0
220
0.0
230
1.0
 70
    11
 71
     3
 72
    26
 73
    22
 74
     0
 42
0.0000000001
 43
0.0000000001
 40
0.0
 40
0.0
 40
0.0
 40
0.0
 40
1.0
 40
1.0
 40
1.0
 40
2.0
 40
2.0
 40
2.0
 40
3.0
 40
3.0
 40
3.0
 40
4.0
 40
4.0
 40
4.0
 40
5.0
 40
5.0
 40
5.0
 40
6.0
 40
6.0
 40
6.0
 40
7.0
 40
7.0
 40
7.0
 40
7.0
 10
-2.645833333333333
 20
0.9039930555555551
 30
0.0
 10
-2.645833333333333
 20
0.9039930555555551
 30
0.0
 10
-2.645833333333333
 20
8.180034722222217
 30
0.0
 10
-2.645833333333333
 20
8.180034722222217
 30
0.0
 10
-2.645833333333333
 20
8.180034722222217
 30
0.0
 10
0.465087890625
 20
8.180034722222217
 30
0.0
 10
0.465087890625
 20
8.180034722222217
 30
0.0
 10
0.9026150173611108
 20
8.180034722222217
 30
0.0
 10
1.24988064236111
 20
8.034651692708331
 30
0.0
 10
1.506884765625
 20
7.745263671874997
 30
0.0
 10
2.001600477430554
 20
7.194048394097221
 30
0.0
 10
2.248958333333332
 20
6.160519748263887
 30
0.0
 10
2.248958333333332
 20
4.643299696180553
 30
0.0
 10
2.248958333333332
 20
3.232188585069443
 30
0.0
 10
2.072569444444444
 20
2.256537543402775
 30
0.0
 10
1.720480685763888
 20
1.715657552083333
 30
0.0
 10
1.368391927083333
 20
1.174088541666665
 30
0.0
 10
0.8929687499999998
 20
0.9039930555555551
 30
0.0
 10
0.2942111545138888
 20
0.9039930555555551
 30
0.0
 10
0.2942111545138888
 20
0.9039930555555551
 30
0.0
 10
-2.645833333333333
 20
0.9039930555555551
 30
0.0
 10
-2.645833333333333
 20
0.9039930555555551
 30
0.0
  0
SPLINE
  5
3E3
330
3E1
100
AcDbEntity
  8
LAYER_1
 62
     7
100
AcDbSpline
210
0.0
220
0.0
230
1.0
 70
    11
 71
     3
 72
    68
 73
    64
 74
     0
 42
0.0000000001
 43
0.0000000001
 40
0.0
 40
0.0
 40
0.0
 40
0.0
 40
1.0
 40
1.0
 40
1.0
 40
2.0
 40
2.0
 40
2.0
 40
3.0
 40
3.0
 40
3.0
 40
4.0
 40
4.0
 40
4.0
 40
5.0
 40
5.0
 40
5.0
 40
6.0
 40
6.0
 40
6.0
 40
7.0
 40
7.0
 40
7.0
 40
8.0
 40
8.0
 40
8.0
 40
9.0
 40
9.0
 40
9.0
 40
10.0
 40
10.0
 40
10.0
 40
11.0
 40
11.0
 40
11.0
 40
12.0
 40
12.0
 40
12.0
 40
13.0
 40
13.0
 40
13.0
 40
14.0
 40
14.0
 40
14.0
 40
15.0
 40
15.0
 40
15.0
 40
16.0
 40
16.0
 40
16.0
 40
17.0
 40
17.0
 40
17.0
 40
18.0
 40
18.0
 40
18.0
 40
19.0
 40
19.0
 40
19.0
 40
20.0
 40
20.0
 40
20.0
 40
21.0
 40
21.0
 40
21.0
 40
21.0
 10
-3.968749999999998
 20
-10.7376736111111
 30
0.0
 10
-3.968749999999998
 20
-10.7376736111111
 30
0.0
 10
-2.645833333333333
 20
-10.7376736111111
 30
0.0
 10
-2.645833333333333
 20
-10.7376736111111
 30
0.0
 10
-2.645833333333333
 20
-10.7376736111111
 30
0.0
 10
-2.645833333333333
 20
-1.521354166666665
 30
0.0
 10
-2.645833333333333
 20
-1.521354166666665
 30
0.0
 10
-2.645833333333333
 20
-1.521354166666665
 30
0.0
 10
0.2390896267361111
 20
-1.521354166666665
 30
0.0
 10
0.2390896267361111
 20
-1.521354166666665
 30
0.0
 10
0.7599880642361111
 20
-1.521354166666665
 30
0.0
 10
1.143771701388887
 20
-1.65295681423611
 30
0.0
 10
1.390440538194444
 20
-1.916162109374999
 30
0.0
 10
1.816254340277773
 20
-2.39434136284722
 30
0.0
 10
2.04363064236111
 20
-3.335541449652775
 30
0.0
 10
2.072569444444444
 20
-4.739762369791666
 30
0.0
 10
2.072569444444444
 20
-4.739762369791666
 30
0.0
 10
2.160763888888888
 20
-8.324039713541665
 30
0.0
 10
2.160763888888888
 20
-8.324039713541665
 30
0.0
 10
2.18005642361111
 20
-9.163264973958332
 30
0.0
 10
2.202794053819443
 20
-9.728949652777775
 30
0.0
 10
2.227598741319444
 20
-10.02109374999998
 30
0.0
 10
2.252403428819443
 20
-10.31392686631944
 30
0.0
 10
2.28892144097222
 20
-10.55301649305555
 30
0.0
 10
2.33853081597222
 20
-10.7376736111111
 30
0.0
 10
2.33853081597222
 20
-10.7376736111111
 30
0.0
 10
3.968749999999998
 20
-10.7376736111111
 30
0.0
 10
3.968749999999998
 20
-10.7376736111111
 30
0.0
 10
3.968749999999998
 20
-10.7376736111111
 30
0.0
 10
3.968749999999998
 20
-10.25260416666666
 30
0.0
 10
3.968749999999998
 20
-10.25260416666666
 30
0.0
 10
3.766867404513888
 20
-10.05830078125
 30
0.0
 10
3.625618489583333
 20
-9.621462673611112
 30
0.0
 10
3.545692274305555
 20
-8.942089843749997
 30
0.0
 10
3.49470486111111
 20
-8.543836805555555
 30
0.0
 10
3.459564887152775
 20
-7.937499999999999
 30
0.0
 10
3.439583333333333
 20
-7.121701388888887
 30
0.0
 10
3.439583333333333
 20
-7.121701388888887
 30
0.0
 10
3.395486111111106
 20
-4.232644314236106
 30
0.0
 10
3.395486111111106
 20
-4.232644314236106
 30
0.0
 10
3.375504557291666
 20
-2.981385633680555
 30
0.0
 10
3.26870659722222
 20
-2.077392578125
 30
0.0
 10
3.075781249999999
 20
-1.522043185763888
 30
0.0
 10
2.882166883680555
 20
-0.9666937934027776
 30
0.0
 10
2.592089843749999
 20
-0.5188313802083333
 30
0.0
 10
2.204861111111104
 20
-0.1770779079861111
 30
0.0
 10
2.63618706597222
 20
0.3197048611111111
 30
0.0
 10
2.971739366319443
 20
0.9770290798611107
 30
0.0
 10
3.211518012152775
 20
1.79558376736111
 30
0.0
 10
3.451296657986107
 20
2.613449435763888
 30
0.0
 10
3.571874999999999
 20
3.66558159722222
 30
0.0
 10
3.571874999999999
 20
4.951291232638888
 30
0.0
 10
3.571874999999999
 20
7.415912543402777
 30
0.0
 10
3.124701605902775
 20
9.106076388888887
 30
0.0
 10
2.231043836805555
 20
10.02178276909722
 30
0.0
 10
1.759754774305553
 20
10.498583984375
 30
0.0
 10
1.163753255208332
 20
10.7376736111111
 30
0.0
 10
0.443039279513889
 20
10.7376736111111
 30
0.0
 10
0.443039279513889
 20
10.7376736111111
 30
0.0
 10
-3.968749999999998
 20
10.7376736111111
 30
0.0
 10
-3.968749999999998
 20
10.7376736111111
 30
0.0
 10
-3.968749999999998
 20
10.7376736111111
 30
0.0
 10
-3.968749999999998
 20
-10.7376736111111
 30
0.0
 10
-3.968749999999998
 20
-10.7376736111111
 30
0.0
  0
ENDBLK
  5
3E5
330
3E1
100
AcDbEntity
  8
0
100
AcDbBlockEnd
  0
BLOCK
  5
3E8
330
3E6
100
AcDbEntity
  8
0
 62
     7
100
AcDbBlockBegin
  2
AI9-BLK10
 70
     0
 10
0.0
 20
0.0
 30
0.0
  3
AI9-BLK10
  1

  0
SPLINE
  5
3E7
330
3E6
100
AcDbEntity
  8
LAYER_1
 62
     7
100
AcDbSpline
210
0.0
220
0.0
230
1.0
 70
    11
 71
     3
 72
    59
 73
    55
 74
     0
 42
0.0000000001
 43
0.0000000001
 40
0.0
 40
0.0
 40
0.0
 40
0.0
 40
1.0
 40
1.0
 40
1.0
 40
2.0
 40
2.0
 40
2.0
 40
3.0
 40
3.0
 40
3.0
 40
4.0
 40
4.0
 40
4.0
 40
5.0
 40
5.0
 40
5.0
 40
6.0
 40
6.0
 40
6.0
 40
7.0
 40
7.0
 40
7.0
 40
8.0
 40
8.0
 40
8.0
 40
9.0
 40
9.0
 40
9.0
 40
10.0
 40
10.0
 40
10.0
 40
11.0
 40
11.0
 40
11.0
 40
12.0
 40
12.0
 40
12.0
 40
13.0
 40
13.0
 40
13.0
 40
14.0
 40
14.0
 40
14.0
 40
15.0
 40
15.0
 40
15.0
 40
16.0
 40
16.0
 40
16.0
 40
17.0
 40
17.0
 40
17.0
 40
18.0
 40
18.0
 40
18.0
 40
18.0
 10
-4.652256944444443
 20
10.7376736111111
 30
0.0
 10
-4.652256944444443
 20
10.7376736111111
 30
0.0
 10
-2.798795572916666
 20
10.7376736111111
 30
0.0
 10
-2.798795572916666
 20
10.7376736111111
 30
0.0
 10
-2.798795572916666
 20
10.7376736111111
 30
0.0
 10
0.0
 20
-7.419357638888887
 30
0.0
 10
0.0
 20
-7.419357638888887
 30
0.0
 10
0.0
 20
-7.419357638888887
 30
0.0
 10
2.793283420138888
 20
10.7376736111111
 30
0.0
 10
2.793283420138888
 20
10.7376736111111
 30
0.0
 10
2.793283420138888
 20
10.7376736111111
 30
0.0
 10
4.652256944444443
 20
10.7376736111111
 30
0.0
 10
4.652256944444443
 20
10.7376736111111
 30
0.0
 10
4.652256944444443
 20
10.7376736111111
 30
0.0
 10
4.652256944444443
 20
-10.7376736111111
 30
0.0
 10
4.652256944444443
 20
-10.7376736111111
 30
0.0
 10
4.652256944444443
 20
-10.7376736111111
 30
0.0
 10
3.41753472222222
 20
-10.7376736111111
 30
0.0
 10
3.41753472222222
 20
-10.7376736111111
 30
0.0
 10
3.41753472222222
 20
-10.7376736111111
 30
0.0
 10
3.41753472222222
 20
1.936832682291665
 30
0.0
 10
3.41753472222222
 20
1.936832682291665
 30
0.0
 10
3.41753472222222
 20
2.375048828124999
 30
0.0
 10
3.424424913194443
 20
3.101274956597221
 30
0.0
 10
3.439583333333333
 20
4.11482204861111
 30
0.0
 10
3.454052734374998
 20
5.128369140624998
 30
0.0
 10
3.461631944444443
 20
6.214952256944441
 30
0.0
 10
3.461631944444443
 20
7.375260416666666
 30
0.0
 10
3.461631944444443
 20
7.375260416666666
 30
0.0
 10
0.6538791232638889
 20
-10.7376736111111
 30
0.0
 10
0.6538791232638889
 20
-10.7376736111111
 30
0.0
 10
0.6538791232638889
 20
-10.7376736111111
 30
0.0
 10
-0.6628363715277778
 20
-10.7376736111111
 30
0.0
 10
-0.6628363715277778
 20
-10.7376736111111
 30
0.0
 10
-0.6628363715277778
 20
-10.7376736111111
 30
0.0
 10
-3.461631944444443
 20
7.375260416666666
 30
0.0
 10
-3.461631944444443
 20
7.375260416666666
 30
0.0
 10
-3.461631944444443
 20
7.375260416666666
 30
0.0
 10
-3.461631944444443
 20
6.717247178819441
 30
0.0
 10
-3.461631944444443
 20
6.717247178819441
 30
0.0
 10
-3.461631944444443
 20
6.190836588541666
 30
0.0
 10
-3.45474175347222
 20
5.389507378472222
 30
0.0
 10
-3.439583333333333
 20
4.312570529513888
 30
0.0
 10
-3.425113932291666
 20
3.235633680555555
 30
0.0
 10
-3.41753472222222
 20
2.44395073784722
 30
0.0
 10
-3.41753472222222
 20
1.936832682291665
 30
0.0
 10
-3.41753472222222
 20
1.936832682291665
 30
0.0
 10
-3.41753472222222
 20
-10.7376736111111
 30
0.0
 10
-3.41753472222222
 20
-10.7376736111111
 30
0.0
 10
-3.41753472222222
 20
-10.7376736111111
 30
0.0
 10
-4.652256944444443
 20
-10.7376736111111
 30
0.0
 10
-4.652256944444443
 20
-10.7376736111111
 30
0.0
 10
-4.652256944444443
 20
-10.7376736111111
 30
0.0
 10
-4.652256944444443
 20
10.7376736111111
 30
0.0
 10
-4.652256944444443
 20
10.7376736111111
 30
0.0
  0
ENDBLK
  5
3E9
330
3E6
100
AcDbEntity
  8
0
100
AcDbBlockEnd
  0
BLOCK
  5
3ED
330
3EA
100
AcDbEntity
  8
0
 62
     7
100
AcDbBlockBegin
  2
AI9-BLK9
 70
     0
 10
0.0
 20
0.0
 30
0.0
  3
AI9-BLK9
  1

  0
SPLINE
  5
3EB
330
3EA
100
AcDbEntity
  8
LAYER_1
 62
     7
100
AcDbSpline
210
0.0
220
0.0
230
1.0
 70
    11
 71
     3
 72
    29
 73
    25
 74
     0
 42
0.0000000001
 43
0.0000000001
 40
0.0
 40
0.0
 40
0.0
 40
0.0
 40
1.0
 40
1.0
 40
1.0
 40
2.0
 40
2.0
 40
2.0
 40
3.0
 40
3.0
 40
3.0
 40
4.0
 40
4.0
 40
4.0
 40
5.0
 40
5.0
 40
5.0
 40
6.0
 40
6.0
 40
6.0
 40
7.0
 40
7.0
 40
7.0
 40
8.0
 40
8.0
 40
8.0
 40
8.0
 10
0.0668348524305556
 20
-8.753298611111111
 30
0.0
 10
-0.9067491319444444
 20
-8.753298611111111
 30
0.0
 10
-1.60954861111111
 20
-7.936810980902778
 30
0.0
 10
-2.041563585069444
 20
-6.30383572048611
 30
0.0
 10
-2.474267578124999
 20
-4.670860460069443
 30
0.0
 10
-2.689930555555555
 20
-2.664436848958333
 30
0.0
 10
-2.689930555555555
 20
-0.28525390625
 30
0.0
 10
-2.689930555555555
 20
2.68855251736111
 30
0.0
 10
-2.439127604166666
 20
4.938199869791666
 30
0.0
 10
-1.937521701388888
 20
6.464377170138886
 30
0.0
 10
-1.43591579861111
 20
7.989865451388887
 30
0.0
 10
-0.7827256944444444
 20
8.753298611111111
 30
0.0
 10
0.0220486111111111
 20
8.753298611111111
 30
0.0
 10
0.8468044704861108
 20
8.753298611111111
 30
0.0
 10
1.49792751736111
 20
7.982975260416663
 30
0.0
 10
1.974728732638888
 20
6.442328559027776
 30
0.0
 10
2.451529947916665
 20
4.901681857638886
 30
0.0
 10
2.689930555555555
 20
2.868386501736111
 30
0.0
 10
2.689930555555555
 20
0.3438205295138888
 30
0.0
 10
2.689930555555555
 20
-2.045697699652774
 30
0.0
 10
2.483224826388884
 20
-4.15891927083333
 30
0.0
 10
2.071191406249999
 20
-5.996533203124998
 30
0.0
 10
1.65915798611111
 20
-7.834836154513887
 30
0.0
 10
0.9908094618055557
 20
-8.753298611111111
 30
0.0
 10
0.0668348524305556
 20
-8.753298611111111
 30
0.0
  0
SPLINE
  5
3EC
330
3EA
100
AcDbEntity
  8
LAYER_1
 62
     7
100
AcDbSpline
210
0.0
220
0.0
230
1.0
 70
    11
 71
     3
 72
    29
 73
    25
 74
     0
 42
0.0000000001
 43
0.0000000001
 40
0.0
 40
0.0
 40
0.0
 40
0.0
 40
1.0
 40
1.0
 40
1.0
 40
2.0
 40
2.0
 40
2.0
 40
3.0
 40
3.0
 40
3.0
 40
4.0
 40
4.0
 40
4.0
 40
5.0
 40
5.0
 40
5.0
 40
6.0
 40
6.0
 40
6.0
 40
7.0
 40
7.0
 40
7.0
 40
8.0
 40
8.0
 40
8.0
 40
8.0
 10
-0.0289388020833333
 20
11.35503472222222
 30
0.0
 10
-1.317404513888887
 20
11.35503472222222
 30
0.0
 10
-2.28892144097222
 20
10.02798394097222
 30
0.0
 10
-2.94280056423611
 20
7.374571397569441
 30
0.0
 10
-3.450607638888888
 20
5.30613606770833
 30
0.0
 10
-3.704166666666666
 20
2.81877712673611
 30
0.0
 10
-3.704166666666666
 20
-0.0881944444444445
 30
0.0
 10
-3.704166666666666
 20
-3.307291666666666
 30
0.0
 10
-3.406510416666666
 20
-5.97035047743055
 30
0.0
 10
-2.811197916666666
 20
-8.077370876736106
 30
0.0
 10
-2.147672526041664
 20
-10.26293945312499
 30
0.0
 10
-1.229899088541666
 20
-11.35503472222222
 30
0.0
 10
-0.0585666232638889
 20
-11.35503472222222
 30
0.0
 10
1.20027126736111
 20
-11.35503472222222
 30
0.0
 10
2.166276041666665
 20
-10.10653211805555
 30
0.0
 10
2.840136718749998
 20
-7.609526909722221
 30
0.0
 10
3.416156684027776
 20
-5.483213975694441
 30
0.0
 10
3.704166666666666
 20
-2.814643012152775
 30
0.0
 10
3.704166666666666
 20
0.3948079427083333
 30
0.0
 10
3.704166666666666
 20
3.360346137152776
 30
0.0
 10
3.449918619791666
 20
5.793961588541666
 30
0.0
 10
2.94280056423611
 20
7.696343315972222
 30
0.0
 10
2.298567708333333
 20
10.13547092013888
 30
0.0
 10
1.307758246527777
 20
11.35503472222222
 30
0.0
 10
-0.0289388020833333
 20
11.35503472222222
 30
0.0
  0
ENDBLK
  5
3EE
330
3EA
100
AcDbEntity
  8
0
100
AcDbBlockEnd
  0
BLOCK
  5
3F2
330
3EF
100
AcDbEntity
  8
0
 62
     7
100
AcDbBlockBegin
  2
AI9-BLK8
 70
     0
 10
0.0
 20
0.0
 30
0.0
  3
AI9-BLK8
  1

  0
LWPOLYLINE
  5
3F0
330
3EF
100
AcDbEntity
  8
LAYER_1
 62
     7
100
AcDbPolyline
 90
       10
 70
     1
 43
0.0
 10
-3.792361111111107
 20
10.7376736111111
 10
-2.268939887152773
 20
10.7376736111111
 10
2.557638888888888
 20
-6.505718315972222
 10
2.557638888888888
 20
10.7376736111111
 10
3.792361111111107
 20
10.7376736111111
 10
3.792361111111107
 20
-10.7376736111111
 10
2.32612847222222
 20
-10.7376736111111
 10
-2.557638888888888
 20
6.549815538194441
 10
-2.557638888888888
 20
-10.7376736111111
 10
-3.792361111111107
 20
-10.7376736111111
  0
HATCH
  5
3F1
330
3EF
100
AcDbEntity
  8
LAYER_1
 62
     7
100
AcDbHatch
 10
0.0
 20
0.0
 30
0.0
210
0.0
220
0.0
230
1.0
  2
SOLID
 70
     1
 71
     0
 91
        1
 92
        3
 72
     0
 73
     1
 93
       10
 10
-3.792361111111107
 20
10.7376736111111
 10
-2.268939887152773
 20
10.7376736111111
 10
2.557638888888888
 20
-6.505718315972222
 10
2.557638888888888
 20
10.7376736111111
 10
3.792361111111107
 20
10.7376736111111
 10
3.792361111111107
 20
-10.7376736111111
 10
2.32612847222222
 20
-10.7376736111111
 10
-2.557638888888888
 20
6.549815538194441
 10
-2.557638888888888
 20
-10.7376736111111
 10
-3.792361111111107
 20
-10.7376736111111
 97
        0
 75
     2
 76
     1
 98
        1
 10
0.0
 20
0.0
450
        0
451
        0
460
0.0
461
0.0
452
        0
462
0.0
453
        0
470

  0
ENDBLK
  5
3F3
330
3EF
100
AcDbEntity
  8
0
100
AcDbBlockEnd
  0
BLOCK
  5
3F7
330
3F4
100
AcDbEntity
  8
0
 62
     7
100
AcDbBlockBegin
  2
AI9-BLK7
 70
     0
 10
0.0
 20
0.0
 30
0.0
  3
AI9-BLK7
  1

  0
LWPOLYLINE
  5
3F5
330
3F4
100
AcDbEntity
  8
LAYER_1
 62
     7
100
AcDbPolyline
 90
        4
 70
     1
 43
0.0
 10
-0.6614583333333333
 20
10.7376736111111
 10
0.6614583333333333
 20
10.7376736111111
 10
0.6614583333333333
 20
-10.7376736111111
 10
-0.6614583333333333
 20
-10.7376736111111
  0
HATCH
  5
3F6
330
3F4
100
AcDbEntity
  8
LAYER_1
 62
     7
100
AcDbHatch
 10
0.0
 20
0.0
 30
0.0
210
0.0
220
0.0
230
1.0
  2
SOLID
 70
     1
 71
     0
 91
        1
 92
        3
 72
     0
 73
     1
 93
        4
 10
-0.6614583333333333
 20
10.7376736111111
 10
0.6614583333333333
 20
10.7376736111111
 10
0.6614583333333333
 20
-10.7376736111111
 10
-0.6614583333333333
 20
-10.7376736111111
 97
        0
 75
     2
 76
     1
 98
        1
 10
0.0
 20
0.0
450
        0
451
        0
460
0.0
461
0.0
452
        0
462
0.0
453
        0
470

  0
ENDBLK
  5
3F8
330
3F4
100
AcDbEntity
  8
0
100
AcDbBlockEnd
  0
BLOCK
  5
3FB
330
3F9
100
AcDbEntity
  8
0
 62
     7
100
AcDbBlockBegin
  2
AI9-BLK6
 70
     0
 10
0.0
 20
0.0
 30
0.0
  3
AI9-BLK6
  1

  0
SPLINE
  5
3FA
330
3F9
100
AcDbEntity
  8
LAYER_1
 62
     7
100
AcDbSpline
210
0.0
220
0.0
230
1.0
 70
    11
 71
     3
 72
    59
 73
    55
 74
     0
 42
0.0000000001
 43
0.0000000001
 40
0.0
 40
0.0
 40
0.0
 40
0.0
 40
1.0
 40
1.0
 40
1.0
 40
2.0
 40
2.0
 40
2.0
 40
3.0
 40
3.0
 40
3.0
 40
4.0
 40
4.0
 40
4.0
 40
5.0
 40
5.0
 40
5.0
 40
6.0
 40
6.0
 40
6.0
 40
7.0
 40
7.0
 40
7.0
 40
8.0
 40
8.0
 40
8.0
 40
9.0
 40
9.0
 40
9.0
 40
10.0
 40
10.0
 40
10.0
 40
11.0
 40
11.0
 40
11.0
 40
12.0
 40
12.0
 40
12.0
 40
13.0
 40
13.0
 40
13.0
 40
14.0
 40
14.0
 40
14.0
 40
15.0
 40
15.0
 40
15.0
 40
16.0
 40
16.0
 40
16.0
 40
17.0
 40
17.0
 40
17.0
 40
18.0
 40
18.0
 40
18.0
 40
18.0
 10
3.062689887152775
 20
9.168088107638887
 30
0.0
 10
3.735172526041666
 20
7.739062499999997
 30
0.0
 10
4.110687934027776
 20
6.116422526041666
 30
0.0
 10
4.189236111111108
 20
4.299479166666666
 30
0.0
 10
4.189236111111108
 20
4.299479166666666
 30
0.0
 10
2.866319444444443
 20
4.299479166666666
 30
0.0
 10
2.866319444444443
 20
4.299479166666666
 30
0.0
 10
2.720936414930555
 20
5.667871093749997
 30
0.0
 10
2.435682508680555
 20
6.752387152777776
 30
0.0
 10
2.009868706597218
 20
7.553027343749997
 30
0.0
 10
1.584054904513888
 20
8.352978515624997
 30
0.0
 10
0.9839192708333332
 20
8.753298611111111
 30
0.0
 10
0.2101508246527778
 20
8.753298611111111
 30
0.0
 10
-0.7386284722222222
 20
8.753298611111111
 30
0.0
 10
-1.503439670138888
 20
8.010536024305555
 30
0.0
 10
-2.083593749999999
 20
6.526388888888886
 30
0.0
 10
-2.664436848958333
 20
5.042241753472221
 30
0.0
 10
-2.954513888888888
 20
2.767100694444443
 30
0.0
 10
-2.954513888888888
 20
-0.2990342881944444
 30
0.0
 10
-2.954513888888888
 20
-2.811197916666666
 30
0.0
 10
-2.693375651041666
 20
-4.847938368055555
 30
0.0
 10
-2.17041015625
 20
-6.409944661458332
 30
0.0
 10
-1.648133680555553
 20
-7.972639973958332
 30
0.0
 10
-0.8640299479166666
 20
-8.753298611111111
 30
0.0
 10
0.1812120225694444
 20
-8.753298611111111
 30
0.0
 10
1.138948567708333
 20
-8.753298611111111
 30
0.0
 10
1.865174696180553
 20
-7.927853732638887
 30
0.0
 10
2.359201388888884
 20
-6.275585937499998
 30
0.0
 10
2.62998589409722
 20
-5.406043836805555
 30
0.0
 10
2.828423394097221
 20
-4.262272135416666
 30
0.0
 10
2.954513888888888
 20
-2.844270833333331
 30
0.0
 10
2.954513888888888
 20
-2.844270833333331
 30
0.0
 10
4.277430555555555
 20
-2.844270833333331
 30
0.0
 10
4.277430555555555
 20
-2.844270833333331
 30
0.0
 10
4.169943576388888
 20
-5.109765624999996
 30
0.0
 10
3.795117187499998
 20
-7.009391276041665
 30
0.0
 10
3.151573350694443
 20
-8.542458767361106
 30
0.0
 10
2.381249999999999
 20
-10.38834092881943
 30
0.0
 10
1.347721354166665
 20
-11.3109375
 30
0.0
 10
0.0509874131944445
 20
-11.3109375
 30
0.0
 10
-1.07004665798611
 20
-11.3109375
 30
0.0
 10
-2.010557725694444
 20
-10.55577256944443
 30
0.0
 10
-2.771234809027776
 20
-9.04475368923611
 30
0.0
 10
-3.775824652777775
 20
-7.046598307291666
 30
0.0
 10
-4.277430555555555
 20
-3.961170789930555
 30
0.0
 10
-4.277430555555555
 20
0.2115288628472222
 30
0.0
 10
-4.277430555555555
 20
3.379638671874998
 30
0.0
 10
-3.902604166666666
 20
5.977929687499997
 30
0.0
 10
-3.151573350694443
 20
8.005712890624996
 30
0.0
 10
-2.333018663194443
 20
10.20919596354165
 30
0.0
 10
-1.20647243923611
 20
11.3109375
 30
0.0
 10
0.2266872829861111
 20
11.3109375
 30
0.0
 10
1.444873046875
 20
11.3109375
 30
0.0
 10
2.390207248263884
 20
10.59642469618055
 30
0.0
 10
3.062689887152775
 20
9.168088107638887
 30
0.0
  0
ENDBLK
  5
3FC
330
3F9
100
AcDbEntity
  8
0
100
AcDbBlockEnd
  0
BLOCK
  5
400
330
3FD
100
AcDbEntity
  8
0
 62
     7
100
AcDbBlockBegin
  2
AI9-BLK5
 70
     0
 10
0.0
 20
0.0
 30
0.0
  3
AI9-BLK5
  1

  0
SPLINE
  5
3FE
330
3FD
100
AcDbEntity
  8
LAYER_1
 62
     7
100
AcDbSpline
210
0.0
220
0.0
230
1.0
 70
    11
 71
     3
 72
    32
 73
    28
 74
     0
 42
0.0000000001
 43
0.0000000001
 40
0.0
 40
0.0
 40
0.0
 40
0.0
 40
1.0
 40
1.0
 40
1.0
 40
2.0
 40
2.0
 40
2.0
 40
3.0
 40
3.0
 40
3.0
 40
4.0
 40
4.0
 40
4.0
 40
5.0
 40
5.0
 40
5.0
 40
6.0
 40
6.0
 40
6.0
 40
7.0
 40
7.0
 40
7.0
 40
8.0
 40
8.0
 40
8.0
 40
9.0
 40
9.0
 40
9.0
 40
9.0
 10
-2.62378472222222
 20
-8.268229166666666
 30
0.0
 10
-2.62378472222222
 20
-8.268229166666666
 30
0.0
 10
-2.62378472222222
 20
8.180034722222217
 30
0.0
 10
-2.62378472222222
 20
8.180034722222217
 30
0.0
 10
-2.62378472222222
 20
8.180034722222217
 30
0.0
 10
-0.3376193576388888
 20
8.180034722222217
 30
0.0
 10
-0.3376193576388888
 20
8.180034722222217
 30
0.0
 10
0.6972873263888888
 20
8.180034722222217
 30
0.0
 10
1.449007161458333
 20
7.445540364583332
 30
0.0
 10
1.918918185763885
 20
5.977929687499997
 30
0.0
 10
2.388829210069443
 20
4.510319010416666
 30
0.0
 10
2.62378472222222
 20
2.449462890624999
 30
0.0
 10
2.62378472222222
 20
-0.204638671875
 30
0.0
 10
2.62378472222222
 20
-0.8950358072916666
 30
0.0
 10
2.590022786458332
 20
-1.643310546874999
 30
0.0
 10
2.523187934027772
 20
-2.45015190972222
 30
0.0
 10
2.408121744791666
 20
-3.80200737847222
 30
0.0
 10
2.226220703124999
 20
-4.909950086805555
 30
0.0
 10
1.976795789930553
 20
-5.774669053819441
 30
0.0
 10
1.659847005208333
 20
-6.853672960069442
 30
0.0
 10
1.252636718749998
 20
-7.583344184027778
 30
0.0
 10
0.7544759114583333
 20
-7.962304687499997
 30
0.0
 10
0.4664659288194444
 20
-8.166254340277777
 30
0.0
 10
0.1074869791666666
 20
-8.268229166666666
 30
0.0
 10
-0.3231499565972222
 20
-8.268229166666666
 30
0.0
 10
-0.3231499565972222
 20
-8.268229166666666
 30
0.0
 10
-2.62378472222222
 20
-8.268229166666666
 30
0.0
 10
-2.62378472222222
 20
-8.268229166666666
 30
0.0
  0
SPLINE
  5
3FF
330
3FD
100
AcDbEntity
  8
LAYER_1
 62
     7
100
AcDbSpline
210
0.0
220
0.0
230
1.0
 70
    11
 71
     3
 72
    26
 73
    22
 74
     0
 42
0.0000000001
 43
0.0000000001
 40
0.0
 40
0.0
 40
0.0
 40
0.0
 40
1.0
 40
1.0
 40
1.0
 40
2.0
 40
2.0
 40
2.0
 40
3.0
 40
3.0
 40
3.0
 40
4.0
 40
4.0
 40
4.0
 40
5.0
 40
5.0
 40
5.0
 40
6.0
 40
6.0
 40
6.0
 40
7.0
 40
7.0
 40
7.0
 40
7.0
 10
-3.946701388888888
 20
-10.7376736111111
 30
0.0
 10
-3.946701388888888
 20
-10.7376736111111
 30
0.0
 10
-0.0943956163194444
 20
-10.7376736111111
 30
0.0
 10
-0.0943956163194444
 20
-10.7376736111111
 30
0.0
 10
1.546847873263885
 20
-10.7376736111111
 30
0.0
 10
2.705777994791666
 20
-9.11021050347222
 30
0.0
 10
3.381705729166666
 20
-5.854595269097222
 30
0.0
 10
3.757910156249999
 20
-4.01284722222222
 30
0.0
 10
3.946701388888888
 20
-1.951991102430555
 30
0.0
 10
3.946701388888888
 20
0.328662109375
 30
0.0
 10
3.946701388888888
 20
3.281797960069443
 30
0.0
 10
3.622862413194443
 20
5.703700086805552
 30
0.0
 10
2.976562499999998
 20
7.594368489583332
 30
0.0
 10
2.25171440972222
 20
9.689675564236106
 30
0.0
 10
1.233344184027777
 20
10.7376736111111
 30
0.0
 10
-0.0799262152777778
 20
10.7376736111111
 30
0.0
 10
-0.0799262152777778
 20
10.7376736111111
 30
0.0
 10
-3.946701388888888
 20
10.7376736111111
 30
0.0
 10
-3.946701388888888
 20
10.7376736111111
 30
0.0
 10
-3.946701388888888
 20
10.7376736111111
 30
0.0
 10
-3.946701388888888
 20
-10.7376736111111
 30
0.0
 10
-3.946701388888888
 20
-10.7376736111111
 30
0.0
  0
ENDBLK
  5
401
330
3FD
100
AcDbEntity
  8
0
100
AcDbBlockEnd
  0
BLOCK
  5
405
330
402
100
AcDbEntity
  8
0
 62
     7
100
AcDbBlockBegin
  2
AI9-BLK4
 70
     0
 10
0.0
 20
0.0
 30
0.0
  3
AI9-BLK4
  1

  0
SPLINE
  5
403
330
402
100
AcDbEntity
  8
LAYER_1
 62
     7
100
AcDbSpline
210
0.0
220
0.0
230
1.0
 70
    11
 71
     3
 72
    26
 73
    22
 74
     0
 42
0.0000000001
 43
0.0000000001
 40
0.0
 40
0.0
 40
0.0
 40
0.0
 40
1.0
 40
1.0
 40
1.0
 40
2.0
 40
2.0
 40
2.0
 40
3.0
 40
3.0
 40
3.0
 40
4.0
 40
4.0
 40
4.0
 40
5.0
 40
5.0
 40
5.0
 40
6.0
 40
6.0
 40
6.0
 40
7.0
 40
7.0
 40
7.0
 40
7.0
 10
-2.645833333333333
 20
0.9039930555555551
 30
0.0
 10
-2.645833333333333
 20
0.9039930555555551
 30
0.0
 10
-2.645833333333333
 20
8.180034722222217
 30
0.0
 10
-2.645833333333333
 20
8.180034722222217
 30
0.0
 10
-2.645833333333333
 20
8.180034722222217
 30
0.0
 10
0.465087890625
 20
8.180034722222217
 30
0.0
 10
0.465087890625
 20
8.180034722222217
 30
0.0
 10
0.9026150173611108
 20
8.180034722222217
 30
0.0
 10
1.24988064236111
 20
8.034651692708331
 30
0.0
 10
1.506884765625
 20
7.745263671874997
 30
0.0
 10
2.001600477430554
 20
7.194048394097221
 30
0.0
 10
2.248958333333332
 20
6.160519748263887
 30
0.0
 10
2.248958333333332
 20
4.643299696180553
 30
0.0
 10
2.248958333333332
 20
3.232188585069443
 30
0.0
 10
2.072569444444444
 20
2.256537543402775
 30
0.0
 10
1.720480685763888
 20
1.715657552083333
 30
0.0
 10
1.368391927083333
 20
1.174088541666665
 30
0.0
 10
0.8929687499999998
 20
0.9039930555555551
 30
0.0
 10
0.2942111545138888
 20
0.9039930555555551
 30
0.0
 10
0.2942111545138888
 20
0.9039930555555551
 30
0.0
 10
-2.645833333333333
 20
0.9039930555555551
 30
0.0
 10
-2.645833333333333
 20
0.9039930555555551
 30
0.0
  0
SPLINE
  5
404
330
402
100
AcDbEntity
  8
LAYER_1
 62
     7
100
AcDbSpline
210
0.0
220
0.0
230
1.0
 70
    11
 71
     3
 72
    68
 73
    64
 74
     0
 42
0.0000000001
 43
0.0000000001
 40
0.0
 40
0.0
 40
0.0
 40
0.0
 40
1.0
 40
1.0
 40
1.0
 40
2.0
 40
2.0
 40
2.0
 40
3.0
 40
3.0
 40
3.0
 40
4.0
 40
4.0
 40
4.0
 40
5.0
 40
5.0
 40
5.0
 40
6.0
 40
6.0
 40
6.0
 40
7.0
 40
7.0
 40
7.0
 40
8.0
 40
8.0
 40
8.0
 40
9.0
 40
9.0
 40
9.0
 40
10.0
 40
10.0
 40
10.0
 40
11.0
 40
11.0
 40
11.0
 40
12.0
 40
12.0
 40
12.0
 40
13.0
 40
13.0
 40
13.0
 40
14.0
 40
14.0
 40
14.0
 40
15.0
 40
15.0
 40
15.0
 40
16.0
 40
16.0
 40
16.0
 40
17.0
 40
17.0
 40
17.0
 40
18.0
 40
18.0
 40
18.0
 40
19.0
 40
19.0
 40
19.0
 40
20.0
 40
20.0
 40
20.0
 40
21.0
 40
21.0
 40
21.0
 40
21.0
 10
-3.968749999999998
 20
-10.7376736111111
 30
0.0
 10
-3.968749999999998
 20
-10.7376736111111
 30
0.0
 10
-2.645833333333333
 20
-10.7376736111111
 30
0.0
 10
-2.645833333333333
 20
-10.7376736111111
 30
0.0
 10
-2.645833333333333
 20
-10.7376736111111
 30
0.0
 10
-2.645833333333333
 20
-1.521354166666665
 30
0.0
 10
-2.645833333333333
 20
-1.521354166666665
 30
0.0
 10
-2.645833333333333
 20
-1.521354166666665
 30
0.0
 10
0.2390896267361111
 20
-1.521354166666665
 30
0.0
 10
0.2390896267361111
 20
-1.521354166666665
 30
0.0
 10
0.7599880642361111
 20
-1.521354166666665
 30
0.0
 10
1.143771701388887
 20
-1.65295681423611
 30
0.0
 10
1.390440538194444
 20
-1.916162109374999
 30
0.0
 10
1.816254340277773
 20
-2.39434136284722
 30
0.0
 10
2.04363064236111
 20
-3.335541449652775
 30
0.0
 10
2.072569444444444
 20
-4.739762369791666
 30
0.0
 10
2.072569444444444
 20
-4.739762369791666
 30
0.0
 10
2.160763888888888
 20
-8.324039713541665
 30
0.0
 10
2.160763888888888
 20
-8.324039713541665
 30
0.0
 10
2.18005642361111
 20
-9.163264973958332
 30
0.0
 10
2.202794053819443
 20
-9.728949652777775
 30
0.0
 10
2.227598741319444
 20
-10.02109374999998
 30
0.0
 10
2.252403428819443
 20
-10.31392686631944
 30
0.0
 10
2.28892144097222
 20
-10.55301649305555
 30
0.0
 10
2.33853081597222
 20
-10.7376736111111
 30
0.0
 10
2.33853081597222
 20
-10.7376736111111
 30
0.0
 10
3.968749999999998
 20
-10.7376736111111
 30
0.0
 10
3.968749999999998
 20
-10.7376736111111
 30
0.0
 10
3.968749999999998
 20
-10.7376736111111
 30
0.0
 10
3.968749999999998
 20
-10.25260416666666
 30
0.0
 10
3.968749999999998
 20
-10.25260416666666
 30
0.0
 10
3.766867404513888
 20
-10.05830078125
 30
0.0
 10
3.625618489583333
 20
-9.621462673611112
 30
0.0
 10
3.545692274305555
 20
-8.942089843749997
 30
0.0
 10
3.49470486111111
 20
-8.543836805555555
 30
0.0
 10
3.459564887152775
 20
-7.937499999999999
 30
0.0
 10
3.439583333333333
 20
-7.121701388888887
 30
0.0
 10
3.439583333333333
 20
-7.121701388888887
 30
0.0
 10
3.395486111111106
 20
-4.232644314236106
 30
0.0
 10
3.395486111111106
 20
-4.232644314236106
 30
0.0
 10
3.375504557291666
 20
-2.981385633680555
 30
0.0
 10
3.26870659722222
 20
-2.077392578125
 30
0.0
 10
3.075781249999999
 20
-1.522043185763888
 30
0.0
 10
2.882166883680555
 20
-0.9666937934027776
 30
0.0
 10
2.592089843749999
 20
-0.5188313802083333
 30
0.0
 10
2.204861111111104
 20
-0.1770779079861111
 30
0.0
 10
2.63618706597222
 20
0.3197048611111111
 30
0.0
 10
2.971739366319443
 20
0.9770290798611107
 30
0.0
 10
3.211518012152775
 20
1.79558376736111
 30
0.0
 10
3.451296657986107
 20
2.613449435763888
 30
0.0
 10
3.571874999999999
 20
3.66558159722222
 30
0.0
 10
3.571874999999999
 20
4.951291232638888
 30
0.0
 10
3.571874999999999
 20
7.415912543402777
 30
0.0
 10
3.124701605902775
 20
9.106076388888887
 30
0.0
 10
2.231043836805555
 20
10.02178276909722
 30
0.0
 10
1.759754774305553
 20
10.498583984375
 30
0.0
 10
1.163753255208332
 20
10.7376736111111
 30
0.0
 10
0.443039279513889
 20
10.7376736111111
 30
0.0
 10
0.443039279513889
 20
10.7376736111111
 30
0.0
 10
-3.968749999999998
 20
10.7376736111111
 30
0.0
 10
-3.968749999999998
 20
10.7376736111111
 30
0.0
 10
-3.968749999999998
 20
10.7376736111111
 30
0.0
 10
-3.968749999999998
 20
-10.7376736111111
 30
0.0
 10
-3.968749999999998
 20
-10.7376736111111
 30
0.0
  0
ENDBLK
  5
406
330
402
100
AcDbEntity
  8
0
100
AcDbBlockEnd
  0
BLOCK
  5
40A
330
407
100
AcDbEntity
  8
0
 62
     7
100
AcDbBlockBegin
  2
AI9-BLK3
 70
     0
 10
0.0
 20
0.0
 30
0.0
  3
AI9-BLK3
  1

  0
LWPOLYLINE
  5
408
330
407
100
AcDbEntity
  8
LAYER_1
 62
     7
100
AcDbPolyline
 90
        4
 70
     1
 43
0.0
 10
-0.6613722059461809
 20
10.7376736111111
 10
0.6613722059461809
 20
10.7376736111111
 10
0.6613722059461809
 20
-10.7376736111111
 10
-0.6613722059461809
 20
-10.7376736111111
  0
HATCH
  5
409
330
407
100
AcDbEntity
  8
LAYER_1
 62
     7
100
AcDbHatch
 10
0.0
 20
0.0
 30
0.0
210
0.0
220
0.0
230
1.0
  2
SOLID
 70
     1
 71
     0
 91
        1
 92
        3
 72
     0
 73
     1
 93
        4
 10
-0.6613722059461809
 20
10.7376736111111
 10
0.6613722059461809
 20
10.7376736111111
 10
0.6613722059461809
 20
-10.7376736111111
 10
-0.6613722059461809
 20
-10.7376736111111
 97
        0
 75
     2
 76
     1
 98
        1
 10
0.0
 20
0.0
450
        0
451
        0
460
0.0
461
0.0
452
        0
462
0.0
453
        0
470

  0
ENDBLK
  5
40B
330
407
100
AcDbEntity
  8
0
100
AcDbBlockEnd
  0
BLOCK
  5
40F
330
40C
100
AcDbEntity
  8
0
 62
     7
100
AcDbBlockBegin
  2
AI9-BLK2
 70
     0
 10
0.0
 20
0.0
 30
0.0
  3
AI9-BLK2
  1

  0
LWPOLYLINE
  5
40D
330
40C
100
AcDbEntity
  8
LAYER_1
 62
     7
100
AcDbPolyline
 90
        7
 70
     1
 43
0.0
 10
-2.785704210069443
 20
10.7376736111111
 10
0.0
 20
-7.550960286458332
 10
2.771234809027776
 20
10.7376736111111
 10
4.233333333333331
 20
10.7376736111111
 10
0.6910861545138888
 20
-10.7376736111111
 10
-0.7055555555555558
 20
-10.7376736111111
 10
-4.233333333333331
 20
10.7376736111111
  0
HATCH
  5
40E
330
40C
100
AcDbEntity
  8
LAYER_1
 62
     7
100
AcDbHatch
 10
0.0
 20
0.0
 30
0.0
210
0.0
220
0.0
230
1.0
  2
SOLID
 70
     1
 71
     0
 91
        1
 92
        3
 72
     0
 73
     1
 93
        7
 10
-2.785704210069443
 20
10.7376736111111
 10
0.0
 20
-7.550960286458332
 10
2.771234809027776
 20
10.7376736111111
 10
4.233333333333331
 20
10.7376736111111
 10
0.6910861545138888
 20
-10.7376736111111
 10
-0.7055555555555558
 20
-10.7376736111111
 10
-4.233333333333331
 20
10.7376736111111
 97
        0
 75
     2
 76
     1
 98
        1
 10
0.0
 20
0.0
450
        0
451
        0
460
0.0
461
0.0
452
        0
462
0.0
453
        0
470

  0
ENDBLK
  5
410
330
40C
100
AcDbEntity
  8
0
100
AcDbBlockEnd
  0
BLOCK
  5
414
330
411
100
AcDbEntity
  8
0
 62
     7
100
AcDbBlockBegin
  2
AI9-BLK1
 70
     0
 10
0.0
 20
0.0
 30
0.0
  3
AI9-BLK1
  1

  0
LWPOLYLINE
  5
412
330
411
100
AcDbEntity
  8
LAYER_1
 62
     7
100
AcDbPolyline
 90
       12
 70
     1
 43
0.0
 10
-3.571874999999999
 20
10.7376736111111
 10
3.483680555555555
 20
10.7376736111111
 10
3.483680555555555
 20
8.091840277777777
 10
-2.248958333333332
 20
8.091840277777777
 10
-2.248958333333332
 20
1.565451388888888
 10
3.042708333333333
 20
1.565451388888888
 10
3.042708333333333
 20
-0.9039930555555551
 10
-2.248958333333332
 20
-0.9039930555555551
 10
-2.248958333333332
 20
-8.180034722222217
 10
3.571874999999999
 20
-8.180034722222217
 10
3.571874999999999
 20
-10.7376736111111
 10
-3.571874999999999
 20
-10.7376736111111
  0
HATCH
  5
413
330
411
100
AcDbEntity
  8
LAYER_1
 62
     7
100
AcDbHatch
 10
0.0
 20
0.0
 30
0.0
210
0.0
220
0.0
230
1.0
  2
SOLID
 70
     1
 71
     0
 91
        1
 92
        3
 72
     0
 73
     1
 93
       12
 10
-3.571874999999999
 20
10.7376736111111
 10
3.483680555555555
 20
10.7376736111111
 10
3.483680555555555
 20
8.091840277777777
 10
-2.248958333333332
 20
8.091840277777777
 10
-2.248958333333332
 20
1.565451388888888
 10
3.042708333333333
 20
1.565451388888888
 10
3.042708333333333
 20
-0.9039930555555551
 10
-2.248958333333332
 20
-0.9039930555555551
 10
-2.248958333333332
 20
-8.180034722222217
 10
3.571874999999999
 20
-8.180034722222217
 10
3.571874999999999
 20
-10.7376736111111
 10
-3.571874999999999
 20
-10.7376736111111
 97
        0
 75
     2
 76
     1
 98
        1
 10
0.0
 20
0.0
450
        0
451
        0
460
0.0
461
0.0
452
        0
462
0.0
453
        0
470

  0
ENDBLK
  5
415
330
411
100
AcDbEntity
  8
0
100
AcDbBlockEnd
  0
BLOCK
  5
439
330
416
100
AcDbEntity
  8
0
100
AcDbBlockBegin
  2
HD_LLC_logo_OT5
 70
     0
 10
0.0
 20
0.0
 30
0.0
  3
HD_LLC_logo_OT5
  1

  0
SPLINE
  5
417
102
{ACAD_REACTORS
330
437
102
}
330
416
100
AcDbEntity
  8
LAYER_1
 62
     7
100
AcDbSpline
210
0.0
220
0.0
230
1.0
 70
    11
 71
     3
 72
   113
 73
   109
 74
     0
 42
0.0000000001
 43
0.0000000001
 40
0.0
 40
0.0
 40
0.0
 40
0.0
 40
1.0
 40
1.0
 40
1.0
 40
2.0
 40
2.0
 40
2.0
 40
3.0
 40
3.0
 40
3.0
 40
4.0
 40
4.0
 40
4.0
 40
5.0
 40
5.0
 40
5.0
 40
6.0
 40
6.0
 40
6.0
 40
7.0
 40
7.0
 40
7.0
 40
8.0
 40
8.0
 40
8.0
 40
9.0
 40
9.0
 40
9.0
 40
10.0
 40
10.0
 40
10.0
 40
11.0
 40
11.0
 40
11.0
 40
12.0
 40
12.0
 40
12.0
 40
13.0
 40
13.0
 40
13.0
 40
14.0
 40
14.0
 40
14.0
 40
15.0
 40
15.0
 40
15.0
 40
16.0
 40
16.0
 40
16.0
 40
17.0
 40
17.0
 40
17.0
 40
18.0
 40
18.0
 40
18.0
 40
19.0
 40
19.0
 40
19.0
 40
20.0
 40
20.0
 40
20.0
 40
21.0
 40
21.0
 40
21.0
 40
22.0
 40
22.0
 40
22.0
 40
23.0
 40
23.0
 40
23.0
 40
24.0
 40
24.0
 40
24.0
 40
25.0
 40
25.0
 40
25.0
 40
26.0
 40
26.0
 40
26.0
 40
27.0
 40
27.0
 40
27.0
 40
28.0
 40
28.0
 40
28.0
 40
29.0
 40
29.0
 40
29.0
 40
30.0
 40
30.0
 40
30.0
 40
31.0
 40
31.0
 40
31.0
 40
32.0
 40
32.0
 40
32.0
 40
33.0
 40
33.0
 40
33.0
 40
34.0
 40
34.0
 40
34.0
 40
35.0
 40
35.0
 40
35.0
 40
36.0
 40
36.0
 40
36.0
 40
36.0
 10
193.3039632161458
 20
186.1548733181423
 30
0.0
 10
193.3039632161458
 20
186.1860514322916
 30
0.0
 10
193.3039632161458
 20
219.6932223849826
 30
0.0
 10
193.3039632161458
 20
219.6932223849826
 30
0.0
 10
193.3039632161458
 20
219.6932223849826
 30
0.0
 10
193.2974175347219
 20
219.7488606770833
 30
0.0
 10
193.2974175347219
 20
219.7488606770833
 30
0.0
 10
191.5293945312499
 20
235.455740017361
 30
0.0
 10
175.1458984374999
 20
235.2467949761284
 30
0.0
 10
174.9808783637151
 20
235.2428331163193
 30
0.0
 10
174.9808783637151
 20
235.2428331163193
 30
0.0
 10
125.8827555338541
 20
235.2430053710937
 30
0.0
 10
125.8827555338541
 20
235.2430053710937
 30
0.0
 10
125.8827555338541
 20
235.2430053710937
 30
0.0
 10
125.8827555338541
 20
255.5278998480901
 30
0.0
 10
125.8827555338541
 20
255.5278998480901
 30
0.0
 10
125.8827555338541
 20
255.5278998480901
 30
0.0
 10
84.5626247829861
 20
255.5278998480901
 30
0.0
 10
84.5626247829861
 20
255.5278998480901
 30
0.0
 10
84.5626247829861
 20
255.5278998480901
 30
0.0
 10
84.55711263020829
 20
233.7919311523436
 30
0.0
 10
84.55711263020829
 20
233.7919311523436
 30
0.0
 10
84.55711263020829
 20
233.7919311523436
 30
0.0
 10
64.42052951388888
 20
233.7919311523436
 30
0.0
 10
64.42052951388888
 20
233.7919311523436
 30
0.0
 10
64.42052951388888
 20
233.7919311523436
 30
0.0
 10
64.41501736111111
 20
255.5278998480901
 30
0.0
 10
64.41501736111111
 20
255.5278998480901
 30
0.0
 10
64.41501736111111
 20
255.5278998480901
 30
0.0
 10
23.91757541232637
 20
255.5278998480901
 30
0.0
 10
23.91757541232637
 20
255.5278998480901
 30
0.0
 10
23.91757541232637
 20
255.5278998480901
 30
0.0
 10
23.91757541232637
 20
233.2393378363715
 30
0.0
 10
23.91757541232637
 20
233.2393378363715
 30
0.0
 10
23.91757541232637
 20
233.2393378363715
 30
0.0
 10
43.65624999999999
 20
233.2393378363715
 30
0.0
 10
43.65624999999999
 20
233.2393378363715
 30
0.0
 10
43.65624999999999
 20
233.2393378363715
 30
0.0
 10
43.65624999999999
 20
211.5188720703125
 30
0.0
 10
43.65624999999999
 20
211.5188720703125
 30
0.0
 10
43.65624999999999
 20
211.5188720703125
 30
0.0
 10
23.91757541232637
 20
211.5188720703125
 30
0.0
 10
23.91757541232637
 20
211.5188720703125
 30
0.0
 10
23.91757541232637
 20
211.5188720703125
 30
0.0
 10
23.91757541232637
 20
189.2303100585936
 30
0.0
 10
23.91757541232637
 20
189.2303100585936
 30
0.0
 10
23.91757541232637
 20
189.2303100585936
 30
0.0
 10
64.41501736111111
 20
189.2303100585936
 30
0.0
 10
64.41501736111111
 20
189.2303100585936
 30
0.0
 10
64.41501736111111
 20
189.2303100585936
 30
0.0
 10
64.42052951388888
 20
211.069976128472
 30
0.0
 10
64.42052951388888
 20
211.069976128472
 30
0.0
 10
64.42052951388888
 20
211.069976128472
 30
0.0
 10
84.55711263020829
 20
211.069976128472
 30
0.0
 10
84.55711263020829
 20
211.069976128472
 30
0.0
 10
84.55711263020829
 20
211.069976128472
 30
0.0
 10
84.5626247829861
 20
189.2303100585936
 30
0.0
 10
84.5626247829861
 20
189.2303100585936
 30
0.0
 10
84.5626247829861
 20
189.2303100585936
 30
0.0
 10
125.8827555338541
 20
189.2303100585936
 30
0.0
 10
125.8827555338541
 20
189.2303100585936
 30
0.0
 10
125.8827555338541
 20
189.2303100585936
 30
0.0
 10
125.8827555338541
 20
211.5188720703125
 30
0.0
 10
125.8827555338541
 20
211.5188720703125
 30
0.0
 10
125.8827555338541
 20
211.5188720703125
 30
0.0
 10
105.3213921440971
 20
211.5188720703125
 30
0.0
 10
105.3213921440971
 20
211.5188720703125
 30
0.0
 10
105.3213921440971
 20
211.5188720703125
 30
0.0
 10
105.3213921440971
 20
233.2393378363715
 30
0.0
 10
105.3213921440971
 20
233.2393378363715
 30
0.0
 10
105.3213921440971
 20
233.2393378363715
 30
0.0
 10
175.0046495225693
 20
233.243127441406
 30
0.0
 10
175.0046495225693
 20
233.243127441406
 30
0.0
 10
175.6268337673611
 20
233.2560465494791
 30
0.0
 10
189.7165852864583
 20
233.3962619357638
 30
0.0
 10
191.3037407769094
 20
219.5690266927083
 30
0.0
 10
191.3037407769094
 20
219.4332899305555
 30
0.0
 10
191.3037407769094
 20
186.1142211914062
 30
0.0
 10
191.3037407769094
 20
186.1142211914062
 30
0.0
 10
191.3037407769094
 20
186.1142211914062
 30
0.0
 10
191.3051188151039
 20
186.0880384657115
 30
0.0
 10
191.3051188151039
 20
186.0880384657115
 30
0.0
 10
191.3054633246526
 20
186.0787367078991
 30
0.0
 10
191.3109754774304
 20
185.9566080729166
 30
0.0
 10
191.3109754774304
 20
185.7399115668401
 30
0.0
 10
191.3109754774304
 20
184.2090833875865
 30
0.0
 10
191.0488037109374
 20
177.9643310546874
 30
0.0
 10
186.9866916232638
 20
173.5652886284722
 30
0.0
 10
184.2540418836804
 20
170.6064683702255
 30
0.0
 10
180.3224989149304
 20
169.0308539496526
 30
0.0
 10
175.300927734375
 20
168.8825425889756
 30
0.0
 10
175.300927734375
 20
168.8825425889756
 30
0.0
 10
107.0094889322916
 20
168.8828870985243
 30
0.0
 10
107.0094889322916
 20
168.8828870985243
 30
0.0
 10
107.0094889322916
 20
168.8828870985243
 30
0.0
 10
107.0094889322916
 20
166.8830091688368
 30
0.0
 10
107.0094889322916
 20
166.8830091688368
 30
0.0
 10
107.0094889322916
 20
166.8830091688368
 30
0.0
 10
175.3305555555555
 20
166.8830091688368
 30
0.0
 10
175.3305555555555
 20
166.8830091688368
 30
0.0
 10
180.9467502170138
 20
167.0485460069444
 30
0.0
 10
185.3571614583333
 20
168.8448187934026
 30
0.0
 10
188.4687717013888
 20
172.2223904079861
 30
0.0
 10
192.9649658203124
 20
177.1034016927083
 30
0.0
 10
193.3136094835069
 20
183.7202243381076
 30
0.0
 10
193.3136094835069
 20
185.6520616319443
 30
0.0
 10
193.3136094835069
 20
185.9247409396701
 30
0.0
 10
193.3070638020833
 20
186.0868326822916
 30
0.0
 10
193.3039632161458
 20
186.1548733181423
 30
0.0
  0
INSERT
  5
418
102
{ACAD_REACTORS
330
438
102
}
330
416
100
AcDbEntity
  8
LAYER_1
 62
     7
100
AcDbBlockReference
  2
AI9-BLK14
 10
159.5625257703993
 20
200.5118781195744
 30
0.0
  0
INSERT
  5
419
330
416
100
AcDbEntity
  8
LAYER_1
 62
     7
100
AcDbBlockReference
  2
AI9-BLK13
 10
27.69615614149305
 20
179.2145562065971
 30
0.0
 42
0.9200000000000001
  0
INSERT
  5
41A
102
{ACAD_REACTORS
330
425
102
}
330
416
100
AcDbEntity
  8
LAYER_1
 62
     7
100
AcDbBlockReference
  2
AI9-BLK11
 10
44.76591525607638
 20
179.2145562065971
 30
0.0
 42
0.9200000000000001
  0
INSERT
  5
41B
102
{ACAD_REACTORS
330
433
102
}
330
416
100
AcDbEntity
  8
LAYER_1
 62
     7
100
AcDbBlockReference
  2
AI9-BLK10
 10
54.04665798611111
 20
179.2145562065971
 30
0.0
 42
0.9200000000000001
  0
INSERT
  5
41C
102
{ACAD_REACTORS
330
432
102
}
330
416
100
AcDbEntity
  8
LAYER_1
 62
     7
100
AcDbBlockReference
  2
AI9-BLK9
 10
62.79013807508679
 20
179.2145562065971
 30
0.0
 42
0.9
  0
INSERT
  5
41D
330
416
100
AcDbEntity
  8
LAYER_1
 62
     7
100
AcDbBlockReference
  2
AI9-BLK8
 10
71.03046196831595
 20
179.2145562065971
 30
0.0
 42
0.9200000000000001
  0
INSERT
  5
41E
330
416
100
AcDbEntity
  8
LAYER_1
 62
     7
100
AcDbBlockReference
  2
AI9-BLK7
 10
76.93793945312498
 20
179.2145562065971
 30
0.0
 42
0.9200000000000001
  0
INSERT
  5
41F
102
{ACAD_REACTORS
330
426
102
}
330
416
100
AcDbEntity
  8
LAYER_1
 62
     7
100
AcDbBlockReference
  2
AI9-BLK6
 10
82.55602891710069
 20
179.2145562065971
 30
0.0
 42
0.9
  0
INSERT
  5
420
102
{ACAD_REACTORS
330
434
102
}
330
416
100
AcDbEntity
  8
LAYER_1
 62
     7
100
AcDbBlockReference
  2
AI9-BLK5
 10
94.32430284288193
 20
179.2145562065971
 30
0.0
 42
0.9200000000000001
  0
INSERT
  5
421
102
{ACAD_REACTORS
330
435
102
}
330
416
100
AcDbEntity
  8
LAYER_1
 62
     7
100
AcDbBlockReference
  2
AI9-BLK4
 10
103.2081705729166
 20
179.2145562065971
 30
0.0
 42
0.9200000000000001
  0
INSERT
  5
422
330
416
100
AcDbEntity
  8
LAYER_1
 62
     7
100
AcDbBlockReference
  2
AI9-BLK3
 10
108.850978597005
 20
179.2145562065971
 30
0.0
 42
0.9200000000000001
  0
INSERT
  5
423
330
416
100
AcDbEntity
  8
LAYER_1
 62
     7
100
AcDbBlockReference
  2
AI9-BLK2
 10
114.2045708550346
 20
179.2145562065971
 30
0.0
 42
0.9200000000000001
  0
INSERT
  5
424
330
416
100
AcDbEntity
  8
LAYER_1
 62
     7
100
AcDbBlockReference
  2
AI9-BLK1
 10
122.4125108506944
 20
179.2145562065971
 30
0.0
 42
0.9200000000000001
  0
HATCH
  5
425
330
416
100
AcDbEntity
  8
0
  6
Continuous
100
AcDbHatch
 10
0.0
 20
0.0
 30
0.0
210
0.0
220
0.0
230
1.0
  2
SOLID
 70
     1
 71
     1
 91
        2
 92
       16
 93
        1
 72
     4
 94
        3
 73
     0
 74
     0
 95
       26
 96
       22
 40
0.0
 40
0.0
 40
0.0
 40
0.0
 40
1.0
 40
1.0
 40
1.0
 40
2.0
 40
2.0
 40
2.0
 40
3.0
 40
3.0
 40
3.0
 40
4.0
 40
4.0
 40
4.0
 40
5.0
 40
5.0
 40
5.0
 40
6.0
 40
6.0
 40
6.0
 40
7.0
 40
7.0
 40
7.0
 40
7.0
 10
42.12008192274304
 20
180.046229817708
 10
42.12008192274304
 20
180.046229817708
 10
42.12008192274304
 20
186.7401881510414
 10
42.12008192274304
 20
186.7401881510414
 10
42.12008192274304
 20
186.7401881510414
 10
45.23100314670138
 20
186.7401881510414
 10
45.23100314670138
 20
186.7401881510414
 10
45.66853027343749
 20
186.7401881510414
 10
46.01579589843749
 20
186.6064357638887
 10
46.27280002170138
 20
186.3401987847216
 10
46.76751573350694
 20
185.8330807291664
 10
47.01487358940972
 20
184.8822343749995
 10
47.01487358940972
 20
183.4863919270832
 10
47.01487358940972
 20
182.188169704861
 10
46.83848470052082
 20
181.2905707465276
 10
46.48639594184028
 20
180.7929611545137
 10
46.13430718315971
 20
180.2947176649304
 10
45.65888400607638
 20
180.046229817708
 10
45.06012641059028
 20
180.046229817708
 10
45.06012641059028
 20
180.046229817708
 10
42.12008192274304
 20
180.046229817708
 10
42.12008192274304
 20
180.046229817708
 97
        1
330
41A
 92
        1
 93
        1
 72
     4
 94
        3
 73
     0
 74
     0
 95
       68
 96
       64
 40
0.0
 40
0.0
 40
0.0
 40
0.0
 40
1.0
 40
1.0
 40
1.0
 40
2.0
 40
2.0
 40
2.0
 40
3.0
 40
3.0
 40
3.0
 40
4.0
 40
4.0
 40
4.0
 40
5.0
 40
5.0
 40
5.0
 40
6.0
 40
6.0
 40
6.0
 40
7.0
 40
7.0
 40
7.0
 40
8.0
 40
8.0
 40
8.0
 40
9.0
 40
9.0
 40
9.0
 40
10.0
 40
10.0
 40
10.0
 40
11.0
 40
11.0
 40
11.0
 40
12.0
 40
12.0
 40
12.0
 40
13.0
 40
13.0
 40
13.0
 40
14.0
 40
14.0
 40
14.0
 40
15.0
 40
15.0
 40
15.0
 40
16.0
 40
16.0
 40
16.0
 40
17.0
 40
17.0
 40
17.0
 40
18.0
 40
18.0
 40
18.0
 40
19.0
 40
19.0
 40
19.0
 40
20.0
 40
20.0
 40
20.0
 40
21.0
 40
21.0
 40
21.0
 40
21.0
 10
40.79716525607638
 20
169.3358964843748
 10
40.79716525607638
 20
169.3358964843748
 10
42.12008192274304
 20
169.3358964843748
 10
42.12008192274304
 20
169.3358964843748
 10
42.12008192274304
 20
169.3358964843748
 10
42.12008192274304
 20
177.8149103732637
 10
42.12008192274304
 20
177.8149103732637
 10
42.12008192274304
 20
177.8149103732637
 10
45.00500488281249
 20
177.8149103732637
 10
45.00500488281249
 20
177.8149103732637
 10
45.52590332031249
 20
177.8149103732637
 10
45.90968695746528
 20
177.6938359374998
 10
46.15635579427083
 20
177.4516870659716
 10
46.58216959635415
 20
177.0117621527776
 10
46.80954589843749
 20
176.1458580729164
 10
46.83848470052082
 20
174.8539748263887
 10
46.83848470052082
 20
174.8539748263887
 10
46.92667914496527
 20
171.5564396701385
 10
46.92667914496527
 20
171.5564396701385
 10
46.94597167968749
 20
170.7843524305554
 10
46.96870930989581
 20
170.2639225260415
 10
46.99351399739582
 20
169.9951499565971
 10
47.01831868489581
 20
169.725743489583
 10
47.0548366970486
 20
169.5057810329859
 10
47.10444607204859
 20
169.3358964843748
 10
47.10444607204859
 20
169.3358964843748
 10
48.73466525607638
 20
169.3358964843748
 10
48.73466525607638
 20
169.3358964843748
 10
48.73466525607638
 20
169.3358964843748
 10
48.73466525607638
 20
169.7821603732633
 10
48.73466525607638
 20
169.7821603732633
 10
48.53278266059028
 20
169.9609194878471
 10
48.39153374565971
 20
170.3628105468748
 10
48.31160753038194
 20
170.9878335503471
 10
48.26062011718749
 20
171.3542263454858
 10
48.22548014322915
 20
171.9120562065971
 10
48.20549858940971
 20
172.6625909288193
 10
48.20549858940971
 20
172.6625909288193
 10
48.16140136718749
 20
175.3205234374999
 10
48.16140136718749
 20
175.3205234374999
 10
48.14141981336803
 20
176.4716814236109
 10
48.03462185329859
 20
177.3033550347219
 10
47.84169650607638
 20
177.814276475694
 10
47.64808213975693
 20
178.3251979166665
 10
47.35800509982638
 20
178.7372313368054
 10
46.97077636718749
 20
179.0516445312498
 10
47.4021023220486
 20
179.5086846788193
 10
47.73765462239582
 20
180.1134229600693
 10
47.97743326822915
 20
180.866493272569
 10
48.21721191406249
 20
181.6189296874999
 10
48.33779025607638
 20
182.5868912760411
 10
48.33779025607638
 20
183.7697441406248
 10
48.33779025607638
 20
186.0371957465273
 10
47.89061686197913
 20
187.5921464843749
 10
46.99695909288194
 20
188.4345963541665
 10
46.52567003038194
 20
188.8732534722221
 10
45.92966851128472
 20
189.0932159288193
 10
45.20895453559027
 20
189.0932159288193
 10
45.20895453559027
 20
189.0932159288193
 10
40.79716525607638
 20
189.0932159288193
 10
40.79716525607638
 20
189.0932159288193
 10
40.79716525607638
 20
189.0932159288193
 10
40.79716525607638
 20
169.3358964843748
 10
40.79716525607638
 20
169.3358964843748
 97
        0
 75
     0
 76
     1
 98
        0
450
        0
451
        0
460
0.0
461
0.0
452
        0
462
0.0
453
        0
470

  0
HATCH
  5
426
330
416
100
AcDbEntity
  8
0
  6
Continuous
100
AcDbHatch
 10
0.0
 20
0.0
 30
0.0
210
0.0
220
0.0
230
1.0
  2
SOLID
 70
     1
 71
     1
 91
        1
 92
        1
 93
        1
 72
     4
 94
        3
 73
     0
 74
     0
 95
       59
 96
       55
 40
0.0
 40
0.0
 40
0.0
 40
0.0
 40
1.0
 40
1.0
 40
1.0
 40
2.0
 40
2.0
 40
2.0
 40
3.0
 40
3.0
 40
3.0
 40
4.0
 40
4.0
 40
4.0
 40
5.0
 40
5.0
 40
5.0
 40
6.0
 40
6.0
 40
6.0
 40
7.0
 40
7.0
 40
7.0
 40
8.0
 40
8.0
 40
8.0
 40
9.0
 40
9.0
 40
9.0
 40
10.0
 40
10.0
 40
10.0
 40
11.0
 40
11.0
 40
11.0
 40
12.0
 40
12.0
 40
12.0
 40
13.0
 40
13.0
 40
13.0
 40
14.0
 40
14.0
 40
14.0
 40
15.0
 40
15.0
 40
15.0
 40
16.0
 40
16.0
 40
16.0
 40
17.0
 40
17.0
 40
17.0
 40
18.0
 40
18.0
 40
18.0
 40
18.0
 10
85.61871880425345
 20
187.4658355034721
 10
86.29120144314232
 20
186.1797124565971
 10
86.66671685112847
 20
184.7193364800346
 10
86.7452650282118
 20
183.0840874565969
 10
86.7452650282118
 20
183.0840874565969
 10
85.42234836154511
 20
183.0840874565969
 10
85.42234836154511
 20
183.0840874565969
 10
85.27696533203123
 20
184.3156401909719
 10
84.99171142578125
 20
185.2917046440971
 10
84.56589762369791
 20
186.0122808159719
 10
84.14008382161458
 20
186.7322368706594
 10
83.53994818793401
 20
187.0925249565969
 10
82.76617974175342
 20
187.0925249565969
 10
81.81740044487847
 20
187.0925249565969
 10
81.05258924696178
 20
186.4240386284721
 10
80.47243516710068
 20
185.0883062065971
 10
79.89159206814234
 20
183.7525737847219
 10
79.6015150282118
 20
181.7049468315971
 10
79.6015150282118
 20
178.9454253472221
 10
79.6015150282118
 20
176.6844780815969
 10
79.86265326605901
 20
174.8514116753471
 10
80.38561876085069
 20
173.4456060112846
 10
80.90789523654512
 20
172.0391802300344
 10
81.69199896918403
 20
171.3365874565971
 10
82.73724093967013
 20
171.3365874565971
 10
83.69497748480901
 20
171.3365874565971
 10
84.42120361328125
 20
172.0794878472221
 10
84.91523030598958
 20
173.5665288628469
 10
85.18601481119791
 20
174.3491167534719
 10
85.38445231119791
 20
175.3785112847221
 10
85.51054280598959
 20
176.6547124565971
 10
85.51054280598959
 20
176.6547124565971
 10
86.83345947265625
 20
176.6547124565971
 10
86.83345947265625
 20
176.6547124565971
 10
86.72597249348957
 20
174.6157671440971
 10
86.35114610460069
 20
172.9061040581596
 10
85.70760226779514
 20
171.526343315972
 10
84.93727891710069
 20
169.8650493706596
 10
83.90375027126735
 20
169.0347124565971
 10
82.60701633029514
 20
169.0347124565971
 10
81.48598225911458
 20
169.0347124565971
 10
80.54547119140625
 20
169.7143608940971
 10
79.78479410807292
 20
171.0742778862845
 10
78.78020426432292
 20
172.8726177300344
 10
78.27859836154512
 20
175.6495024956596
 10
78.27859836154512
 20
179.4049321831594
 10
78.27859836154512
 20
182.2562310112846
 10
78.65342475043402
 20
184.5946929253469
 10
79.40445556640622
 20
186.4196978081596
 10
80.22301025390625
 20
188.4028325737846
 10
81.34955647786458
 20
189.3943999565971
 10
82.78271620008679
 20
189.3943999565971
 10
84.00090196397568
 20
189.3943999565971
 10
84.94623616536458
 20
188.7513384331594
 10
85.61871880425345
 20
187.4658355034721
 97
        1
330
41F
 75
     0
 76
     1
 98
        1
 10
0.0
 20
0.0
450
        0
451
        0
460
0.0
461
0.0
452
        0
462
0.0
453
        0
470

  0
LINE
  5
427
102
{ACAD_REACTORS
330
436
102
}
330
416
100
AcDbEntity
  8
LAYER_1
 62
     7
100
AcDbLine
 10
34.65766059027778
 20
177.4497853732638
 30
0.0
 11
36.19830729166666
 21
186.1658769531249
 31
0.0
  0
LINE
  5
428
102
{ACAD_REACTORS
330
436
102
}
330
416
100
AcDbEntity
  8
LAYER_1
 62
     7
100
AcDbLine
 10
36.19830729166666
 20
186.1658769531249
 30
0.0
 11
37.67556423611111
 21
177.4497853732638
 31
0.0
  0
LINE
  5
429
102
{ACAD_REACTORS
330
436
102
}
330
416
100
AcDbEntity
  8
LAYER_1
 62
     7
100
AcDbLine
 10
37.67556423611111
 20
177.4497853732638
 30
0.0
 11
34.65766059027778
 21
177.4497853732638
 31
0.0
  0
LINE
  5
42A
102
{ACAD_REACTORS
330
436
102
}
330
416
100
AcDbEntity
  8
LAYER_1
 62
     7
100
AcDbLine
 10
31.83957248263888
 20
169.3358964843748
 30
0.0
 11
33.22450086805555
 21
169.3358964843748
 31
0.0
  0
LINE
  5
42B
102
{ACAD_REACTORS
330
436
102
}
330
416
100
AcDbEntity
  8
LAYER_1
 62
     7
100
AcDbLine
 10
33.22450086805555
 20
169.3358964843748
 30
0.0
 11
34.27043185763887
 21
175.2590353732638
 31
0.0
  0
LINE
  5
42C
102
{ACAD_REACTORS
330
436
102
}
330
416
100
AcDbEntity
  8
LAYER_1
 62
     7
100
AcDbLine
 10
34.27043185763887
 20
175.2590353732638
 30
0.0
 11
38.04694552951389
 21
175.2590353732638
 31
0.0
  0
LINE
  5
42D
102
{ACAD_REACTORS
330
436
102
}
330
416
100
AcDbEntity
  8
LAYER_1
 62
     7
100
AcDbLine
 10
38.04694552951389
 20
175.2590353732638
 30
0.0
 11
39.05015733506942
 21
169.3358964843748
 31
0.0
  0
LINE
  5
42E
102
{ACAD_REACTORS
330
436
102
}
330
416
100
AcDbEntity
  8
LAYER_1
 62
     7
100
AcDbLine
 10
39.05015733506942
 20
169.3358964843748
 30
0.0
 11
40.43508572048611
 21
169.3358964843748
 31
0.0
  0
LINE
  5
42F
102
{ACAD_REACTORS
330
436
102
}
330
416
100
AcDbEntity
  8
LAYER_1
 62
     7
100
AcDbLine
 10
40.43508572048611
 20
169.3358964843748
 30
0.0
 11
36.952783203125
 21
189.0932159288193
 31
0.0
  0
LINE
  5
430
102
{ACAD_REACTORS
330
436
102
}
330
416
100
AcDbEntity
  8
LAYER_1
 62
     7
100
AcDbLine
 10
36.952783203125
 20
189.0932159288193
 30
0.0
 11
35.47828233506943
 21
189.0932159288193
 31
0.0
  0
LINE
  5
431
102
{ACAD_REACTORS
330
436
102
}
330
416
100
AcDbEntity
  8
LAYER_1
 62
     7
100
AcDbLine
 10
35.47828233506943
 20
189.0932159288193
 30
0.0
 11
31.83957248263888
 21
169.3358964843748
 31
0.0
  0
HATCH
  5
432
330
416
100
AcDbEntity
  8
0
  6
Continuous
100
AcDbHatch
 10
0.0
 20
0.0
 30
0.0
210
0.0
220
0.0
230
1.0
  2
SOLID
 70
     1
 71
     1
 91
        2
 92
       16
 93
        1
 72
     4
 94
        3
 73
     0
 74
     0
 95
       29
 96
       25
 40
0.0
 40
0.0
 40
0.0
 40
0.0
 40
1.0
 40
1.0
 40
1.0
 40
2.0
 40
2.0
 40
2.0
 40
3.0
 40
3.0
 40
3.0
 40
4.0
 40
4.0
 40
4.0
 40
5.0
 40
5.0
 40
5.0
 40
6.0
 40
6.0
 40
6.0
 40
7.0
 40
7.0
 40
7.0
 40
8.0
 40
8.0
 40
8.0
 40
8.0
 10
62.85697292751734
 20
171.3365874565971
 10
61.88338894314235
 20
171.3365874565971
 10
61.18058946397566
 20
172.0714263237844
 10
60.74857449001735
 20
173.5411040581594
 10
60.31587049696178
 20
175.0107817925344
 10
60.10020751953123
 20
176.8165630425341
 10
60.10020751953123
 20
178.9578276909721
 10
60.10020751953123
 20
181.6342534722221
 10
60.35101047092013
 20
183.6589360894094
 10
60.85261637369789
 20
185.0324956597219
 10
61.35422227647566
 20
186.4054351128471
 10
62.00741238064235
 20
187.0925249565969
 10
62.81218668619789
 20
187.0925249565969
 10
63.6369425455729
 20
187.0925249565969
 10
64.28806559244789
 20
186.3992339409721
 10
64.76486680772568
 20
185.0126519097221
 10
65.24166802300347
 20
183.6260698784719
 10
65.48006863064235
 20
181.7961040581594
 10
65.48006863064235
 20
179.5239946831596
 10
65.48006863064235
 20
177.3734282769096
 10
65.27336290147568
 20
175.4715288628466
 10
64.86132948133678
 20
173.8176763237846
 10
64.4492960611979
 20
172.1632036675344
 10
63.78094753689235
 20
171.3365874565971
 10
62.85697292751734
 20
171.3365874565971
 97
        1
330
41C
 92
        1
 93
        1
 72
     4
 94
        3
 73
     0
 74
     0
 95
       29
 96
       25
 40
0.0
 40
0.0
 40
0.0
 40
0.0
 40
1.0
 40
1.0
 40
1.0
 40
2.0
 40
2.0
 40
2.0
 40
3.0
 40
3.0
 40
3.0
 40
4.0
 40
4.0
 40
4.0
 40
5.0
 40
5.0
 40
5.0
 40
6.0
 40
6.0
 40
6.0
 40
7.0
 40
7.0
 40
7.0
 40
8.0
 40
8.0
 40
8.0
 40
8.0
 10
62.76119927300346
 20
189.4340874565971
 10
61.47273356119789
 20
189.4340874565971
 10
60.50121663411457
 20
188.2397417534719
 10
59.84733751085068
 20
185.8516704644094
 10
59.3395304361979
 20
183.9900786675344
 10
59.08597140842012
 20
181.7514556206596
 10
59.08597140842012
 20
179.1351812065971
 10
59.08597140842012
 20
176.2379937065971
 10
59.3836276584201
 20
173.8412407769094
 10
59.9789401584201
 20
171.9449224175346
 10
60.6424655490451
 20
169.9779106987846
 10
61.5602389865451
 20
168.9950249565971
 10
62.7315714518229
 20
168.9950249565971
 10
63.9904093424479
 20
168.9950249565971
 10
64.95641411675345
 20
170.1186773003469
 10
65.63027479383679
 20
172.3659819878471
 10
66.20629475911457
 20
174.2796636284719
 10
66.49430474175345
 20
176.6813774956591
 10
66.49430474175345
 20
179.5698833550344
 10
66.49430474175345
 20
182.2388677300341
 10
66.24005669487845
 20
184.4291216362844
 10
65.73293863932289
 20
186.1412651909719
 10
65.08870578342011
 20
188.3364800347219
 10
64.09789632161457
 20
189.4340874565971
 10
62.76119927300346
 20
189.4340874565971
 97
        0
 75
     0
 76
     1
 98
        0
450
        0
451
        0
460
0.0
461
0.0
452
        0
462
0.0
453
        0
470

  0
HATCH
  5
433
330
416
100
AcDbEntity
  8
0
  6
Continuous
100
AcDbHatch
 10
0.0
 20
0.0
 30
0.0
210
0.0
220
0.0
230
1.0
  2
SOLID
 70
     1
 71
     1
 91
        1
 92
        1
 93
        1
 72
     4
 94
        3
 73
     0
 74
     0
 95
       59
 96
       55
 40
0.0
 40
0.0
 40
0.0
 40
0.0
 40
1.0
 40
1.0
 40
1.0
 40
2.0
 40
2.0
 40
2.0
 40
3.0
 40
3.0
 40
3.0
 40
4.0
 40
4.0
 40
4.0
 40
5.0
 40
5.0
 40
5.0
 40
6.0
 40
6.0
 40
6.0
 40
7.0
 40
7.0
 40
7.0
 40
8.0
 40
8.0
 40
8.0
 40
9.0
 40
9.0
 40
9.0
 40
10.0
 40
10.0
 40
10.0
 40
11.0
 40
11.0
 40
11.0
 40
12.0
 40
12.0
 40
12.0
 40
13.0
 40
13.0
 40
13.0
 40
14.0
 40
14.0
 40
14.0
 40
15.0
 40
15.0
 40
15.0
 40
16.0
 40
16.0
 40
16.0
 40
17.0
 40
17.0
 40
17.0
 40
18.0
 40
18.0
 40
18.0
 40
18.0
 10
49.39440104166666
 20
189.0932159288193
 10
49.39440104166666
 20
189.0932159288193
 10
51.24786241319444
 20
189.0932159288193
 10
51.24786241319444
 20
189.0932159288193
 10
51.24786241319444
 20
189.0932159288193
 10
54.04665798611111
 20
172.3887471788193
 10
54.04665798611111
 20
172.3887471788193
 10
54.04665798611111
 20
172.3887471788193
 10
56.83994140624999
 20
189.0932159288193
 10
56.83994140624999
 20
189.0932159288193
 10
56.83994140624999
 20
189.0932159288193
 10
58.69891493055553
 20
189.0932159288193
 10
58.69891493055553
 20
189.0932159288193
 10
58.69891493055553
 20
189.0932159288193
 10
58.69891493055553
 20
169.3358964843748
 10
58.69891493055553
 20
169.3358964843748
 10
58.69891493055553
 20
169.3358964843748
 10
57.46419270833333
 20
169.3358964843748
 10
57.46419270833333
 20
169.3358964843748
 10
57.46419270833333
 20
169.3358964843748
 10
57.46419270833333
 20
180.9964422743054
 10
57.46419270833333
 20
180.9964422743054
 10
57.46419270833333
 20
181.3996011284721
 10
57.47108289930555
 20
182.0677291666664
 10
57.48624131944444
 20
183.0001924913193
 10
57.50071072048609
 20
183.9326558159721
 10
57.50828993055553
 20
184.932312282986
 10
57.50828993055553
 20
185.9997957899304
 10
57.50828993055553
 20
185.9997957899304
 10
54.700537109375
 20
169.3358964843748
 10
54.700537109375
 20
169.3358964843748
 10
54.700537109375
 20
169.3358964843748
 10
53.38382161458333
 20
169.3358964843748
 10
53.38382161458333
 20
169.3358964843748
 10
53.38382161458333
 20
169.3358964843748
 10
50.58502604166665
 20
185.9997957899304
 10
50.58502604166665
 20
185.9997957899304
 10
50.58502604166665
 20
185.9997957899304
 10
50.58502604166665
 20
185.3944236111109
 10
50.58502604166665
 20
185.3944236111109
 10
50.58502604166665
 20
184.9101258680554
 10
50.59191623263888
 20
184.1729029947915
 10
50.60707465277777
 20
183.1821210937498
 10
50.62154405381942
 20
182.1913391927082
 10
50.62912326388889
 20
181.4629908854165
 10
50.62912326388889
 20
180.9964422743054
 10
50.62912326388889
 20
180.9964422743054
 10
50.62912326388889
 20
169.3358964843748
 10
50.62912326388889
 20
169.3358964843748
 10
50.62912326388889
 20
169.3358964843748
 10
49.39440104166666
 20
169.3358964843748
 10
49.39440104166666
 20
169.3358964843748
 10
49.39440104166666
 20
169.3358964843748
 10
49.39440104166666
 20
189.0932159288193
 10
49.39440104166666
 20
189.0932159288193
 97
        1
330
41B
 75
     0
 76
     1
 98
        1
 10
0.0
 20
0.0
450
        0
451
        0
460
0.0
461
0.0
452
        0
462
0.0
453
        0
470

  0
HATCH
  5
434
330
416
100
AcDbEntity
  8
0
  6
Continuous
100
AcDbHatch
 10
0.0
 20
0.0
 30
0.0
210
0.0
220
0.0
230
1.0
  2
SOLID
 70
     1
 71
     1
 91
        2
 92
       16
 93
        1
 72
     4
 94
        3
 73
     0
 74
     0
 95
       32
 96
       28
 40
0.0
 40
0.0
 40
0.0
 40
0.0
 40
1.0
 40
1.0
 40
1.0
 40
2.0
 40
2.0
 40
2.0
 40
3.0
 40
3.0
 40
3.0
 40
4.0
 40
4.0
 40
4.0
 40
5.0
 40
5.0
 40
5.0
 40
6.0
 40
6.0
 40
6.0
 40
7.0
 40
7.0
 40
7.0
 40
8.0
 40
8.0
 40
8.0
 40
9.0
 40
9.0
 40
9.0
 40
9.0
 10
91.70051812065969
 20
171.6077853732634
 10
91.70051812065969
 20
171.6077853732634
 10
91.70051812065969
 20
186.7401881510414
 10
91.70051812065969
 20
186.7401881510414
 10
91.70051812065969
 20
186.7401881510414
 10
93.98668348524305
 20
186.7401881510414
 10
93.98668348524305
 20
186.7401881510414
 10
95.02159016927082
 20
186.7401881510414
 10
95.77331000434028
 20
186.0644533420137
 10
96.24322102864582
 20
184.7142515190969
 10
96.71313205295138
 20
183.3640496961804
 10
96.94808756510417
 20
181.4680620659721
 10
96.94808756510417
 20
179.0262886284719
 10
96.94808756510417
 20
178.3911232638887
 10
96.91432562934028
 20
177.7027105034721
 10
96.84749077690971
 20
176.9604164496524
 10
96.7324245876736
 20
175.7167094184024
 10
96.55052354600693
 20
174.6974021267359
 10
96.30109863281248
 20
173.901860677083
 10
95.98414984809028
 20
172.9091770833332
 10
95.57693956163193
 20
172.2378795572914
 10
95.07877875434026
 20
171.8892358940971
 10
94.79076877170138
 20
171.7016022135415
 10
94.43178982204859
 20
171.6077853732634
 10
94.00115288628471
 20
171.6077853732634
 10
94.00115288628471
 20
171.6077853732634
 10
91.70051812065969
 20
171.6077853732634
 10
91.70051812065969
 20
171.6077853732634
 97
        1
330
420
 92
        1
 93
        1
 72
     4
 94
        3
 73
     0
 74
     0
 95
       26
 96
       22
 40
0.0
 40
0.0
 40
0.0
 40
0.0
 40
1.0
 40
1.0
 40
1.0
 40
2.0
 40
2.0
 40
2.0
 40
3.0
 40
3.0
 40
3.0
 40
4.0
 40
4.0
 40
4.0
 40
5.0
 40
5.0
 40
5.0
 40
6.0
 40
6.0
 40
6.0
 40
7.0
 40
7.0
 40
7.0
 40
7.0
 10
90.37760145399305
 20
169.3358964843748
 10
90.37760145399305
 20
169.3358964843748
 10
94.22990722656248
 20
169.3358964843748
 10
94.22990722656248
 20
169.3358964843748
 10
95.87115071614581
 20
169.3358964843748
 10
97.03008083767359
 20
170.8331625434026
 10
97.70600857204859
 20
173.8283285590274
 10
98.08221299913194
 20
175.5227367621523
 10
98.27100423177082
 20
177.4187243923609
 10
98.27100423177082
 20
179.5169253472221
 10
98.27100423177082
 20
182.233810329861
 10
97.94716525607638
 20
184.4619602864582
 10
97.30086534288195
 20
186.2013752170135
 10
96.57601725260416
 20
188.1290577256939
 10
95.5576470269097
 20
189.0932159288193
 10
94.24437662760416
 20
189.0932159288193
 10
94.24437662760416
 20
189.0932159288193
 10
90.37760145399305
 20
189.0932159288193
 10
90.37760145399305
 20
189.0932159288193
 10
90.37760145399305
 20
189.0932159288193
 10
90.37760145399305
 20
169.3358964843748
 10
90.37760145399305
 20
169.3358964843748
 97
        0
 75
     0
 76
     1
 98
        0
450
        0
451
        0
460
0.0
461
0.0
452
        0
462
0.0
453
        0
470

  0
HATCH
  5
435
330
416
100
AcDbEntity
  8
0
  6
Continuous
100
AcDbHatch
 10
0.0
 20
0.0
 30
0.0
210
0.0
220
0.0
230
1.0
  2
SOLID
 70
     1
 71
     1
 91
        2
 92
       16
 93
        1
 72
     4
 94
        3
 73
     0
 74
     0
 95
       26
 96
       22
 40
0.0
 40
0.0
 40
0.0
 40
0.0
 40
1.0
 40
1.0
 40
1.0
 40
2.0
 40
2.0
 40
2.0
 40
3.0
 40
3.0
 40
3.0
 40
4.0
 40
4.0
 40
4.0
 40
5.0
 40
5.0
 40
5.0
 40
6.0
 40
6.0
 40
6.0
 40
7.0
 40
7.0
 40
7.0
 40
7.0
 10
100.5623372395832
 20
180.046229817708
 10
100.5623372395832
 20
180.046229817708
 10
100.5623372395832
 20
186.7401881510414
 10
100.5623372395832
 20
186.7401881510414
 10
100.5623372395832
 20
186.7401881510414
 10
103.6732584635416
 20
186.7401881510414
 10
103.6732584635416
 20
186.7401881510414
 10
104.1107855902777
 20
186.7401881510414
 10
104.4580512152777
 20
186.6064357638887
 10
104.7150553385415
 20
186.3401987847216
 10
105.2097710503471
 20
185.8330807291664
 10
105.4571289062495
 20
184.8822343749995
 10
105.4571289062495
 20
183.4863919270832
 10
105.4571289062495
 20
182.188169704861
 10
105.280740017361
 20
181.2905707465276
 10
104.9286512586804
 20
180.7929611545137
 10
104.5765624999999
 20
180.2947176649304
 10
104.1011393229166
 20
180.046229817708
 10
103.5023817274304
 20
180.046229817708
 10
103.5023817274304
 20
180.046229817708
 10
100.5623372395832
 20
180.046229817708
 10
100.5623372395832
 20
180.046229817708
 97
        1
330
421
 92
        1
 93
        1
 72
     4
 94
        3
 73
     0
 74
     0
 95
       68
 96
       64
 40
0.0
 40
0.0
 40
0.0
 40
0.0
 40
1.0
 40
1.0
 40
1.0
 40
2.0
 40
2.0
 40
2.0
 40
3.0
 40
3.0
 40
3.0
 40
4.0
 40
4.0
 40
4.0
 40
5.0
 40
5.0
 40
5.0
 40
6.0
 40
6.0
 40
6.0
 40
7.0
 40
7.0
 40
7.0
 40
8.0
 40
8.0
 40
8.0
 40
9.0
 40
9.0
 40
9.0
 40
10.0
 40
10.0
 40
10.0
 40
11.0
 40
11.0
 40
11.0
 40
12.0
 40
12.0
 40
12.0
 40
13.0
 40
13.0
 40
13.0
 40
14.0
 40
14.0
 40
14.0
 40
15.0
 40
15.0
 40
15.0
 40
16.0
 40
16.0
 40
16.0
 40
17.0
 40
17.0
 40
17.0
 40
18.0
 40
18.0
 40
18.0
 40
19.0
 40
19.0
 40
19.0
 40
20.0
 40
20.0
 40
20.0
 40
21.0
 40
21.0
 40
21.0
 40
21.0
 10
99.23942057291661
 20
169.3358964843748
 10
99.23942057291661
 20
169.3358964843748
 10
100.5623372395832
 20
169.3358964843748
 10
100.5623372395832
 20
169.3358964843748
 10
100.5623372395832
 20
169.3358964843748
 10
100.5623372395832
 20
177.8149103732637
 10
100.5623372395832
 20
177.8149103732637
 10
100.5623372395832
 20
177.8149103732637
 10
103.4472601996527
 20
177.8149103732637
 10
103.4472601996527
 20
177.8149103732637
 10
103.9681586371527
 20
177.8149103732637
 10
104.3519422743053
 20
177.6938359374998
 10
104.5986111111109
 20
177.4516870659716
 10
105.0244249131943
 20
177.0117621527776
 10
105.2518012152777
 20
176.1458580729164
 10
105.280740017361
 20
174.8539748263887
 10
105.280740017361
 20
174.8539748263887
 10
105.3689344618053
 20
171.5564396701385
 10
105.3689344618053
 20
171.5564396701385
 10
105.3882269965277
 20
170.7843524305554
 10
105.4109646267359
 20
170.2639225260415
 10
105.4357693142359
 20
169.9951499565971
 10
105.4605740017358
 20
169.725743489583
 10
105.4970920138888
 20
169.5057810329859
 10
105.5467013888887
 20
169.3358964843748
 10
105.5467013888887
 20
169.3358964843748
 10
107.1769205729166
 20
169.3358964843748
 10
107.1769205729166
 20
169.3358964843748
 10
107.1769205729166
 20
169.3358964843748
 10
107.1769205729166
 20
169.7821603732633
 10
107.1769205729166
 20
169.7821603732633
 10
106.9750379774303
 20
169.9609194878471
 10
106.8337890624996
 20
170.3628105468748
 10
106.7538628472221
 20
170.9878335503471
 10
106.7028754340274
 20
171.3542263454858
 10
106.6677354600692
 20
171.9120562065971
 10
106.6477539062496
 20
172.6625909288193
 10
106.6477539062496
 20
172.6625909288193
 10
106.6036566840277
 20
175.3205234374999
 10
106.6036566840277
 20
175.3205234374999
 10
106.5836751302082
 20
176.4716814236109
 10
106.4768771701387
 20
177.3033550347219
 10
106.2839518229166
 20
177.814276475694
 10
106.0903374565971
 20
178.3251979166665
 10
105.8002604166666
 20
178.7372313368054
 10
105.4130316840276
 20
179.0516445312498
 10
105.8443576388885
 20
179.5086846788193
 10
106.179909939236
 20
180.1134229600693
 10
106.4196885850692
 20
180.866493272569
 10
106.6594672309027
 20
181.6189296874999
 10
106.7800455729166
 20
182.5868912760411
 10
106.7800455729166
 20
183.7697441406248
 10
106.7800455729166
 20
186.0371957465273
 10
106.3328721788193
 20
187.5921464843749
 10
105.4392144097221
 20
188.4345963541665
 10
104.9679253472221
 20
188.8732534722221
 10
104.3719238281249
 20
189.0932159288193
 10
103.6512098524303
 20
189.0932159288193
 10
103.6512098524303
 20
189.0932159288193
 10
99.23942057291661
 20
189.0932159288193
 10
99.23942057291661
 20
189.0932159288193
 10
99.23942057291661
 20
189.0932159288193
 10
99.23942057291661
 20
169.3358964843748
 10
99.23942057291661
 20
169.3358964843748
 97
        0
 75
     0
 76
     1
 98
        0
450
        0
451
        0
460
0.0
461
0.0
452
        0
462
0.0
453
        0
470

  0
HATCH
  5
436
330
416
100
AcDbEntity
  8
0
  6
Continuous
100
AcDbHatch
 10
0.0
 20
0.0
 30
0.0
210
0.0
220
0.0
230
1.0
  2
SOLID
 70
     1
 71
     1
 91
        2
 92
        1
 93
        8
 72
     1
 10
35.47828233506943
 20
189.0932159288193
 11
31.83957248263888
 21
169.3358964843748
 72
     1
 10
31.83957248263888
 20
169.3358964843748
 11
33.22450086805555
 21
169.3358964843748
 72
     1
 10
33.22450086805555
 20
169.3358964843748
 11
34.27043185763887
 21
175.2590353732638
 72
     1
 10
34.27043185763887
 20
175.2590353732638
 11
38.04694552951389
 21
175.2590353732638
 72
     1
 10
38.04694552951389
 20
175.2590353732638
 11
39.05015733506942
 21
169.3358964843748
 72
     1
 10
39.05015733506942
 20
169.3358964843748
 11
40.43508572048611
 21
169.3358964843748
 72
     1
 10
40.43508572048611
 20
169.3358964843748
 11
36.952783203125
 21
189.0932159288193
 72
     1
 10
36.952783203125
 20
189.0932159288193
 11
35.47828233506943
 21
189.0932159288193
 97
        8
330
431
330
42A
330
42B
330
42C
330
42D
330
42E
330
42F
330
430
 92
       16
 93
        3
 72
     1
 10
37.67556423611111
 20
177.4497853732638
 11
34.65766059027778
 21
177.4497853732638
 72
     1
 10
34.65766059027778
 20
177.4497853732638
 11
36.19830729166666
 21
186.1658769531249
 72
     1
 10
36.19830729166666
 20
186.1658769531249
 11
37.67556423611111
 21
177.4497853732638
 97
        3
330
429
330
427
330
428
 75
     0
 76
     1
 98
        1
 10
0.0
 20
0.0
450
        0
451
        0
460
0.0
461
0.0
452
        0
462
0.0
453
        0
470

  0
HATCH
  5
437
330
416
100
AcDbEntity
  8
0
  6
Continuous
100
AcDbHatch
 10
0.0
 20
0.0
 30
0.0
210
0.0
220
0.0
230
1.0
  2
SOLID
 70
     1
 71
     1
 91
        1
 92
        1
 93
        1
 72
     4
 94
        3
 73
     0
 74
     0
 95
      113
 96
      109
 40
0.0
 40
0.0
 40
0.0
 40
0.0
 40
1.0
 40
1.0
 40
1.0
 40
2.0
 40
2.0
 40
2.0
 40
3.0
 40
3.0
 40
3.0
 40
4.0
 40
4.0
 40
4.0
 40
5.0
 40
5.0
 40
5.0
 40
6.0
 40
6.0
 40
6.0
 40
7.0
 40
7.0
 40
7.0
 40
8.0
 40
8.0
 40
8.0
 40
9.0
 40
9.0
 40
9.0
 40
10.0
 40
10.0
 40
10.0
 40
11.0
 40
11.0
 40
11.0
 40
12.0
 40
12.0
 40
12.0
 40
13.0
 40
13.0
 40
13.0
 40
14.0
 40
14.0
 40
14.0
 40
15.0
 40
15.0
 40
15.0
 40
16.0
 40
16.0
 40
16.0
 40
17.0
 40
17.0
 40
17.0
 40
18.0
 40
18.0
 40
18.0
 40
19.0
 40
19.0
 40
19.0
 40
20.0
 40
20.0
 40
20.0
 40
21.0
 40
21.0
 40
21.0
 40
22.0
 40
22.0
 40
22.0
 40
23.0
 40
23.0
 40
23.0
 40
24.0
 40
24.0
 40
24.0
 40
25.0
 40
25.0
 40
25.0
 40
26.0
 40
26.0
 40
26.0
 40
27.0
 40
27.0
 40
27.0
 40
28.0
 40
28.0
 40
28.0
 40
29.0
 40
29.0
 40
29.0
 40
30.0
 40
30.0
 40
30.0
 40
31.0
 40
31.0
 40
31.0
 40
32.0
 40
32.0
 40
32.0
 40
33.0
 40
33.0
 40
33.0
 40
34.0
 40
34.0
 40
34.0
 40
35.0
 40
35.0
 40
35.0
 40
36.0
 40
36.0
 40
36.0
 40
36.0
 10
193.3039632161458
 20
186.1548733181423
 10
193.3039632161458
 20
186.1860514322916
 10
193.3039632161458
 20
219.6932223849826
 10
193.3039632161458
 20
219.6932223849826
 10
193.3039632161458
 20
219.6932223849826
 10
193.2974175347219
 20
219.7488606770833
 10
193.2974175347219
 20
219.7488606770833
 10
191.5293945312499
 20
235.455740017361
 10
175.1458984374999
 20
235.2467949761284
 10
174.9808783637151
 20
235.2428331163193
 10
174.9808783637151
 20
235.2428331163193
 10
125.8827555338541
 20
235.2430053710937
 10
125.8827555338541
 20
235.2430053710937
 10
125.8827555338541
 20
235.2430053710937
 10
125.8827555338541
 20
255.5278998480901
 10
125.8827555338541
 20
255.5278998480901
 10
125.8827555338541
 20
255.5278998480901
 10
84.5626247829861
 20
255.5278998480901
 10
84.5626247829861
 20
255.5278998480901
 10
84.5626247829861
 20
255.5278998480901
 10
84.55711263020829
 20
233.7919311523436
 10
84.55711263020829
 20
233.7919311523436
 10
84.55711263020829
 20
233.7919311523436
 10
64.42052951388888
 20
233.7919311523436
 10
64.42052951388888
 20
233.7919311523436
 10
64.42052951388888
 20
233.7919311523436
 10
64.41501736111111
 20
255.5278998480901
 10
64.41501736111111
 20
255.5278998480901
 10
64.41501736111111
 20
255.5278998480901
 10
23.91757541232637
 20
255.5278998480901
 10
23.91757541232637
 20
255.5278998480901
 10
23.91757541232637
 20
255.5278998480901
 10
23.91757541232637
 20
233.2393378363715
 10
23.91757541232637
 20
233.2393378363715
 10
23.91757541232637
 20
233.2393378363715
 10
43.65624999999999
 20
233.2393378363715
 10
43.65624999999999
 20
233.2393378363715
 10
43.65624999999999
 20
233.2393378363715
 10
43.65624999999999
 20
211.5188720703125
 10
43.65624999999999
 20
211.5188720703125
 10
43.65624999999999
 20
211.5188720703125
 10
23.91757541232637
 20
211.5188720703125
 10
23.91757541232637
 20
211.5188720703125
 10
23.91757541232637
 20
211.5188720703125
 10
23.91757541232637
 20
189.2303100585936
 10
23.91757541232637
 20
189.2303100585936
 10
23.91757541232637
 20
189.2303100585936
 10
64.41501736111111
 20
189.2303100585936
 10
64.41501736111111
 20
189.2303100585936
 10
64.41501736111111
 20
189.2303100585936
 10
64.42052951388888
 20
211.069976128472
 10
64.42052951388888
 20
211.069976128472
 10
64.42052951388888
 20
211.069976128472
 10
84.55711263020829
 20
211.069976128472
 10
84.55711263020829
 20
211.069976128472
 10
84.55711263020829
 20
211.069976128472
 10
84.5626247829861
 20
189.2303100585936
 10
84.5626247829861
 20
189.2303100585936
 10
84.5626247829861
 20
189.2303100585936
 10
125.8827555338541
 20
189.2303100585936
 10
125.8827555338541
 20
189.2303100585936
 10
125.8827555338541
 20
189.2303100585936
 10
125.8827555338541
 20
211.5188720703125
 10
125.8827555338541
 20
211.5188720703125
 10
125.8827555338541
 20
211.5188720703125
 10
105.3213921440971
 20
211.5188720703125
 10
105.3213921440971
 20
211.5188720703125
 10
105.3213921440971
 20
211.5188720703125
 10
105.3213921440971
 20
233.2393378363715
 10
105.3213921440971
 20
233.2393378363715
 10
105.3213921440971
 20
233.2393378363715
 10
175.0046495225693
 20
233.243127441406
 10
175.0046495225693
 20
233.243127441406
 10
175.6268337673611
 20
233.2560465494791
 10
189.7165852864583
 20
233.3962619357638
 10
191.3037407769094
 20
219.5690266927083
 10
191.3037407769094
 20
219.4332899305555
 10
191.3037407769094
 20
186.1142211914062
 10
191.3037407769094
 20
186.1142211914062
 10
191.3037407769094
 20
186.1142211914062
 10
191.3051188151039
 20
186.0880384657115
 10
191.3051188151039
 20
186.0880384657115
 10
191.3054633246526
 20
186.0787367078991
 10
191.3109754774304
 20
185.9566080729166
 10
191.3109754774304
 20
185.7399115668401
 10
191.3109754774304
 20
184.2090833875865
 10
191.0488037109374
 20
177.9643310546874
 10
186.9866916232638
 20
173.5652886284722
 10
184.2540418836804
 20
170.6064683702255
 10
180.3224989149304
 20
169.0308539496526
 10
175.300927734375
 20
168.8825425889756
 10
175.300927734375
 20
168.8825425889756
 10
107.0094889322916
 20
168.8828870985243
 10
107.0094889322916
 20
168.8828870985243
 10
107.0094889322916
 20
168.8828870985243
 10
107.0094889322916
 20
166.8830091688368
 10
107.0094889322916
 20
166.8830091688368
 10
107.0094889322916
 20
166.8830091688368
 10
175.3305555555555
 20
166.8830091688368
 10
175.3305555555555
 20
166.8830091688368
 10
180.9467502170138
 20
167.0485460069444
 10
185.3571614583333
 20
168.8448187934026
 10
188.4687717013888
 20
172.2223904079861
 10
192.9649658203124
 20
177.1034016927083
 10
193.3136094835069
 20
183.7202243381076
 10
193.3136094835069
 20
185.6520616319443
 10
193.3136094835069
 20
185.9247409396701
 10
193.3070638020833
 20
186.0868326822916
 10
193.3039632161458
 20
186.1548733181423
 97
        1
330
417
 75
     0
 76
     1
 98
        1
 10
0.0
 20
0.0
450
        0
451
        0
460
0.0
461
0.0
452
        0
462
0.0
453
        0
470

  0
HATCH
  5
438
330
416
100
AcDbEntity
  8
0
  6
Continuous
100
AcDbHatch
 10
0.0
 20
0.0
 30
0.0
210
0.0
220
0.0
230
1.0
  2
SOLID
 70
     1
 71
     1
 91
        2
 92
        1
 93
        1
 72
     4
 94
        3
 73
     0
 74
     0
 95
       23
 96
       19
 40
0.0
 40
0.0
 40
0.0
 40
0.0
 40
1.0
 40
1.0
 40
1.0
 40
2.0
 40
2.0
 40
2.0
 40
3.0
 40
3.0
 40
3.0
 40
4.0
 40
4.0
 40
4.0
 40
5.0
 40
5.0
 40
5.0
 40
6.0
 40
6.0
 40
6.0
 40
6.0
 10
148.6593153211804
 20
211.3929538302948
 10
148.6593153211804
 20
211.3929538302948
 10
148.6593153211804
 20
189.6308024088539
 10
148.6593153211804
 20
189.6308024088539
 10
148.6593153211804
 20
189.6308024088539
 10
161.3152180989583
 20
189.6308024088539
 10
161.3152180989583
 20
189.6308024088539
 10
162.8431179470483
 20
189.6308024088539
 10
170.4657362196178
 20
190.1880466037321
 10
170.4657362196178
 20
201.1911648220483
 10
170.4657362196178
 20
211.1288872612844
 10
162.3356553819444
 20
211.3914035373261
 10
162.2536621093749
 20
211.3927815755205
 10
162.2536621093749
 20
211.3927815755205
 10
149.6594265407986
 20
211.3929538302948
 10
149.6594265407986
 20
211.3929538302948
 10
149.6594265407986
 20
211.3929538302948
 10
148.6593153211804
 20
211.3929538302948
 10
148.6593153211804
 20
211.3929538302948
 97
        1
330
418
 92
       16
 93
        1
 72
     4
 94
        3
 73
     0
 74
     0
 95
       20
 96
       16
 40
0.0
 40
0.0
 40
0.0
 40
0.0
 40
1.0
 40
1.0
 40
1.0
 40
2.0
 40
2.0
 40
2.0
 40
3.0
 40
3.0
 40
3.0
 40
4.0
 40
4.0
 40
4.0
 40
5.0
 40
5.0
 40
5.0
 40
5.0
 10
162.2354031032983
 20
209.3930759006072
 10
162.467947048611
 20
209.3861857096351
 10
168.4655137803819
 20
209.1283203124997
 10
168.4655137803819
 20
201.1911648220483
 10
168.4655137803819
 20
192.3202162000865
 10
162.9926350911458
 20
191.6306803385413
 10
161.3152180989583
 20
191.6306803385413
 10
161.3152180989583
 20
191.6306803385413
 10
152.3310980902776
 20
191.6306803385413
 10
150.6595377604166
 20
191.6306803385413
 10
150.6595377604166
 20
193.3373806423608
 10
150.6595377604166
 20
207.6863755967879
 10
150.6595377604166
 20
209.3930759006072
 10
152.3538357204859
 20
209.3930759006072
 10
162.2354031032983
 20
209.3930759006072
 10
162.2354031032983
 20
209.3930759006072
 97
        0
 75
     0
 76
     1
 98
        0
450
        0
451
        0
460
0.0
461
0.0
452
        0
462
0.0
453
        0
470

  0
ENDBLK
  5
43A
330
416
100
AcDbEntity
  8
0
100
AcDbBlockEnd
  0
BLOCK
  5
43D
330
43B
100
AcDbEntity
  8
0
100
AcDbBlockBegin
  2
HD logo-new
 70
     0
 10
0.0
 20
0.0
 30
0.0
  3
HD logo-new
  1

  0
INSERT
  5
43C
330
43B
100
AcDbEntity
  8
0
 62
     3
100
AcDbBlockReference
  2
HD_LLC_logo_OT5
 10
-27.1607188578505
 20
-68.37367811463031
 30
0.0
 41
0.2999999999999971
 42
0.3000000000000007
 43
0.3
  0
ENDBLK
  5
43E
330
43B
100
AcDbEntity
  8
0
100
AcDbBlockEnd
  0
BLOCK
  5
441
330
43F
100
AcDbEntity
  8
0
100
AcDbBlockBegin
  2
HD Logo
 70
     0
 10
0.0
 20
0.0
 30
0.0
  3
HD Logo
  1

  0
INSERT
  5
440
330
43F
100
AcDbEntity
  8
0
100
AcDbBlockReference
  2
HD logo-new
 10
0.9700256734946606
 20
7.273795608420527
 30
0.0
  0
ENDBLK
  5
442
330
43F
100
AcDbEntity
  8
0
100
AcDbBlockEnd
  0
BLOCK
  5
44C
330
44A
100
AcDbEntity
  8
0
100
AcDbBlockBegin
  2
Harmonic Drive LLC
 70
     0
 10
0.0
 20
0.0
 30
0.0
  3
Harmonic Drive LLC
  1

  0
MTEXT
  5
44B
330
44A
100
AcDbEntity
  8
0
100
AcDbMText
 10
189.3064368747374
 20
-164.4147342669637
 30
0.0
 40
3.5
 41
76.932
 71
     5
 72
     5
  1
Harmonic Drive LLC\P800-921-3332\Pwww.harmonicdrive.net
 73
     1
 44
1.0
  0
ENDBLK
  5
44D
330
44A
100
AcDbEntity
  8
0
100
AcDbBlockEnd
  0
BLOCK
  5
460
330
45D
100
AcDbEntity
  8
0
100
AcDbBlockBegin
  2
NTC
 70
     0
 10
0.0
 20
0.0
 30
0.0
  3
NTC
  1

  0
LWPOLYLINE
  5
45E
330
45D
100
AcDbEntity
  8
0
100
AcDbPolyline
 90
        8
 70
     1
 43
0.0
 10
4.581008201925953
 20
-10.78862239032818
 10
319.3921777697513
 20
-10.78862239032818
 42
-0.4142135623730951
 10
324.9046777697513
 20
-16.30112239032816
 10
324.9046777697513
 20
-117.4075202476924
 42
-0.4142135623730951
 10
319.3921777697513
 20
-122.9200202476925
 10
4.581008201925836
 20
-122.9200202476925
 42
-0.4142135623730951
 10
-0.9314917980741483
 20
-117.4075202476924
 10
-0.9314917980740915
 20
-16.30112239032816
 42
-0.4142135623730951
  0
MTEXT
  5
45F
330
45D
100
AcDbEntity
  8
0
  6
Continuous
370
    30
100
AcDbMText
 10
21.65307678143926
 20
-17.4535155144544
 30
0.0
 40
8.75
 41
294.5432999999998
 71
     1
 72
     5
  3
{\fTxt|b1|i0|c0|p2;Notice:\P\Ftxt.shx|c0;\H0.5714x;All specifications and dimensions shown in the drawing are subject to change without notice. This drawing is the property of Harmonic Drive LLC.   This data is believed to be accurate, however, Harmo
  1
nic Drive LLC assumes no liability for any errors or omissions in the specifications, models, or drawings.\P\PHarmonic Drive LLC\PTel: 800-921-3332\Pwww.harmonicdrive.net}
 73
     1
 44
1.0
  0
ENDBLK
  5
461
330
45D
100
AcDbEntity
  8
0
100
AcDbBlockEnd
  0
BLOCK
  5
4CD
330
4CC
100
AcDbEntity
  8
0
100
AcDbBlockBegin
  2
*U18
 70
     1
 10
0.0
 20
0.0
 30
0.0
  3
*U18
  1

  0
ENDBLK
  5
4CE
330
4CC
100
AcDbEntity
  8
0
100
AcDbBlockEnd
  0
BLOCK
  5
50F
330
50D
100
AcDbEntity
  8
0
100
AcDbBlockBegin
  2
GENAXEH
 70
     0
 10
0.0
 20
0.0
 30
0.0
  3
GENAXEH
  1

  0
LINE
  5
50E
330
50D
100
AcDbEntity
  8
0
100
AcDbLine
 10
-1.0
 20
0.0
 30
0.0
 11
1.0
 21
0.0
 31
0.0
  0
ENDBLK
  5
510
330
50D
100
AcDbEntity
  8
0
100
AcDbBlockEnd
  0
ENDSEC
  0
SECTION
  2
ENTITIES
  0
LINE
  5
33
330
1E
100
AcDbEntity
  8
1
 62
     7
100
AcDbLine
 10
-21.50000074322436
 20
3.097529253357493
 30
0.0
 11
-21.50000074322436
 21
0.0000000000001137
 31
0.0
  0
LINE
  5
34
330
1E
100
AcDbEntity
  8
1
 62
     7
100
AcDbLine
 10
89.0000007432218
 20
63.70000000000004
 30
0.0
 11
87.00000074322321
 21
63.73243243243235
 31
0.0
  0
LINE
  5
35
330
1E
100
AcDbEntity
  8
1
 62
     7
100
AcDbLine
 10
89.50000074322138
 20
63.19999999999993
 30
0.0
 11
89.0000007432218
 21
63.70000000000004
 31
0.0
  0
LINE
  5
36
330
1E
100
AcDbEntity
  8
1
 62
     7
100
AcDbLine
 10
73.50000074322347
 20
63.95135135135115
 30
0.0
 11
73.50000074322347
 21
60.22827015913515
 31
0.0
  0
LINE
  5
37
330
1E
100
AcDbEntity
  8
1
 62
     7
100
AcDbLine
 10
73.50000074322347
 20
60.22827015913515
 30
0.0
 11
89.50000074322149
 21
60.22827015913515
 31
0.0
  0
LINE
  5
38
330
1E
100
AcDbEntity
  8
1
 62
     7
100
AcDbLine
 10
86.00000074322322
 20
64.31502616601995
 30
0.0
 11
86.00000074322322
 21
66.2633437392151
 31
0.0
  0
LINE
  5
39
330
1E
100
AcDbEntity
  8
1
 62
     7
100
AcDbLine
 10
75.00000074322267
 20
64.31502616601995
 30
0.0
 11
75.00000074322267
 21
66.2633437392151
 31
0.0
  0
LINE
  5
3A
330
1E
100
AcDbEntity
  8
1
 62
     7
100
AcDbLine
 10
83.00000074322319
 20
65.5129263224851
 30
0.0
 11
83.00000074322319
 21
72.84903332798013
 31
0.0
  0
LINE
  5
3B
330
1E
100
AcDbEntity
  8
1
 62
     7
100
AcDbLine
 10
78.00000074322319
 20
65.5129263224851
 30
0.0
 11
78.00000074322319
 21
72.84903332798013
 31
0.0
  0
LINE
  5
3C
330
1E
100
AcDbEntity
  8
1
 62
     7
100
AcDbLine
 10
76.7000007432231
 20
77.03094492977903
 30
0.0
 11
76.70000074322297
 21
86.36433379109929
 31
0.0
  0
LINE
  5
3D
330
1E
100
AcDbEntity
  8
1
 62
     7
100
AcDbLine
 10
84.30000074322288
 20
77.03094492977903
 30
0.0
 11
84.30000074322277
 21
86.36433379109929
 31
0.0
  0
LINE
  5
3E
330
1E
100
AcDbEntity
  8
1
 62
     3
100
AcDbLine
 10
85.50000074322319
 20
64.31502616601995
 30
0.0
 11
85.50000074322319
 21
66.09278451847899
 31
0.0
  0
LINE
  5
3F
330
1E
100
AcDbEntity
  8
1
 62
     3
100
AcDbLine
 10
75.50000074322319
 20
64.31502616601995
 30
0.0
 11
75.50000074322319
 21
66.09278451847899
 31
0.0
  0
LINE
  5
40
330
1E
100
AcDbEntity
  8
1
 62
     7
100
AcDbLine
 10
78.00000074322319
 20
61.11126263627011
 30
0.0
 11
83.00000074322319
 21
61.11126263627011
 31
0.0
  0
LINE
  5
41
330
1E
100
AcDbEntity
  8
1
 62
     7
100
AcDbLine
 10
83.00000074322319
 20
61.11126263627011
 30
0.0
 11
84.30000074322315
 21
61.28177870249795
 31
0.0
  0
LINE
  5
42
330
1E
100
AcDbEntity
  8
1
 62
     7
100
AcDbLine
 10
78.00000074322319
 20
61.11126263627011
 30
0.0
 11
76.70000074322317
 21
61.28177870249795
 31
0.0
  0
LINE
  5
43
330
1E
100
AcDbEntity
  8
1
 62
     7
100
AcDbLine
 10
84.30000074322315
 20
61.28177870249795
 30
0.0
 11
87.00000074322321
 21
62.20279849447114
 31
0.0
  0
LINE
  5
44
330
1E
100
AcDbEntity
  8
1
 62
     7
100
AcDbLine
 10
76.70000074322317
 20
61.28177870249795
 30
0.0
 11
74.0000007432232
 21
62.20279849447114
 31
0.0
  0
LINE
  5
45
330
1E
100
AcDbEntity
  8
1
 62
     7
100
AcDbLine
 10
83.00000074322319
 20
63.0675574158231
 30
0.0
 11
84.30000074322315
 21
63.22349118393503
 31
0.0
  0
LINE
  5
46
330
1E
100
AcDbEntity
  8
1
 62
     7
100
AcDbLine
 10
78.00000074322319
 20
63.0675574158231
 30
0.0
 11
76.70000074322317
 21
63.22349118393503
 31
0.0
  0
LINE
  5
47
330
1E
100
AcDbEntity
  8
1
 62
     7
100
AcDbLine
 10
84.30000074322315
 20
63.22349118393503
 30
0.0
 11
87.00000074322321
 21
64.15909379261404
 31
0.0
  0
LINE
  5
48
330
1E
100
AcDbEntity
  8
1
 62
     7
100
AcDbLine
 10
76.70000074322317
 20
63.22349118393503
 30
0.0
 11
74.0000007432232
 21
64.15909379261404
 31
0.0
  0
LINE
  5
49
330
1E
100
AcDbEntity
  8
1
 62
     7
100
AcDbLine
 10
74.0000007432232
 20
64.15909379261404
 30
0.0
 11
74.0000007432232
 21
64.47092886507221
 31
0.0
  0
LINE
  5
4A
330
1E
100
AcDbEntity
  8
1
 62
     7
100
AcDbLine
 10
74.0000007432232
 20
64.47092886507221
 30
0.0
 11
75.00000074322267
 21
64.81744834976712
 31
0.0
  0
LINE
  5
4B
330
1E
100
AcDbEntity
  8
1
 62
     7
100
AcDbLine
 10
87.00000074322321
 20
64.47092886507221
 30
0.0
 11
86.00000074322322
 21
64.81744834976803
 31
0.0
  0
LINE
  5
4C
330
1E
100
AcDbEntity
  8
1
 62
     7
100
AcDbLine
 10
87.00000074322321
 20
64.47092886507221
 30
0.0
 11
87.00000074322321
 21
64.15909379261404
 31
0.0
  0
LINE
  5
4D
330
1E
100
AcDbEntity
  8
1
 62
     7
100
AcDbLine
 10
87.00000074322321
 20
64.15909379261404
 30
0.0
 11
87.00000074322321
 21
62.20279849447114
 31
0.0
  0
LINE
  5
4E
330
1E
100
AcDbEntity
  8
1
 62
     7
100
AcDbLine
 10
76.70000074322317
 20
63.22349118393503
 30
0.0
 11
76.70000074322317
 21
61.28177870249795
 31
0.0
  0
LINE
  5
4F
330
1E
100
AcDbEntity
  8
1
 62
     7
100
AcDbLine
 10
78.00000074322319
 20
63.0675574158231
 30
0.0
 11
78.00000074322319
 21
61.11126263627011
 31
0.0
  0
LINE
  5
50
330
1E
100
AcDbEntity
  8
1
 62
     7
100
AcDbLine
 10
83.00000074322319
 20
63.0675574158231
 30
0.0
 11
83.00000074322319
 21
61.11126263627011
 31
0.0
  0
LINE
  5
51
330
1E
100
AcDbEntity
  8
1
 62
     7
100
AcDbLine
 10
84.30000074322315
 20
63.22349118393503
 30
0.0
 11
84.30000074322315
 21
61.28177870249795
 31
0.0
  0
LINE
  5
52
330
1E
100
AcDbEntity
  8
1
 62
     7
100
AcDbLine
 10
78.00000074322319
 20
63.0675574158231
 30
0.0
 11
83.00000074322319
 21
63.0675574158231
 31
0.0
  0
LINE
  5
53
330
1E
100
AcDbEntity
  8
1
 62
     7
100
AcDbLine
 10
74.0000007432232
 20
64.15909379261404
 30
0.0
 11
74.0000007432232
 21
62.20279849447114
 31
0.0
  0
LINE
  5
54
330
1E
100
AcDbEntity
  8
1
 62
     7
100
AcDbLine
 10
78.00000074322319
 20
65.5129263224851
 30
0.0
 11
83.00000074322319
 21
65.5129263224851
 31
0.0
  0
LINE
  5
55
330
1E
100
AcDbEntity
  8
1
 62
     7
100
AcDbLine
 10
83.00000074322319
 20
65.5129263224851
 30
0.0
 11
84.30000074322315
 21
65.68344238871303
 31
0.0
  0
LINE
  5
56
330
1E
100
AcDbEntity
  8
1
 62
     7
100
AcDbLine
 10
84.30000074322315
 20
65.68344238871303
 30
0.0
 11
87.00000074322321
 21
66.60446218068614
 31
0.0
  0
LINE
  5
57
330
1E
100
AcDbEntity
  8
1
 62
     7
100
AcDbLine
 10
78.00000074322319
 20
65.5129263224851
 30
0.0
 11
76.70000074322317
 21
65.68344238871303
 31
0.0
  0
LINE
  5
58
330
1E
100
AcDbEntity
  8
1
 62
     7
100
AcDbLine
 10
76.70000074322317
 20
65.68344238871303
 30
0.0
 11
74.0000007432232
 21
66.60446218068614
 31
0.0
  0
LINE
  5
59
330
1E
100
AcDbEntity
  8
1
 62
     7
100
AcDbLine
 10
83.00000074322319
 20
72.84903332798013
 30
0.0
 11
84.30000074322297
 21
73.00496709609411
 31
0.0
  0
LINE
  5
5A
330
1E
100
AcDbEntity
  8
1
 62
     7
100
AcDbLine
 10
84.30000074322297
 20
73.00496709609411
 30
0.0
 11
84.30000074322315
 21
65.68344238871303
 31
0.0
  0
LINE
  5
5B
330
1E
100
AcDbEntity
  8
1
 62
     7
100
AcDbLine
 10
78.00000074322319
 20
72.84903332798013
 30
0.0
 11
76.70000074322317
 21
73.00496709609411
 31
0.0
  0
LINE
  5
5C
330
1E
100
AcDbEntity
  8
1
 62
     7
100
AcDbLine
 10
76.70000074322317
 20
73.00496709609411
 30
0.0
 11
76.70000074322317
 21
65.68344238871303
 31
0.0
  0
LINE
  5
5D
330
1E
100
AcDbEntity
  8
1
 62
     7
100
AcDbLine
 10
87.00000074322321
 20
74.25243724100416
 30
0.0
 11
87.00000074322321
 21
73.9405697047771
 31
0.0
  0
LINE
  5
5E
330
1E
100
AcDbEntity
  8
1
 62
     7
100
AcDbLine
 10
74.0000007432228
 20
73.9405697047771
 30
0.0
 11
74.0000007432228
 21
74.25243724100416
 31
0.0
  0
LINE
  5
5F
330
1E
100
AcDbEntity
  8
1
 62
     7
100
AcDbLine
 10
74.0000007432228
 20
73.9405697047771
 30
0.0
 11
74.0000007432232
 21
66.60446218068614
 31
0.0
  0
LINE
  5
60
330
1E
100
AcDbEntity
  8
1
 62
     7
100
AcDbLine
 10
87.00000074322321
 20
73.9405697047771
 30
0.0
 11
87.00000074322321
 21
66.60446218068614
 31
0.0
  0
LINE
  5
61
330
1E
100
AcDbEntity
  8
1
 62
     7
100
AcDbLine
 10
87.00000074322321
 20
74.25243724100416
 30
0.0
 11
85.93683151993515
 21
75.7338064992432
 31
0.0
  0
LINE
  5
62
330
1E
100
AcDbEntity
  8
1
 62
     7
100
AcDbLine
 10
75.06316996651108
 20
75.7338064992432
 30
0.0
 11
74.0000007432228
 21
74.25243724100416
 31
0.0
  0
LINE
  5
63
330
1E
100
AcDbEntity
  8
1
 62
     7
100
AcDbLine
 10
75.80000074322295
 20
77.03094492977903
 30
0.0
 11
75.50246070830869
 21
75.59458699373021
 31
0.0
  0
LINE
  5
64
330
1E
100
AcDbEntity
  8
1
 62
     7
100
AcDbLine
 10
85.49754077813728
 20
75.59458699373021
 30
0.0
 11
85.2000007432229
 21
77.03094492977903
 31
0.0
  0
LINE
  5
65
330
1E
100
AcDbEntity
  8
1
 62
     7
100
AcDbLine
 10
232.1559477570775
 20
76.36298042471482
 30
0.0
 11
234.0679221144226
 21
87.20632583710061
 31
0.0
  0
LINE
  5
66
330
1E
100
AcDbEntity
  8
1
 62
     7
100
AcDbLine
 10
224.6714088341843
 20
77.68270657498044
 30
0.0
 11
226.5833831915293
 21
88.52605198736933
 31
0.0
  0
LINE
  5
67
330
1E
100
AcDbEntity
  8
1
 62
     7
100
AcDbLine
 10
226.894851187904
 20
64.09010782084647
 30
0.0
 11
226.5478651535001
 21
62.12225236157792
 31
0.0
  0
LINE
  5
68
330
1E
100
AcDbEntity
  8
1
 62
     7
100
AcDbLine
 10
225.4176395620475
 20
64.3505801081219
 30
0.0
 11
225.07034316951
 21
62.38096452055652
 31
0.0
  0
LINE
  5
69
330
1E
100
AcDbEntity
  8
1
 62
     7
100
AcDbLine
 10
227.1527740409289
 20
74.19101593154528
 30
0.0
 11
228.6299856667843
 21
73.93054364427077
 31
0.0
  0
LINE
  5
6A
330
1E
100
AcDbEntity
  8
1
 62
     7
100
AcDbLine
 10
231.3264860654693
 20
63.30869095902471
 30
0.0
 11
230.980431105466
 21
61.34611588464224
 31
0.0
  0
LINE
  5
6B
330
1E
100
AcDbEntity
  8
1
 62
     7
100
AcDbLine
 10
220.6801719140643
 20
67.71661080772968
 30
0.0
 11
232.4978649209052
 21
65.63283250953827
 31
0.0
  0
LINE
  5
6C
330
1E
100
AcDbEntity
  8
1
 62
     7
100
AcDbLine
 10
197.1676513427851
 20
65.62959662525918
 30
0.0
 11
208.9853443487981
 21
67.71337492814835
 31
0.0
  0
LINE
  5
6D
330
1E
100
AcDbEntity
  8
1
 62
     7
100
AcDbLine
 10
198.3403776170549
 20
63.29781348880771
 30
0.0
 11
198.685085159733
 21
61.34288000092965
 31
0.0
  0
LINE
  5
6E
330
1E
100
AcDbEntity
  8
1
 62
     7
100
AcDbLine
 10
220.6373608720936
 20
63.15473978530896
 30
0.0
 11
220.9860046844808
 21
65.13199696994456
 31
0.0
  0
LINE
  5
6F
330
1E
100
AcDbEntity
  8
1
 62
     7
100
AcDbLine
 10
219.8987550591663
 20
63.28497592894564
 30
0.0
 11
220.2473988715536
 21
65.26223311358115
 31
0.0
  0
LINE
  5
70
330
1E
100
AcDbEntity
  8
1
 62
     7
100
AcDbLine
 10
231.716448158071
 20
61.20119815287512
 30
0.0
 11
232.0650918783945
 21
63.17845481538892
 31
0.0
  0
LINE
  5
71
330
1E
100
AcDbEntity
  8
1
 62
     7
100
AcDbLine
 10
225.850412604558
 20
66.80495780227011
 30
0.0
 11
227.1527740409289
 21
74.19101593154528
 31
0.0
  0
LINE
  5
72
330
1E
100
AcDbEntity
  8
1
 62
     7
100
AcDbLine
 10
227.3276242304137
 20
66.54448551499672
 30
0.0
 11
228.6299856667843
 21
73.93054364427077
 31
0.0
  0
LINE
  5
73
330
1E
100
AcDbEntity
  8
1
 62
     7
100
AcDbLine
 10
221.4187777269915
 20
67.58637466409277
 30
0.0
 11
222.721139163363
 21
74.97243279337181
 31
0.0
  0
LINE
  5
74
330
1E
100
AcDbEntity
  8
1
 62
     7
100
AcDbLine
 10
221.9825333504359
 20
75.10266893700988
 30
0.0
 11
222.721139163363
 21
74.97243279337181
 31
0.0
  0
LINE
  5
75
330
1E
100
AcDbEntity
  8
1
 62
     7
100
AcDbLine
 10
231.7592591079795
 20
65.76306865317395
 30
0.0
 11
233.0616205443495
 21
73.14912678244424
 31
0.0
  0
LINE
  5
76
330
1E
100
AcDbEntity
  8
1
 62
     7
100
AcDbLine
 10
233.8002263572753
 20
73.01889063880732
 30
0.0
 11
233.0616205443495
 21
73.14912678244424
 31
0.0
  0
LINE
  5
77
330
1E
100
AcDbEntity
  8
1
 62
     7
100
AcDbLine
 10
208.680858997318
 20
65.12111950383904
 30
0.0
 11
209.0281553923863
 21
63.15150390570739
 31
0.0
  0
LINE
  5
78
330
1E
100
AcDbEntity
  8
1
 62
     7
100
AcDbLine
 10
204.2492241200624
 20
64.33970264025481
 30
0.0
 11
204.5965205151305
 21
62.37008704212417
 31
0.0
  0
LINE
  5
79
330
1E
100
AcDbEntity
  8
1
 62
     7
100
AcDbLine
 10
202.7720124943101
 20
64.07923035239104
 30
0.0
 11
203.1193088893779
 21
62.10961475426143
 31
0.0
  0
LINE
  5
7A
330
1E
100
AcDbEntity
  8
1
 62
     7
100
AcDbLine
 10
201.0355305936079
 20
73.92730776152827
 30
0.0
 11
202.5127422193598
 21
74.1877800493901
 31
0.0
  0
LINE
  5
7B
330
1E
100
AcDbEntity
  8
1
 62
     7
100
AcDbLine
 10
206.9443770966151
 20
74.96919691297842
 30
0.0
 11
208.2467385359225
 21
67.58313878421711
 31
0.0
  0
LINE
  5
7C
330
1E
100
AcDbEntity
  8
1
 62
     7
100
AcDbLine
 10
196.6038957163533
 20
73.14589089794117
 30
0.0
 11
197.9062571556594
 21
65.75983276918771
 31
0.0
  0
LINE
  5
7D
330
1E
100
AcDbEntity
  8
1
 62
     7
100
AcDbLine
 10
196.6038957163533
 20
73.14589089794117
 30
0.0
 11
195.8652899034793
 21
73.01565475400956
 31
0.0
  0
LINE
  5
7E
330
1E
100
AcDbEntity
  8
1
 62
     7
100
AcDbLine
 10
206.9443770966151
 20
74.96919691297842
 30
0.0
 11
207.6829829094902
 21
75.09943305690969
 31
0.0
  0
LINE
  5
7F
330
1E
100
AcDbEntity
  8
1
 62
     7
100
AcDbLine
 10
202.5127422193598
 20
74.1877800493901
 30
0.0
 11
203.8151036586667
 21
66.80172192063264
 31
0.0
  0
LINE
  5
80
330
1E
100
AcDbEntity
  8
1
 62
     7
100
AcDbLine
 10
201.0355305936079
 20
73.92730776152827
 30
0.0
 11
202.3378920329143
 21
66.54124963277195
 31
0.0
  0
LINE
  5
81
330
1E
100
AcDbEntity
  8
1
 62
     7
100
AcDbLine
 10
197.6017718041811
 20
63.16757734487828
 30
0.0
 11
197.9490681071851
 21
61.19796226886979
 31
0.0
  0
LINE
  5
82
330
1E
100
AcDbEntity
  8
1
 62
     7
100
AcDbLine
 10
209.4194648101936
 20
65.25135564776963
 30
0.0
 11
209.7667612052616
 21
63.28174004963785
 31
0.0
  0
LINE
  5
83
330
1E
100
AcDbEntity
  8
1
 62
     3
100
AcDbLine
 10
221.2361933577625
 20
65.11119482154675
 30
0.0
 11
221.668966400273
 21
67.56557251569621
 31
0.0
  0
LINE
  5
84
330
1E
100
AcDbEntity
  8
1
 62
     3
100
AcDbLine
 10
231.0842708634643
 20
63.37471290638721
 30
0.0
 11
231.517043905975
 21
65.82909060053339
 31
0.0
  0
LINE
  5
85
330
1E
100
AcDbEntity
  8
1
 62
     7
100
AcDbLine
 10
220.7437894824768
 20
65.19801891730593
 30
0.0
 11
221.1765625249872
 21
67.65239661145347
 31
0.0
  0
LINE
  5
86
330
1E
100
AcDbEntity
  8
1
 62
     7
100
AcDbLine
 10
231.5766747387495
 20
63.28788881062815
 30
0.0
 11
232.0094477812602
 21
65.74226650477715
 31
0.0
  0
LINE
  5
87
330
1E
100
AcDbEntity
  8
1
 62
     3
100
AcDbLine
 10
208.0005365982955
 20
67.53972673624047
 30
0.0
 11
208.4346570596907
 21
65.07770745585958
 31
0.0
  0
LINE
  5
88
330
1E
100
AcDbEntity
  8
1
 62
     3
100
AcDbLine
 10
198.1524590932838
 20
65.80324481716298
 30
0.0
 11
198.5865795546795
 21
63.34122553678618
 31
0.0
  0
LINE
  5
89
330
1E
100
AcDbEntity
  8
1
 62
     7
100
AcDbLine
 10
208.4929404735468
 20
67.62655083219363
 30
0.0
 11
208.9270609349421
 21
65.16453155181682
 31
0.0
  0
LINE
  5
8A
330
1E
100
AcDbEntity
  8
1
 62
     7
100
AcDbLine
 10
197.6600552180329
 20
65.71642072121107
 30
0.0
 11
198.0941756794281
 21
63.25440144083234
 31
0.0
  0
LINE
  5
8B
330
1E
100
AcDbEntity
  8
1
 62
     7
100
AcDbLine
 10
236.6749055733179
 20
130.8869385566402
 30
0.0
 11
237.6600098670456
 21
130.7149721448056
 31
0.0
  0
LINE
  5
8C
330
1E
100
AcDbEntity
  8
1
 62
     3
100
AcDbLine
 10
237.4629890083
 20
130.7493654271725
 30
0.0
 11
238.2424854872414
 21
135.1701092731115
 31
0.0
  0
LINE
  5
8D
330
1E
100
AcDbEntity
  8
1
 62
     3
100
AcDbLine
 10
237.2659681495544
 20
130.7837587095389
 30
0.0
 11
238.0454646284958
 21
135.2045025554789
 31
0.0
  0
LINE
  5
8E
330
1E
100
AcDbEntity
  8
1
 62
     3
100
AcDbLine
 10
237.8484437697503
 20
135.2388958378465
 30
0.0
 11
237.0689472908089
 21
130.8181519919065
 31
0.0
  0
LINE
  5
8F
330
1E
100
AcDbEntity
  8
1
 62
     3
100
AcDbLine
 10
236.8719264320634
 20
130.8525452742738
 30
0.0
 11
237.6514229110044
 21
135.2732891202138
 31
0.0
  0
LINE
  5
90
330
1E
100
AcDbEntity
  8
1
 62
     7
100
AcDbLine
 10
236.6749055733179
 20
130.8869385566402
 30
0.0
 11
232.9177398854058
 21
109.5789948497322
 31
0.0
  0
LINE
  5
91
330
1E
100
AcDbEntity
  8
1
 62
     7
100
AcDbLine
 10
237.6600098670456
 20
130.7149721448056
 30
0.0
 11
233.9028441791338
 21
109.4070284378962
 31
0.0
  0
LINE
  5
92
330
1E
100
AcDbEntity
  8
1
 62
     7
100
AcDbLine
 10
235.1972491327259
 20
131.1448881743936
 30
0.0
 11
236.1823534264539
 21
130.9729217625579
 31
0.0
  0
LINE
  5
93
330
1E
100
AcDbEntity
  8
1
 62
     3
100
AcDbLine
 10
235.9853325677083
 20
131.007315044925
 30
0.0
 11
236.7648290466493
 21
135.4280588908651
 31
0.0
  0
LINE
  5
94
330
1E
100
AcDbEntity
  8
1
 62
     3
100
AcDbLine
 10
235.7883117089626
 20
131.0417083272928
 30
0.0
 11
236.5678081879039
 21
135.4624521732326
 31
0.0
  0
LINE
  5
95
330
1E
100
AcDbEntity
  8
1
 62
     3
100
AcDbLine
 10
236.3707873291585
 20
135.496845455599
 30
0.0
 11
235.591290850217
 21
131.0761016096589
 31
0.0
  0
LINE
  5
96
330
1E
100
AcDbEntity
  8
1
 62
     3
100
AcDbLine
 10
235.3942699914714
 20
131.1104948920272
 30
0.0
 11
236.1737664704128
 21
135.5312387379661
 31
0.0
  0
LINE
  5
97
330
1E
100
AcDbEntity
  8
1
 62
     7
100
AcDbLine
 10
235.1972491327259
 20
131.1448881743936
 30
0.0
 11
231.4400834448139
 21
109.8369444674854
 31
0.0
  0
LINE
  5
98
330
1E
100
AcDbEntity
  8
1
 62
     7
100
AcDbLine
 10
236.1823534264539
 20
130.9729217625579
 30
0.0
 11
232.4251877385419
 21
109.66497805565
 31
0.0
  0
LINE
  5
99
330
1E
100
AcDbEntity
  8
1
 62
     7
100
AcDbLine
 10
239.6302184545014
 20
130.3710393211339
 30
0.0
 11
240.615322748229
 21
130.1990729092983
 31
0.0
  0
LINE
  5
9A
330
1E
100
AcDbEntity
  8
1
 62
     3
100
AcDbLine
 10
240.4183018894836
 20
130.2334661916657
 30
0.0
 11
241.1977983684248
 21
134.6542100376048
 31
0.0
  0
LINE
  5
9B
330
1E
100
AcDbEntity
  8
1
 62
     3
100
AcDbLine
 10
240.2212810307381
 20
130.2678594740332
 30
0.0
 11
241.0007775096794
 21
134.6886033199723
 31
0.0
  0
LINE
  5
9C
330
1E
100
AcDbEntity
  8
1
 62
     3
100
AcDbLine
 10
240.8037566509339
 20
134.7229966023392
 30
0.0
 11
240.0242601719926
 21
130.3022527563994
 31
0.0
  0
LINE
  5
9D
330
1E
100
AcDbEntity
  8
1
 62
     3
100
AcDbLine
 10
239.827239313247
 20
130.3366460387667
 30
0.0
 11
240.6067357921882
 21
134.7573898847064
 31
0.0
  0
LINE
  5
9E
330
1E
100
AcDbEntity
  8
1
 62
     7
100
AcDbLine
 10
239.6302184545014
 20
130.3710393211339
 30
0.0
 11
235.8730527665894
 21
109.0630956142261
 31
0.0
  0
LINE
  5
9F
330
1E
100
AcDbEntity
  8
1
 62
     7
100
AcDbLine
 10
240.615322748229
 20
130.1990729092983
 30
0.0
 11
236.8581570603174
 21
108.8911292023904
 31
0.0
  0
LINE
  5
A0
330
1E
100
AcDbEntity
  8
1
 62
     7
100
AcDbLine
 10
230.3738869222523
 20
110.0230668826089
 30
0.0
 11
237.860679554404
 21
108.7161221526899
 31
0.0
  0
LINE
  5
A1
330
1E
100
AcDbEntity
  8
1
 62
     7
100
AcDbLine
 10
238.1525620139095
 20
130.6289889388877
 30
0.0
 11
239.1376663076373
 21
130.4570225270509
 31
0.0
  0
LINE
  5
A2
330
1E
100
AcDbEntity
  8
1
 62
     3
100
AcDbLine
 10
192.3343137695509
 20
130.4727858418925
 30
0.0
 11
191.5548172888524
 21
134.8935296875226
 31
0.0
  0
LINE
  5
A3
330
1E
100
AcDbEntity
  8
1
 62
     3
100
AcDbLine
 10
192.94999440253
 20
130.5803172343975
 30
0.0
 11
192.1704979218315
 21
135.0010610800279
 31
0.0
  0
LINE
  5
A4
330
1E
100
AcDbEntity
  8
1
 62
     3
100
AcDbLine
 10
193.4425465493598
 20
130.6663004405112
 30
0.0
 11
192.6630500686613
 21
135.0870442861414
 31
0.0
  0
LINE
  5
A5
330
1E
100
AcDbEntity
  8
1
 62
     3
100
AcDbLine
 10
193.9350986961894
 20
130.7522836466245
 30
0.0
 11
193.1556022154909
 21
135.1730274922549
 31
0.0
  0
LINE
  5
A6
330
1E
100
AcDbEntity
  8
1
 62
     7
100
AcDbLine
 10
190.9796893643895
 20
130.236931410229
 30
0.0
 11
194.6886854159286
 21
109.202171312773
 31
0.0
  0
LINE
  5
A7
330
1E
100
AcDbEntity
  8
1
 62
     7
100
AcDbLine
 10
192.6965155571455
 20
130.5360291720402
 30
0.0
 11
196.4055116086843
 21
109.5012690745843
 31
0.0
  0
LINE
  5
A8
330
1E
100
AcDbEntity
  8
1
 62
     7
100
AcDbLine
 10
191.8072395712503
 20
108.6992590827149
 30
0.0
 11
199.2929767808944
 21
110.0121894111157
 31
0.0
  0
LINE
  5
A9
330
1E
100
AcDbEntity
  8
1
 62
     7
100
AcDbLine
 10
194.4276508430194
 20
130.8382668527384
 30
0.0
 11
198.1366468945581
 21
109.8035067552822
 31
0.0
  0
LINE
  5
AA
330
1E
100
AcDbEntity
  8
1
 62
     7
100
AcDbLine
 10
192.9647046766139
 20
108.9015035915186
 30
0.0
 11
189.2558739694993
 21
129.935325974227
 31
0.0
  0
LINE
  5
AB
330
1E
100
AcDbEntity
  8
1
 62
     3
100
AcDbLine
 10
238.9406454488919
 20
130.4914158094192
 30
0.0
 11
239.7201419278331
 21
134.912159655358
 31
0.0
  0
LINE
  5
AC
330
1E
100
AcDbEntity
  8
1
 62
     3
100
AcDbLine
 10
238.7436245901461
 20
130.5258090917857
 30
0.0
 11
239.5231210690876
 21
134.9465529377255
 31
0.0
  0
LINE
  5
AD
330
1E
100
AcDbEntity
  8
1
 62
     3
100
AcDbLine
 10
239.3261002103419
 20
134.9809462200929
 30
0.0
 11
238.5466037314007
 21
130.5602023741528
 31
0.0
  0
LINE
  5
AE
330
1E
100
AcDbEntity
  8
1
 62
     3
100
AcDbLine
 10
238.3495828726551
 20
130.5945956565201
 30
0.0
 11
239.1290793515964
 21
135.0153395024601
 31
0.0
  0
LINE
  5
AF
330
1E
100
AcDbEntity
  8
1
 62
     7
100
AcDbLine
 10
238.1525620139095
 20
130.6289889388877
 30
0.0
 11
234.3953963259977
 21
109.3210452319794
 31
0.0
  0
LINE
  5
B0
330
1E
100
AcDbEntity
  8
1
 62
     7
100
AcDbLine
 10
239.1376663076373
 20
130.4570225270509
 30
0.0
 11
235.3805006197255
 21
109.1490788201429
 31
0.0
  0
LINE
  5
B1
330
1E
100
AcDbEntity
  8
1
 62
     7
100
AcDbLine
 10
194.9783681062431
 20
90.71489547454337
 30
0.0
 11
191.8072395712503
 21
108.6992590827149
 31
0.0
  0
LINE
  5
B2
330
1E
100
AcDbEntity
  8
1
 62
     7
100
AcDbLine
 10
202.467671396567
 20
92.00760155441937
 30
0.0
 11
199.2929767808944
 21
110.0121894111157
 31
0.0
  0
LINE
  5
B3
330
1E
100
AcDbEntity
  8
1
 62
     7
100
AcDbLine
 10
227.2436997869474
 20
92.27089349015569
 30
0.0
 11
230.3738869222523
 21
110.0230668826089
 31
0.0
  0
LINE
  5
B4
330
1E
100
AcDbEntity
  8
1
 62
     7
100
AcDbLine
 10
234.7234743424094
 20
90.92414726949412
 30
0.0
 11
237.860679554404
 21
108.7161221526899
 31
0.0
  0
LINE
  5
B5
330
1E
100
AcDbEntity
  8
1
 62
     7
100
AcDbLine
 10
198.0941690631639
 20
63.25440036597775
 30
0.0
 11
197.6600486302498
 21
65.71641965137894
 31
0.0
  0
LINE
  5
B6
330
1E
100
AcDbEntity
  8
1
 62
     7
100
AcDbLine
 10
196.5896189077541
 20
74.66651351732298
 30
0.0
 11
196.6245889671571
 21
76.19581960014091
 31
0.0
  0
LINE
  5
B7
330
1E
100
AcDbEntity
  8
1
 62
     7
100
AcDbLine
 10
205.8817818454715
 20
77.82811247020994
 30
0.0
 11
206.4376964378761
 21
76.40299529399135
 31
0.0
  0
LINE
  5
B8
330
1E
100
AcDbEntity
  8
1
 62
     7
100
AcDbLine
 10
197.5109159448678
 20
76.35210296004107
 30
0.0
 11
195.6386847016613
 21
86.97005397175802
 31
0.0
  0
LINE
  5
B9
330
1E
100
AcDbEntity
  8
1
 62
     7
100
AcDbLine
 10
204.9954548677605
 20
77.67182911031284
 30
0.0
 11
203.1232236245544
 21
88.28978012202698
 31
0.0
  0
LINE
  5
BA
330
1E
100
AcDbEntity
  8
1
 62
     3
100
AcDbLine
 10
198.5865729396704
 20
63.34122445481057
 30
0.0
 11
198.1524525067565
 21
65.80324374021235
 31
0.0
  0
LINE
  5
BB
330
1E
100
AcDbEntity
  8
1
 62
     7
100
AcDbLine
 10
223.2291672640696
 20
76.41387275866238
 30
0.0
 11
223.7850818564734
 21
77.83898993488083
 31
0.0
  0
LINE
  5
BC
330
1E
100
AcDbEntity
  8
1
 62
     7
100
AcDbLine
 10
233.042274734788
 20
76.20669706481158
 30
0.0
 11
233.0772447941915
 21
74.67739098199331
 31
0.0
  0
LINE
  5
BD
330
1E
100
AcDbEntity
  8
1
 62
     7
100
AcDbLine
 10
207.5801370646533
 20
75.68270077763611
 30
0.0
 11
206.9301067463781
 21
76.48982058670492
 31
0.0
  0
LINE
  5
BE
330
1E
100
AcDbEntity
  8
1
 62
     7
100
AcDbLine
 10
195.7624440586404
 20
73.59892247474704
 30
0.0
 11
196.0972150312473
 21
74.57968942848911
 31
0.0
  0
LINE
  5
BF
330
1E
100
AcDbEntity
  8
1
 62
     7
100
AcDbLine
 10
233.9032996513139
 20
73.60344832026341
 30
0.0
 11
233.5682947692683
 21
74.58292636042802
 31
0.0
  0
LINE
  5
C0
330
1E
100
AcDbEntity
  8
1
 62
     7
100
AcDbLine
 10
222.0856066497668
 20
75.68722661752213
 30
0.0
 11
222.7354095129954
 21
76.49305646710423
 31
0.0
  0
LINE
  5
C1
330
1E
100
AcDbEntity
  8
1
 62
     3
100
AcDbLine
 10
194.8324728557213
 20
55.62634848283619
 30
0.0
 11
194.8324728557213
 21
29.62634848283618
 31
0.0
  0
LINE
  5
C2
330
1E
100
AcDbEntity
  8
1
 62
     3
100
AcDbLine
 10
233.3324728557213
 20
57.12634848283619
 30
0.0
 11
196.3324728557213
 21
57.12634848283619
 31
0.0
  0
LINE
  5
C3
330
1E
100
AcDbEntity
  8
1
 62
     3
100
AcDbLine
 10
234.8324728557213
 20
29.62634848283618
 30
0.0
 11
234.8324728557213
 21
55.62634848283619
 31
0.0
  0
LINE
  5
C4
330
1E
100
AcDbEntity
  8
1
 62
     3
100
AcDbLine
 10
196.3324728557213
 20
28.12634848283618
 30
0.0
 11
233.3324728557213
 21
28.12634848283618
 31
0.0
  0
LINE
  5
C5
330
1E
100
AcDbEntity
  8
1
 62
     3
100
AcDbLine
 10
217.9066468537754
 20
63.12518874598845
 30
0.0
 11
233.371782989837
 21
60.41964895411457
 31
0.0
  0
LINE
  5
C6
330
1E
100
AcDbEntity
  8
1
 62
     3
100
AcDbLine
 10
211.7582988576645
 20
63.12518874598845
 30
0.0
 11
196.1311653743059
 21
60.36970348173782
 31
0.0
  0
LINE
  5
C7
330
1E
100
AcDbEntity
  8
1
 62
     7
100
AcDbLine
 10
194.6357388630013
 20
60.61373274607056
 30
0.0
 11
213.0800771912939
 21
63.86596723466664
 31
0.0
  0
LINE
  5
C8
330
1E
100
AcDbEntity
  8
1
 62
     7
100
AcDbLine
 10
216.5848685201491
 20
63.86596723466664
 30
0.0
 11
235.029206848424
 21
60.61373274607377
 31
0.0
  0
LINE
  5
C9
330
1E
100
AcDbEntity
  8
1
 62
     7
100
AcDbLine
 10
-15.700000743224
 20
34.95000000000096
 30
0.0
 11
-15.70000074322392
 21
32.46641051217729
 31
0.0
  0
LINE
  5
CA
330
1E
100
AcDbEntity
  8
1
 62
     7
100
AcDbLine
 10
-15.40000074322392
 20
35.25000000000068
 30
0.0
 11
-15.40000074322392
 21
31.83171241067009
 31
0.0
  0
LINE
  5
CB
330
1E
100
AcDbEntity
  8
1
  6
CENTER
 62
     3
100
AcDbLine
 10
-10.10795749033092
 20
31.74999999999978
 30
0.0
 11
-17.50310162195102
 21
31.74999999999978
 31
0.0
  0
LINE
  5
CC
330
1E
100
AcDbEntity
  8
1
 62
     7
100
AcDbLine
 10
-15.40000074322392
 20
35.25000000000068
 30
0.0
 11
-15.700000743224
 21
34.95000000000096
 31
0.0
  0
LINE
  5
CD
330
1E
100
AcDbEntity
  8
1
 62
     7
100
AcDbLine
 10
-11.700000743224
 20
35.25000000000068
 30
0.0
 11
-15.40000074322392
 21
35.25000000000068
 31
0.0
  0
LINE
  5
CE
330
1E
100
AcDbEntity
  8
1
  6
CENTER
 62
     3
100
AcDbLine
 10
-10.10795749033092
 20
54.99261314031116
 30
0.0
 11
-17.50310162195102
 21
54.99261314031116
 31
0.0
  0
LINE
  5
CF
330
1E
100
AcDbEntity
  8
1
 62
     7
100
AcDbLine
 10
-15.40000074322392
 20
58.49261314031207
 30
0.0
 11
-15.700000743224
 21
58.19261314031234
 31
0.0
  0
LINE
  5
D0
330
1E
100
AcDbEntity
  8
1
 62
     7
100
AcDbLine
 10
-11.700000743224
 20
58.49261314031207
 30
0.0
 11
-15.40000074322392
 21
58.49261314031207
 31
0.0
  0
LINE
  5
D1
330
1E
100
AcDbEntity
  8
1
 62
     7
100
AcDbLine
 10
-15.40000074322392
 20
51.49261314031207
 30
0.0
 11
-11.700000743224
 21
51.49261314031207
 31
0.0
  0
LINE
  5
D2
330
1E
100
AcDbEntity
  8
1
 62
     7
100
AcDbLine
 10
-15.40000074322392
 20
58.49261314031207
 30
0.0
 11
-15.40000074322392
 21
51.49261314031207
 31
0.0
  0
LINE
  5
D3
330
1E
100
AcDbEntity
  8
1
 62
     7
100
AcDbLine
 10
-15.700000743224
 20
58.19261314031234
 30
0.0
 11
-15.700000743224
 21
51.79261314031226
 31
0.0
  0
LINE
  5
D4
330
1E
100
AcDbEntity
  8
1
 62
     7
100
AcDbLine
 10
-15.700000743224
 20
51.79261314031226
 30
0.0
 11
-15.40000074322392
 21
51.49261314031207
 31
0.0
  0
LINE
  5
D5
330
1E
100
AcDbEntity
  8
1
  6
CENTER
 62
     3
100
AcDbLine
 10
268.6079435649563
 20
53.77547070914773
 30
0.0
 11
275.6083006987032
 21
60.77582784289472
 31
0.0
  0
LINE
  5
D6
330
1E
100
AcDbEntity
  8
1
  6
CENTER
 62
     3
100
AcDbLine
 10
181.9408318439426
 20
79.40744581925605
 30
0.0
 11
185.7293978243573
 21
70.26103844739418
 31
0.0
  0
LINE
  5
D7
330
1E
100
AcDbEntity
  8
1
  6
CENTER
 62
     3
100
AcDbLine
 10
285.0935113032028
 20
29.10307503127592
 30
0.0
 11
294.2399186750646
 21
32.89164101169034
 31
0.0
  0
LINE
  5
D8
330
1E
100
AcDbEntity
  8
1
  6
CENTER
 62
     3
100
AcDbLine
 10
285.0935113032028
 20
-29.1030750314543
 30
0.0
 11
294.2399186750646
 21
-32.89164101186873
 31
0.0
  0
LINE
  5
D9
330
1E
100
AcDbEntity
  8
1
  6
CENTER
 62
     3
100
AcDbLine
 10
181.9408318439426
 20
-79.4074458194342
 30
0.0
 11
185.7293978243571
 21
-70.26103844757244
 31
0.0
  0
LINE
  5
DA
330
1E
100
AcDbEntity
  8
1
  6
CENTER
 62
     3
100
AcDbLine
 10
247.7241138675018
 20
-79.40744581943431
 30
0.0
 11
243.9355478870874
 21
-70.26103844757256
 31
0.0
  0
LINE
  5
DB
330
1E
100
AcDbEntity
  8
1
  6
CENTER
 62
     3
100
AcDbLine
 10
247.7241138675018
 20
79.40744581925594
 30
0.0
 11
243.9355478870875
 21
70.26103844739418
 31
0.0
  0
LINE
  5
DC
330
1E
100
AcDbEntity
  8
1
 62
     3
100
AcDbLine
 10
-0.8535898384862433
 20
20.58187515841062
 30
0.0
 11
-0.8535898384862433
 21
70.0
 31
0.0
  0
LINE
  5
DD
330
1E
100
AcDbEntity
  8
1
 62
     3
100
AcDbLine
 10
-16.50000074322384
 20
55.96414533542397
 30
0.0
 11
-16.50000074322384
 21
33.73767814564678
 31
0.0
  0
LINE
  5
DE
330
1E
100
AcDbEntity
  8
1
  6
CENTER
 62
     3
100
AcDbLine
 10
-128.1540271233486
 20
41.03735984147443
 30
0.0
 11
-138.219499385822
 21
26.11468353548366
 31
0.0
  0
LINE
  5
DF
330
1E
100
AcDbEntity
  8
1
  6
CENTER
 62
     3
100
AcDbLine
 10
-107.7923401545636
 20
19.89953848298442
 30
0.0
 11
-116.107255947165
 21
16.45538759169857
 31
0.0
  0
LINE
  5
E0
330
1E
100
AcDbEntity
  8
1
 62
     3
100
AcDbLine
 10
18.85358983848636
 20
-74.0
 30
0.0
 11
18.85358983848636
 21
74.0
 31
0.0
  0
LINE
  5
E1
330
1E
100
AcDbEntity
  8
1
 62
     7
100
AcDbLine
 10
-7.700000000000102
 20
22.2167442998866
 30
0.0
 11
-7.70000000000033
 21
69.50000000000091
 31
0.0
  0
LINE
  5
E2
330
1E
100
AcDbEntity
  8
1
 62
     7
100
AcDbLine
 10
-16.00000074322384
 20
33.07400784757783
 30
0.0
 11
-16.00000074322384
 21
58.0
 31
0.0
  0
LINE
  5
E3
330
1E
100
AcDbEntity
  8
1
 62
     7
100
AcDbLine
 10
-18.50000074322384
 20
25.00000000000011
 30
0.0
 11
-13.49999999999955
 21
25.00000000000011
 31
0.0
  0
LINE
  5
E4
330
1E
100
AcDbEntity
  8
1
 62
     7
100
AcDbLine
 10
-8.000000743223836
 20
67.5
 30
0.0
 11
-7.700000743224107
 21
67.5
 31
0.0
  0
LINE
  5
E5
330
1E
100
AcDbEntity
  8
1
 62
     7
100
AcDbLine
 10
-22.00000074322383
 20
39.01772202382449
 30
0.0
 11
-22.00000074322383
 21
5.326499913941461
 31
0.0
  0
LINE
  5
E6
330
1E
100
AcDbEntity
  8
1
 62
     7
100
AcDbLine
 10
-11.700000743224
 20
67.0
 30
0.0
 11
-15.40000074322404
 21
67.0
 31
0.0
  0
LINE
  5
E7
330
1E
100
AcDbEntity
  8
1
 62
     7
100
AcDbLine
 10
-15.40000074322404
 20
67.0
 30
0.0
 11
-15.700000743224
 21
66.70000000000005
 31
0.0
  0
LINE
  5
E8
330
1E
100
AcDbEntity
  8
1
 62
     7
100
AcDbLine
 10
-15.700000743224
 20
66.70000000000005
 30
0.0
 11
-15.700000743224
 21
60.29999999999996
 31
0.0
  0
LINE
  5
E9
330
1E
100
AcDbEntity
  8
1
 62
     7
100
AcDbLine
 10
-15.700000743224
 20
60.29999999999996
 30
0.0
 11
-15.40000074322404
 21
60.0
 31
0.0
  0
LINE
  5
EA
330
1E
100
AcDbEntity
  8
1
 62
     7
100
AcDbLine
 10
-15.40000074322404
 20
60.0
 30
0.0
 11
-11.700000743224
 21
60.0
 31
0.0
  0
LINE
  5
EB
330
1E
100
AcDbEntity
  8
1
 62
     7
100
AcDbLine
 10
-15.40000074322404
 20
67.0
 30
0.0
 11
-15.40000074322404
 21
60.0
 31
0.0
  0
LINE
  5
EC
330
1E
100
AcDbEntity
  8
1
 62
     7
100
AcDbLine
 10
-3.999999999999601
 20
0.0000000000009095
 30
0.0
 11
-3.999999999999431
 21
19.00000000000046
 31
0.0
  0
LINE
  5
ED
330
1E
100
AcDbEntity
  8
1
 62
     7
100
AcDbLine
 10
-1.999999999999429
 20
17.50000000000011
 30
0.0
 11
-3.999999999999431
 21
18.65470053837873
 31
0.0
  0
LINE
  5
EE
330
1E
100
AcDbEntity
  8
1
 62
     7
100
AcDbLine
 10
-13.49999999999955
 20
25.00000000000011
 30
0.0
 11
-13.49999999999943
 21
0.0000000000001137
 31
0.0
  0
LINE
  5
EF
330
1E
100
AcDbEntity
  8
1
 62
     7
100
AcDbLine
 10
-3.999999999999431
 20
19.00000000000046
 30
0.0
 11
-13.49999999999943
 21
18.99999999999909
 31
0.0
  0
LINE
  5
F0
330
1E
100
AcDbEntity
  8
1
  6
CENTER
 62
     3
100
AcDbLine
 10
-122.942434833371
 20
79.40744581934494
 30
0.0
 11
-126.7310008137854
 21
70.2610384474832
 31
0.0
  0
LINE
  5
F1
330
1E
100
AcDbEntity
  8
1
  6
CENTER
 62
     3
100
AcDbLine
 10
-122.942434833371
 20
-79.4074458193453
 30
0.0
 11
-126.7310008137857
 21
-70.26103844748354
 31
0.0
  0
LINE
  5
F2
330
1E
100
AcDbEntity
  8
1
  6
CENTER
 62
     3
100
AcDbLine
 10
-188.7257168569302
 20
-79.40744581934518
 30
0.0
 11
-184.9371508765159
 21
-70.26103844748343
 31
0.0
  0
LINE
  5
F3
330
1E
100
AcDbEntity
  8
1
  6
CENTER
 62
     3
100
AcDbLine
 10
-235.2415216644959
 20
-32.89164101177971
 30
0.0
 11
-226.095114292634
 21
-29.10307503136527
 31
0.0
  0
LINE
  5
F4
330
1E
100
AcDbEntity
  8
1
  6
CENTER
 62
     3
100
AcDbLine
 10
-235.2415216644958
 20
32.89164101177937
 30
0.0
 11
-226.095114292634
 21
29.10307503136494
 31
0.0
  0
LINE
  5
F5
330
1E
100
AcDbEntity
  8
1
  6
CENTER
 62
     3
100
AcDbLine
 10
-184.9371508765158
 20
70.2610384474832
 30
0.0
 11
-188.7257168569302
 21
79.40744581934507
 31
0.0
  0
LINE
  5
F6
330
1E
100
AcDbEntity
  8
1
  6
CENTER
 62
     3
100
AcDbLine
 10
-216.6099036881345
 20
60.77582784298375
 30
0.0
 11
-209.6095465543875
 21
53.77547070923674
 31
0.0
  0
LINE
  5
F7
330
1E
100
AcDbEntity
  8
1
  6
CENTER
 62
     3
100
AcDbLine
 10
-114.7967160036762
 20
-27.68004872180187
 30
0.0
 11
-129.7193923096668
 21
-17.61457645932842
 31
0.0
  0
LINE
  5
F8
330
1E
100
AcDbEntity
  8
1
  6
CENTER
 62
     3
100
AcDbLine
 10
-183.5141245669525
 20
-41.03735984147443
 30
0.0
 11
-173.4486523044791
 21
-26.11468353548366
 31
0.0
  0
LINE
  5
F9
330
1E
100
AcDbEntity
  8
1
  6
CENTER
 62
     3
100
AcDbLine
 10
-196.8714356866249
 20
27.680048721802
 30
0.0
 11
-181.9487593806344
 21
17.61457645932842
 31
0.0
  0
LINE
  5
FA
330
1E
100
AcDbEntity
  8
1
  6
CENTER
 62
     3
100
AcDbLine
 10
-135.9345373621658
 20
48.04173569058685
 30
0.0
 11
-139.3786882534516
 21
39.72681989798525
 31
0.0
  0
LINE
  5
FB
330
1E
100
AcDbEntity
  8
1
  6
CENTER
 62
     3
100
AcDbLine
 10
-119.0645232234498
 20
36.76955262170031
 30
0.0
 11
-125.4284842541288
 21
30.40559159102144
 31
0.0
  0
LINE
  5
FC
330
1E
100
AcDbEntity
  8
1
  6
CENTER
 62
     3
100
AcDbLine
 10
-107.7923401545636
 20
-19.89953848298478
 30
0.0
 11
-116.1072559471653
 21
-16.45538759169903
 31
0.0
  0
LINE
  5
FD
330
1E
100
AcDbEntity
  8
1
  6
CENTER
 62
     3
100
AcDbLine
 10
-119.0645232234502
 20
-36.76955262170054
 30
0.0
 11
-125.428484254129
 21
-30.40559159102155
 31
0.0
  0
LINE
  5
FE
330
1E
100
AcDbEntity
  8
1
  6
CENTER
 62
     3
100
AcDbLine
 10
-135.9345373621658
 20
-48.04173569058696
 30
0.0
 11
-139.3786882534517
 21
-39.72681989798536
 31
0.0
  0
LINE
  5
FF
330
1E
100
AcDbEntity
  8
1
  6
CENTER
 62
     3
100
AcDbLine
 10
-175.7336143281353
 20
-48.04173569058708
 30
0.0
 11
-172.2894634368495
 21
-39.72681989798548
 31
0.0
  0
LINE
  5
100
330
1E
100
AcDbEntity
  8
1
  6
CENTER
 62
     3
100
AcDbLine
 10
-192.6036284668512
 20
-36.76955262170054
 30
0.0
 11
-186.239667436172
 21
-30.40559159102168
 31
0.0
  0
LINE
  5
101
330
1E
100
AcDbEntity
  8
1
  6
CENTER
 62
     3
100
AcDbLine
 10
-203.8758115357376
 20
-19.89953848298478
 30
0.0
 11
-195.5608957431361
 21
-16.45538759169903
 31
0.0
  0
LINE
  5
102
330
1E
100
AcDbEntity
  8
1
  6
CENTER
 62
     3
100
AcDbLine
 10
-203.8758115357377
 20
19.89953848298467
 30
0.0
 11
-195.5608957431361
 21
16.45538759169881
 31
0.0
  0
LINE
  5
103
330
1E
100
AcDbEntity
  8
1
  6
CENTER
 62
     3
100
AcDbLine
 10
-192.6036284668513
 20
36.76955262170054
 30
0.0
 11
-186.2396674361724
 21
30.40559159102168
 31
0.0
  0
LINE
  5
104
330
1E
100
AcDbEntity
  8
1
  6
CENTER
 62
     3
100
AcDbLine
 10
-175.7336143281355
 20
48.04173569058696
 30
0.0
 11
-172.2894634368495
 21
39.72681989798548
 31
0.0
  0
LINE
  5
105
330
1E
100
AcDbEntity
  8
1
  6
CENTER
 62
     3
100
AcDbLine
 10
-17.50310162195102
 20
-54.99261314031094
 30
0.0
 11
-10.10795749033092
 21
-54.99261314031094
 31
0.0
  0
LINE
  5
106
330
1E
100
AcDbEntity
  8
1
 62
     7
100
AcDbLine
 10
-15.40000074322392
 20
-51.49261314031186
 30
0.0
 11
-15.40000074322392
 21
-58.49261314031185
 31
0.0
  0
LINE
  5
107
330
1E
100
AcDbEntity
  8
1
 62
     7
100
AcDbLine
 10
-11.700000743224
 20
-51.49261314031186
 30
0.0
 11
-15.40000074322392
 21
-51.49261314031186
 31
0.0
  0
LINE
  5
108
330
1E
100
AcDbEntity
  8
1
 62
     7
100
AcDbLine
 10
-15.40000074322392
 20
-51.49261314031186
 30
0.0
 11
-15.700000743224
 21
-51.79261314031204
 31
0.0
  0
LINE
  5
109
330
1E
100
AcDbEntity
  8
1
 62
     7
100
AcDbLine
 10
-15.700000743224
 20
-51.79261314031204
 30
0.0
 11
-15.700000743224
 21
-58.19261314031212
 31
0.0
  0
LINE
  5
10A
330
1E
100
AcDbEntity
  8
1
 62
     7
100
AcDbLine
 10
-15.700000743224
 20
-58.19261314031212
 30
0.0
 11
-15.40000074322392
 21
-58.49261314031185
 31
0.0
  0
LINE
  5
10B
330
1E
100
AcDbEntity
  8
1
 62
     7
100
AcDbLine
 10
-15.40000074322392
 20
-58.49261314031185
 30
0.0
 11
-11.700000743224
 21
-58.49261314031185
 31
0.0
  0
LINE
  5
10C
330
1E
100
AcDbEntity
  8
1
 62
     7
100
AcDbLine
 10
-135.0494661543243
 20
1.999999999999884
 30
0.0
 11
-143.7097201921685
 21
16.99999999999989
 31
0.0
  0
LINE
  5
10D
330
1E
100
AcDbEntity
  8
1
 62
     7
100
AcDbLine
 10
-143.7097201921685
 20
-17.00000000000011
 30
0.0
 11
-135.0494661543243
 21
-2.000000000000114
 31
0.0
  0
LINE
  5
10E
330
1E
100
AcDbEntity
  8
1
 62
     7
100
AcDbLine
 10
-164.494329882995
 20
-19.00000000000011
 30
0.0
 11
-147.1738218073061
 21
-19.00000000000011
 31
0.0
  0
LINE
  5
10F
330
1E
100
AcDbEntity
  8
1
 62
     7
100
AcDbLine
 10
-176.6186855359773
 20
-2.000000000000114
 30
0.0
 11
-167.9584314981328
 21
-17.00000000000011
 31
0.0
  0
LINE
  5
110
330
1E
100
AcDbEntity
  8
1
 62
     7
100
AcDbLine
 10
-167.9584314981328
 20
16.99999999999989
 30
0.0
 11
-176.6186855359773
 21
1.999999999999884
 31
0.0
  0
LINE
  5
111
330
1E
100
AcDbEntity
  8
1
 62
     7
100
AcDbLine
 10
-147.1738218073061
 20
18.99999999999987
 30
0.0
 11
-164.494329882995
 21
18.99999999999987
 31
0.0
  0
LINE
  5
112
330
1E
100
AcDbEntity
  8
1
 62
     7
100
AcDbLine
 10
22.00000000000005
 20
-73.5000000000001
 30
0.0
 11
21.49999999999995
 21
-74.0
 31
0.0
  0
LINE
  5
113
330
1E
100
AcDbEntity
  8
1
 62
     7
100
AcDbLine
 10
22.00000000000005
 20
73.50000000000045
 30
0.0
 11
21.50000000000017
 21
74.0
 31
0.0
  0
LINE
  5
114
330
1E
100
AcDbEntity
  8
1
 62
     7
100
AcDbLine
 10
-15.40000074322392
 20
-35.25000000000046
 30
0.0
 11
-11.700000743224
 21
-35.25000000000046
 31
0.0
  0
LINE
  5
115
330
1E
100
AcDbEntity
  8
1
 62
     7
100
AcDbLine
 10
-15.700000743224
 20
-34.95000000000072
 30
0.0
 11
-15.40000074322392
 21
-35.25000000000046
 31
0.0
  0
LINE
  5
116
330
1E
100
AcDbEntity
  8
1
 62
     7
100
AcDbLine
 10
-15.700000743224
 20
-28.55000000000064
 30
0.0
 11
-15.700000743224
 21
-34.95000000000072
 31
0.0
  0
LINE
  5
117
330
1E
100
AcDbEntity
  8
1
 62
     7
100
AcDbLine
 10
-15.40000074322392
 20
-28.25000000000046
 30
0.0
 11
-15.700000743224
 21
-28.55000000000064
 31
0.0
  0
LINE
  5
118
330
1E
100
AcDbEntity
  8
1
 62
     7
100
AcDbLine
 10
-11.700000743224
 20
-28.25000000000046
 30
0.0
 11
-15.40000074322392
 21
-28.25000000000046
 31
0.0
  0
LINE
  5
119
330
1E
100
AcDbEntity
  8
1
 62
     7
100
AcDbLine
 10
-15.40000074322392
 20
-28.25000000000046
 30
0.0
 11
-15.40000074322392
 21
-35.25000000000046
 31
0.0
  0
LINE
  5
11A
330
1E
100
AcDbEntity
  8
1
  6
CENTER
 62
     3
100
AcDbLine
 10
-17.50310162195102
 20
-31.74999999999955
 30
0.0
 11
-10.10795749033092
 21
-31.74999999999955
 31
0.0
  0
LINE
  5
11B
330
1E
100
AcDbEntity
  8
1
 62
     7
100
AcDbLine
 10
-15.40000074322392
 20
-3.499999999999773
 30
0.0
 11
-11.700000743224
 21
-3.499999999999886
 31
0.0
  0
LINE
  5
11C
330
1E
100
AcDbEntity
  8
1
 62
     7
100
AcDbLine
 10
-15.70000074322392
 20
-3.200000000000271
 30
0.0
 11
-15.40000074322392
 21
-3.499999999999773
 31
0.0
  0
LINE
  5
11D
330
1E
100
AcDbEntity
  8
1
 62
     7
100
AcDbLine
 10
-15.40000074322392
 20
-66.99999999999898
 30
0.0
 11
-11.700000743224
 21
-66.99999999999898
 31
0.0
  0
LINE
  5
11E
330
1E
100
AcDbEntity
  8
1
 62
     7
100
AcDbLine
 10
-15.700000743224
 20
-66.69999999999925
 30
0.0
 11
-15.40000074322392
 21
-66.99999999999898
 31
0.0
  0
LINE
  5
11F
330
1E
100
AcDbEntity
  8
1
 62
     7
100
AcDbLine
 10
-15.700000743224
 20
-60.29999999999915
 30
0.0
 11
-15.700000743224
 21
-66.69999999999925
 31
0.0
  0
LINE
  5
120
330
1E
100
AcDbEntity
  8
1
 62
     7
100
AcDbLine
 10
-15.40000074322392
 20
-59.99999999999896
 30
0.0
 11
-15.700000743224
 21
-60.29999999999915
 31
0.0
  0
LINE
  5
121
330
1E
100
AcDbEntity
  8
1
 62
     7
100
AcDbLine
 10
-11.700000743224
 20
-59.99999999999896
 30
0.0
 11
-15.40000074322392
 21
-59.99999999999896
 31
0.0
  0
LINE
  5
122
330
1E
100
AcDbEntity
  8
1
 62
     7
100
AcDbLine
 10
-15.40000074322392
 20
-59.99999999999896
 30
0.0
 11
-15.40000074322392
 21
-66.99999999999898
 31
0.0
  0
LINE
  5
123
330
1E
100
AcDbEntity
  8
1
  6
CENTER
 62
     3
100
AcDbLine
 10
-17.50310162195102
 20
-63.49999999999898
 30
0.0
 11
-10.10795749033092
 21
-63.49999999999898
 31
0.0
  0
LINE
  5
124
330
1E
100
AcDbEntity
  8
1
 62
     7
100
AcDbLine
 10
-15.70000074322392
 20
0.0
 30
0.0
 11
-15.70000074322392
 21
-3.200000000000271
 31
0.0
  0
LINE
  5
125
330
1E
100
AcDbEntity
  8
1
 62
     7
100
AcDbLine
 10
-15.40000074322404
 20
0.0000000000002274
 30
0.0
 11
-15.40000074322392
 21
-3.499999999999773
 31
0.0
  0
LINE
  5
126
330
1E
100
AcDbEntity
  8
1
 62
     3
100
AcDbLine
 10
-0.8535898384862433
 20
-69.9999999999999
 30
0.0
 11
-0.8535898384862433
 21
0.0000000000002274
 31
0.0
  0
LINE
  5
127
330
1E
100
AcDbEntity
  8
1
 62
     7
100
AcDbLine
 10
-7.700000000000102
 20
-69.4999999999999
 30
0.0
 11
-7.700000000000046
 21
0.0000000000001137
 31
0.0
  0
LINE
  5
128
330
1E
100
AcDbEntity
  8
1
 62
     7
100
AcDbLine
 10
0.0
 20
0.0000000000001137
 30
0.0
 11
0.0
 21
-87.00000000000011
 31
0.0
  0
LINE
  5
129
330
1E
100
AcDbEntity
  8
1
 62
     7
100
AcDbLine
 10
18.00000000000006
 20
-87.0
 30
0.0
 11
18.00000000000006
 21
87.0
 31
0.0
  0
LINE
  5
12A
330
1E
100
AcDbEntity
  8
1
 62
     7
100
AcDbLine
 10
29.00000000000006
 20
69.99999999999977
 30
0.0
 11
22.00000000000005
 21
69.99999999999977
 31
0.0
  0
LINE
  5
12B
330
1E
100
AcDbEntity
  8
1
 62
     7
100
AcDbLine
 10
65.00000074322429
 20
63.99999999999989
 30
0.0
 11
29.00000000000006
 21
63.99999999999989
 31
0.0
  0
LINE
  5
12C
330
1E
100
AcDbEntity
  8
1
 62
     7
100
AcDbLine
 10
18.85358983848636
 20
74.0
 30
0.0
 11
21.50000000000017
 21
74.0
 31
0.0
  0
LINE
  5
12D
330
1E
100
AcDbEntity
  8
1
 62
     7
100
AcDbLine
 10
0.0
 20
87.0
 30
0.0
 11
0.0000000000012506
 21
20.26416044907251
 31
0.0
  0
LINE
  5
12E
330
1E
100
AcDbEntity
  8
1
 62
     7
100
AcDbLine
 10
18.59999999999996
 20
73.85358983848584
 30
0.0
 11
18.85358983848636
 21
74.0
 31
0.0
  0
LINE
  5
12F
330
1E
100
AcDbEntity
  8
1
 62
     7
100
AcDbLine
 10
-0.8535898384862433
 20
70.0
 30
0.0
 11
-0.5999999999999091
 21
69.85358983848584
 31
0.0
  0
LINE
  5
130
330
1E
100
AcDbEntity
  8
1
 62
     7
100
AcDbLine
 10
17.50000000000006
 20
87.5
 30
0.0
 11
18.00000000000006
 21
87.0
 31
0.0
  0
LINE
  5
131
330
1E
100
AcDbEntity
  8
1
 62
     7
100
AcDbLine
 10
0.0
 20
87.0
 30
0.0
 11
0.5
 21
87.5
 31
0.0
  0
LINE
  5
132
330
1E
100
AcDbEntity
  8
1
 62
     7
100
AcDbLine
 10
-7.70000000000033
 20
69.50000000000091
 30
0.0
 11
-7.200000000000046
 21
70.0
 31
0.0
  0
LINE
  5
133
330
1E
100
AcDbEntity
  8
1
 62
     7
100
AcDbLine
 10
0.5
 20
87.5
 30
0.0
 11
17.50000000000006
 21
87.5
 31
0.0
  0
LINE
  5
134
330
1E
100
AcDbEntity
  8
1
 62
     7
100
AcDbLine
 10
-7.200000000000046
 20
70.0
 30
0.0
 11
-0.8535898384862433
 21
70.0
 31
0.0
  0
LINE
  5
135
330
1E
100
AcDbEntity
  8
1
 62
     7
100
AcDbLine
 10
22.00000000000005
 20
-73.5000000000001
 30
0.0
 11
22.00000000000005
 21
73.50000000000045
 31
0.0
  0
LINE
  5
136
330
1E
100
AcDbEntity
  8
1
 62
     7
100
AcDbLine
 10
21.49999999999995
 20
-74.0
 30
0.0
 11
18.85358983848636
 21
-74.0
 31
0.0
  0
LINE
  5
137
330
1E
100
AcDbEntity
  8
1
 62
     7
100
AcDbLine
 10
18.85358983848636
 20
-74.0
 30
0.0
 11
18.59999999999996
 21
-73.85358983848618
 31
0.0
  0
LINE
  5
138
330
1E
100
AcDbEntity
  8
1
 62
     7
100
AcDbLine
 10
-0.5999999999999091
 20
-69.85358983848607
 30
0.0
 11
-0.8535898384862433
 21
-69.9999999999999
 31
0.0
  0
LINE
  5
139
330
1E
100
AcDbEntity
  8
1
 62
     7
100
AcDbLine
 10
18.00000000000006
 20
-87.0
 30
0.0
 11
17.50000000000006
 21
-87.5
 31
0.0
  0
LINE
  5
13A
330
1E
100
AcDbEntity
  8
1
 62
     7
100
AcDbLine
 10
0.5
 20
-87.5
 30
0.0
 11
0.0
 21
-87.00000000000011
 31
0.0
  0
LINE
  5
13B
330
1E
100
AcDbEntity
  8
1
 62
     7
100
AcDbLine
 10
-7.200000000000046
 20
-69.9999999999999
 30
0.0
 11
-7.700000000000102
 21
-69.4999999999999
 31
0.0
  0
LINE
  5
13C
330
1E
100
AcDbEntity
  8
1
 62
     7
100
AcDbLine
 10
17.50000000000006
 20
-87.5
 30
0.0
 11
0.5
 21
-87.5
 31
0.0
  0
LINE
  5
13D
330
1E
100
AcDbEntity
  8
1
 62
     7
100
AcDbLine
 10
-0.8535898384862433
 20
-69.9999999999999
 30
0.0
 11
-7.200000000000046
 21
-69.9999999999999
 31
0.0
  0
LINE
  5
13E
330
1E
100
AcDbEntity
  8
1
 62
     7
100
AcDbLine
 10
18.59999999999996
 20
73.85358983848584
 30
0.0
 11
18.85358983848636
 21
74.0
 31
0.0
  0
LINE
  5
13F
330
1E
100
AcDbEntity
  8
1
 62
     7
100
AcDbLine
 10
-7.700000000000046
 20
-67.49999999999897
 30
0.0
 11
-8.000000743223949
 21
-67.49999999999897
 31
0.0
  0
LINE
  5
140
330
1E
100
AcDbEntity
  8
1
 62
     7
100
AcDbLine
 10
-22.00000074322383
 20
3.06699540869249
 30
0.0
 11
-22.00000074322383
 21
-51.99999999999989
 31
0.0
  0
LINE
  5
141
330
1E
100
AcDbEntity
  8
1
 62
     7
100
AcDbLine
 10
-21.00000074322441
 20
30.0
 30
0.0
 11
-21.50000074322436
 21
30.50000000000011
 31
0.0
  0
LINE
  5
142
330
1E
100
AcDbEntity
  8
1
 62
     7
100
AcDbLine
 10
-18.50000074322384
 20
30.00000000000011
 30
0.0
 11
-18.50000074322384
 21
0.0000000000002274
 31
0.0
  0
LINE
  5
143
330
1E
100
AcDbEntity
  8
1
 62
     7
100
AcDbLine
 10
-21.50000074322384
 20
52.49999999999989
 30
0.0
 11
-16.50000074322384
 21
52.49999999999989
 31
0.0
  0
LINE
  5
144
330
1E
100
AcDbEntity
  8
1
 62
     7
100
AcDbLine
 10
-22.00000074322383
 20
51.99999999999989
 30
0.0
 11
-21.50000074322384
 21
52.49999999999989
 31
0.0
  0
LINE
  5
145
330
1E
100
AcDbEntity
  8
1
 62
     7
100
AcDbLine
 10
-22.00000074322383
 20
51.99999999999989
 30
0.0
 11
-22.00000074322383
 21
39.01772202382449
 31
0.0
  0
LINE
  5
146
330
1E
100
AcDbEntity
  8
1
 62
     7
100
AcDbLine
 10
-21.50000074322436
 20
33.5000000000001
 30
0.0
 11
-22.00000074322435
 21
33.5000000000001
 31
0.0
  0
LINE
  5
147
330
1E
100
AcDbEntity
  8
1
 62
     7
100
AcDbLine
 10
-18.50000074322384
 20
30.00000000000011
 30
0.0
 11
-21.00000074322441
 21
30.0
 31
0.0
  0
LINE
  5
148
330
1E
100
AcDbEntity
  8
1
 62
     7
100
AcDbLine
 10
-21.50000074322436
 20
5.326499913941461
 30
0.0
 11
-21.50000074322436
 21
33.5000000000001
 31
0.0
  0
LINE
  5
149
330
1E
100
AcDbEntity
  8
1
 62
     7
100
AcDbLine
 10
-21.50000074322384
 20
-52.49999999999989
 30
0.0
 11
-22.00000074322383
 21
-51.99999999999989
 31
0.0
  0
LINE
  5
14A
330
1E
100
AcDbEntity
  8
1
 62
     7
100
AcDbLine
 10
-8.000000743223836
 20
-68.70000000000016
 30
0.0
 11
-8.000000743223836
 21
0.0000000000001137
 31
0.0
  0
LINE
  5
14B
330
1E
100
AcDbEntity
  8
1
 62
     3
100
AcDbLine
 10
-16.50000074322393
 20
-37.38969839920081
 30
0.0
 11
-16.5000007432237
 21
0.0000000000001137
 31
0.0
  0
LINE
  5
14C
330
1E
100
AcDbEntity
  8
1
 62
     7
100
AcDbLine
 10
-16.00000074322384
 20
-56.63593056775415
 30
0.0
 11
-16.00000074322384
 21
0.0000000000002274
 31
0.0
  0
LINE
  5
14D
330
1E
100
AcDbEntity
  8
1
 62
     7
100
AcDbLine
 10
-11.700000743224
 20
-59.89999999999998
 30
0.0
 11
-11.700000743224
 21
0.0000000000002274
 31
0.0
  0
LINE
  5
14E
330
1E
100
AcDbEntity
  8
1
 62
     7
100
AcDbLine
 10
-16.00000074322384
 20
-56.63593056775415
 30
0.0
 11
-16.00000074322384
 21
-58.49999999999898
 31
0.0
  0
LINE
  5
14F
330
1E
100
AcDbEntity
  8
1
 62
     7
100
AcDbLine
 10
-15.00000074322382
 20
-59.49999999999898
 30
0.0
 11
-12.10000074322375
 21
-59.49999999999898
 31
0.0
  0
LINE
  5
150
330
1E
100
AcDbEntity
  8
1
 62
     7
100
AcDbLine
 10
-10.70000074322398
 20
-68.70000000000016
 30
0.0
 11
-8.000000743223836
 21
-68.70000000000016
 31
0.0
  0
LINE
  5
151
330
1E
100
AcDbEntity
  8
1
 62
     7
100
AcDbLine
 10
-11.700000743224
 20
-59.89999999999998
 30
0.0
 11
-11.700000743224
 21
-67.70000000000016
 31
0.0
  0
LINE
  5
152
330
1E
100
AcDbEntity
  8
1
 62
     3
100
AcDbLine
 10
-16.50000074322393
 20
-55.96414533542429
 30
0.0
 11
-16.50000074322393
 21
-37.38969839920081
 31
0.0
  0
LINE
  5
153
330
1E
100
AcDbEntity
  8
1
 62
     3
100
AcDbLine
 10
-16.00000074322384
 20
-56.63593056775415
 30
0.0
 11
-16.50000074322393
 21
-55.96414533542429
 31
0.0
  0
LINE
  5
154
330
1E
100
AcDbEntity
  8
1
 62
     7
100
AcDbLine
 10
-12.10000074322414
 20
59.0
 30
0.0
 11
-15.00000074322382
 21
59.0
 31
0.0
  0
LINE
  5
155
330
1E
100
AcDbEntity
  8
1
 62
     7
100
AcDbLine
 10
-8.000000743223836
 20
22.31706018487489
 30
0.0
 11
-8.000000743223836
 21
68.5
 31
0.0
  0
LINE
  5
156
330
1E
100
AcDbEntity
  8
1
 62
     7
100
AcDbLine
 10
-8.000000743223836
 20
68.5
 30
0.0
 11
-10.70000074322398
 21
68.5
 31
0.0
  0
LINE
  5
157
330
1E
100
AcDbEntity
  8
1
 62
     3
100
AcDbLine
 10
-16.50000074322384
 20
55.96414533542397
 30
0.0
 11
-16.00000074322384
 21
56.63593056775403
 31
0.0
  0
LINE
  5
158
330
1E
100
AcDbEntity
  8
1
 62
     7
100
AcDbLine
 10
-1.999999999999429
 20
17.50000000000011
 30
0.0
 11
3.361925894398667
 21
17.50000000000011
 31
0.0
  0
LINE
  5
159
330
1E
100
AcDbEntity
  8
1
 62
     7
100
AcDbLine
 10
-1.999999999999429
 20
17.50000000000011
 30
0.0
 11
-1.999999999999429
 21
0.0000000000001137
 31
0.0
  0
LINE
  5
15A
330
1E
100
AcDbEntity
  8
1
 62
     7
100
AcDbLine
 10
70.50000074322378
 20
63.69999999999084
 30
0.0
 11
70.20000074321086
 21
63.99999999999989
 31
0.0
  0
LINE
  5
15B
330
1E
100
AcDbEntity
  8
1
 62
     7
100
AcDbLine
 10
65.00000074322378
 20
-63.70000000000107
 30
0.0
 11
65.30000074322368
 21
-63.99999999999989
 31
0.0
  0
LINE
  5
15C
330
1E
100
AcDbEntity
  8
1
 62
     7
100
AcDbLine
 10
65.00000074322378
 20
63.69999999998585
 30
0.0
 11
65.30000074324488
 21
63.99999999999989
 31
0.0
  0
LINE
  5
15D
330
1E
100
AcDbEntity
  8
1
 62
     7
100
AcDbLine
 10
65.30000074322368
 20
-63.99999999999989
 30
0.0
 11
70.20000074322408
 21
-63.99999999999989
 31
0.0
  0
LINE
  5
15E
330
1E
100
AcDbEntity
  8
1
 62
     7
100
AcDbLine
 10
70.20000074322408
 20
-63.99999999999989
 30
0.0
 11
70.50000074321378
 21
-63.70000000001198
 31
0.0
  0
LINE
  5
15F
330
1E
100
AcDbEntity
  8
1
 62
     7
100
AcDbLine
 10
70.20000074321086
 20
63.99999999999989
 30
0.0
 11
65.30000074324488
 21
63.99999999999989
 31
0.0
  0
LINE
  5
160
330
1E
100
AcDbEntity
  8
1
 62
     7
100
AcDbLine
 10
89.00000074322139
 20
-63.70000000000004
 30
0.0
 11
88.99996382406818
 21
-63.70000000001004
 31
0.0
  0
LINE
  5
161
330
1E
100
AcDbEntity
  8
1
 62
     7
100
AcDbLine
 10
89.00000074322139
 20
-63.70000000000004
 30
0.0
 11
89.50000074322138
 21
-63.20000000000003
 31
0.0
  0
LINE
  5
162
330
1E
100
AcDbEntity
  8
1
 62
     7
100
AcDbLine
 10
74.0000007432232
 20
63.94324324324327
 30
0.0
 11
70.50000074322378
 21
63.99999999999989
 31
0.0
  0
LINE
  5
163
330
1E
100
AcDbEntity
  8
1
 62
     7
100
AcDbLine
 10
89.50000074322138
 20
63.19999999999993
 30
0.0
 11
89.0000007432218
 21
63.70000000000004
 31
0.0
  0
LINE
  5
164
330
1E
100
AcDbEntity
  8
1
 62
     7
100
AcDbLine
 10
89.50000074322138
 20
-63.20000000000003
 30
0.0
 11
89.00000074322139
 21
-63.70000000000004
 31
0.0
  0
LINE
  5
165
330
1E
100
AcDbEntity
  8
1
 62
     7
100
AcDbLine
 10
89.50000074322138
 20
63.19999999999993
 30
0.0
 11
89.50000074322138
 21
-63.20000000000003
 31
0.0
  0
LINE
  5
166
330
1E
100
AcDbEntity
  8
1
  6
CENTER
 62
     3
100
AcDbLine
 10
80.50000074322287
 20
57.48503285498646
 30
0.0
 11
80.50000074322287
 21
92.84009824836777
 31
0.0
  0
LINE
  5
167
330
1E
100
AcDbEntity
  8
1
 62
     7
100
AcDbLine
 10
29.00000000000006
 20
-69.9999999999999
 30
0.0
 11
29.00000000000006
 21
69.99999999999977
 31
0.0
  0
LINE
  5
168
330
1E
100
AcDbEntity
  8
1
 62
     7
100
AcDbLine
 10
22.00000000000005
 20
-69.9999999999999
 30
0.0
 11
29.00000000000006
 21
-69.9999999999999
 31
0.0
  0
LINE
  5
169
330
1E
100
AcDbEntity
  8
1
 62
     7
100
AcDbLine
 10
29.00000000000006
 20
-63.99999999999989
 30
0.0
 11
65.00000074322429
 21
-63.99999999999989
 31
0.0
  0
LINE
  5
16A
330
1E
100
AcDbEntity
  8
1
  6
CENTER
 62
     3
100
AcDbLine
 10
-126.8852903759915
 20
50.14076724999483
 30
0.0
 11
-121.3340758451514
 21
59.75575286112518
 31
0.0
  0
LINE
  5
16B
330
1E
100
AcDbEntity
  8
1
  6
CENTER
 62
     3
100
AcDbLine
 10
-190.3340758451499
 20
59.75575286112518
 30
0.0
 11
-184.7828613143095
 21
50.14076724999483
 31
0.0
  0
LINE
  5
16C
330
1E
100
AcDbEntity
  8
1
  6
CENTER
 62
     3
100
AcDbLine
 10
-215.5898287062758
 20
34.49999999999931
 30
0.0
 11
-205.9748430951456
 21
28.94878546915889
 31
0.0
  0
LINE
  5
16D
330
1E
100
AcDbEntity
  8
1
  6
CENTER
 62
     3
100
AcDbLine
 10
-184.7828613143095
 20
-50.14076724999507
 30
0.0
 11
-190.3340758451499
 21
-59.75575286112542
 31
0.0
  0
LINE
  5
16E
330
1E
100
AcDbEntity
  8
1
  6
CENTER
 62
     3
100
AcDbLine
 10
-205.9748430951456
 20
-28.94878546915913
 30
0.0
 11
-215.5898287062758
 21
-34.49999999999955
 31
0.0
  0
LINE
  5
16F
330
1E
100
AcDbEntity
  8
1
  6
CENTER
 62
     3
100
AcDbLine
 10
-121.3340758451514
 20
-59.75575286112542
 30
0.0
 11
-126.8852903759915
 21
-50.14076724999507
 31
0.0
  0
LINE
  5
170
330
1E
100
AcDbEntity
  8
1
  6
CENTER
 62
     3
100
AcDbLine
 10
-10.10795749033092
 20
63.49999999999909
 30
0.0
 11
-17.50310162195102
 21
63.49999999999909
 31
0.0
  0
LINE
  5
171
330
1E
100
AcDbEntity
  8
1
 62
     7
100
AcDbLine
 10
-11.700000743224
 20
24.86394832302028
 30
0.0
 11
-11.700000743224
 21
67.5000000000001
 31
0.0
  0
LINE
  5
172
330
1E
100
AcDbEntity
  8
1
 62
     7
100
AcDbLine
 10
65.00000074322429
 20
-63.99999999999989
 30
0.0
 11
65.00000074322429
 21
63.99999999999989
 31
0.0
  0
LINE
  5
173
330
1E
100
AcDbEntity
  8
1
 62
     7
100
AcDbLine
 10
70.50000074322378
 20
63.99999999999989
 30
0.0
 11
70.50000074322378
 21
-63.99999999999989
 31
0.0
  0
LINE
  5
174
330
1E
100
AcDbEntity
  8
1
 62
     7
100
AcDbLine
 10
70.50000074322378
 20
-63.99999999999989
 30
0.0
 11
88.99996382406818
 21
-63.70000000001004
 31
0.0
  0
LINE
  5
175
330
1E
100
AcDbEntity
  8
1
 62
     7
100
AcDbLine
 10
-16.50000074322393
 20
-52.49999999999989
 30
0.0
 11
-17.00000074322383
 21
-52.49999999999989
 31
0.0
  0
LINE
  5
176
330
1E
100
AcDbEntity
  8
1
 62
     7
100
AcDbLine
 10
-17.00000074322383
 20
-52.49999999999989
 30
0.0
 11
-21.50000074322384
 21
-52.49999999999989
 31
0.0
  0
LINE
  5
177
330
1E
100
AcDbEntity
  8
1
 62
     7
100
AcDbLine
 10
223.7850818564734
 20
77.83898993488083
 30
0.0
 11
233.042274734788
 21
76.20669706481158
 31
0.0
  0
LINE
  5
178
330
1E
100
AcDbEntity
  8
1
 62
     7
100
AcDbLine
 10
222.7354095129954
 20
76.49305646710423
 30
0.0
 11
233.5682947692683
 21
74.58292636042802
 31
0.0
  0
LINE
  5
179
330
1E
100
AcDbEntity
  8
1
 62
     7
100
AcDbLine
 10
232.4978649209052
 20
65.63283250953827
 30
0.0
 11
233.9032996513139
 21
73.60344832026341
 31
0.0
  0
LINE
  5
17A
330
1E
100
AcDbEntity
  8
1
 62
     7
100
AcDbLine
 10
222.0856066497668
 20
75.68722661752213
 30
0.0
 11
220.6801719140643
 21
67.71661080772968
 31
0.0
  0
LINE
  5
17B
330
1E
100
AcDbEntity
  8
1
 62
     7
100
AcDbLine
 10
220.2473988715536
 20
65.26223311358115
 30
0.0
 11
232.0650918783945
 21
63.17845481538892
 31
0.0
  0
LINE
  5
17C
330
1E
100
AcDbEntity
  8
1
 62
     7
100
AcDbLine
 10
196.6245889671571
 20
76.19581960014091
 30
0.0
 11
205.8817818454715
 21
77.82811247020994
 31
0.0
  0
LINE
  5
17D
330
1E
100
AcDbEntity
  8
1
 62
     7
100
AcDbLine
 10
196.0972150312473
 20
74.57968942848911
 30
0.0
 11
206.9301067463781
 21
76.48982058670492
 31
0.0
  0
LINE
  5
17E
330
1E
100
AcDbEntity
  8
1
 62
     7
100
AcDbLine
 10
208.9853443487981
 20
67.71337492814835
 30
0.0
 11
207.5801370646533
 21
75.68270077763611
 31
0.0
  0
LINE
  5
17F
330
1E
100
AcDbEntity
  8
1
 62
     7
100
AcDbLine
 10
195.7624440586404
 20
73.59892247474704
 30
0.0
 11
197.1676513427851
 21
65.62959662525918
 31
0.0
  0
LINE
  5
180
330
1E
100
AcDbEntity
  8
1
 62
     7
100
AcDbLine
 10
197.6017718041811
 20
63.16757734487828
 30
0.0
 11
209.4194648101936
 21
65.25135564776963
 31
0.0
  0
LINE
  5
181
330
1E
100
AcDbEntity
  8
1
  6
CENTER
 62
     3
100
AcDbLine
 10
214.8324728557213
 20
-97.5
 30
0.0
 11
214.8324728557213
 21
97.5
 31
0.0
  0
LINE
  5
182
330
1E
100
AcDbEntity
  8
1
  6
CENTER
 62
     3
100
AcDbLine
 10
-253.3340758451508
 20
0.0
 30
0.0
 11
312.3324728557213
 21
0.0
 31
0.0
  0
LINE
  5
183
330
1E
100
AcDbEntity
  8
1
  6
CENTER
 62
     3
100
AcDbLine
 10
-155.8340758451507
 20
-97.50000000000023
 30
0.0
 11
-155.8340758451507
 21
97.5
 31
0.0
  0
LINE
  5
184
330
1E
100
AcDbEntity
  8
1
 62
     7
100
AcDbLine
 10
189.2558739694993
 20
129.935325974227
 30
0.0
 11
194.4276508430194
 21
130.8382668527384
 31
0.0
  0
LINE
  5
185
330
1E
100
AcDbEntity
  8
1
 62
     3
100
AcDbLine
 10
190.5700096636721
 20
134.7198815323961
 30
0.0
 11
191.3495060165198
 21
130.2991376642222
 31
0.0
  0
LINE
  5
186
330
1E
100
AcDbEntity
  8
1
 62
     3
100
AcDbLine
 10
189.9546812138244
 20
134.6103528101015
 30
0.0
 11
190.7341775666719
 21
130.1896089419275
 31
0.0
  0
LINE
  5
187
330
1E
100
AcDbEntity
  8
1
 62
     3
100
AcDbLine
 10
189.4624256076176
 20
134.5226878385439
 30
0.0
 11
190.241921960465
 21
130.1019439703701
 31
0.0
  0
LINE
  5
188
330
1E
100
AcDbEntity
  8
1
 62
     3
100
AcDbLine
 10
188.970170001411
 20
134.4350228669862
 30
0.0
 11
189.7496663542584
 21
130.0142789988123
 31
0.0
  0
LINE
  5
189
330
1E
100
AcDbEntity
  8
1
  6
CENTER
 62
     3
100
AcDbLine
 10
225.2860931512528
 20
59.28542673123445
 30
0.0
 11
239.698891897608
 21
141.0244702312477
 31
0.0
  0
LINE
  5
18A
330
1E
100
AcDbEntity
  8
1
  6
CENTER
 62
     3
100
AcDbLine
 10
204.3788525601898
 20
59.28542673123457
 30
0.0
 11
189.9660538138346
 21
141.0244702312479
 31
0.0
  0
LINE
  5
18B
330
1E
100
AcDbEntity
  8
1
 62
     7
100
AcDbLine
 10
263.242565132504
 20
29.06223912616065
 30
0.0
 11
262.5581038639028
 21
29.20891145410507
 31
0.0
  0
LINE
  5
18C
330
1E
100
AcDbEntity
  8
1
 62
     7
100
AcDbLine
 10
262.5581038639028
 20
29.20891145410507
 30
0.0
 11
262.4114315359581
 21
28.52445018550384
 31
0.0
  0
LINE
  5
18D
330
1E
100
AcDbEntity
  8
1
 62
     7
100
AcDbLine
 10
262.4114315359581
 20
28.52445018550384
 30
0.0
 11
263.0958928045589
 21
28.37777785755918
 31
0.0
  0
LINE
  5
18E
330
1E
100
AcDbEntity
  8
1
 62
     7
100
AcDbLine
 10
263.6336817452158
 20
27.54664426101318
 30
0.0
 11
263.487009417271
 21
26.86218299241181
 31
0.0
  0
LINE
  5
18F
330
1E
100
AcDbEntity
  8
1
 62
     7
100
AcDbLine
 10
263.487009417271
 20
26.86218299241181
 30
0.0
 11
264.1714706858724
 21
26.71551066446715
 31
0.0
  0
LINE
  5
190
330
1E
100
AcDbEntity
  8
1
 62
     7
100
AcDbLine
 10
264.1714706858724
 20
26.71551066446715
 30
0.0
 11
264.3181430138174
 21
27.39997193306852
 31
0.0
  0
LINE
  5
191
330
1E
100
AcDbEntity
  8
1
 62
     7
100
AcDbLine
 10
265.2959489383076
 20
28.62222214232634
 30
0.0
 11
265.9804102069089
 21
28.47554981438168
 31
0.0
  0
LINE
  5
192
330
1E
100
AcDbEntity
  8
1
 62
     7
100
AcDbLine
 10
265.9804102069089
 20
28.47554981438168
 30
0.0
 11
265.8337378789644
 21
27.79108854578044
 31
0.0
  0
LINE
  5
193
330
1E
100
AcDbEntity
  8
1
 62
     7
100
AcDbLine
 10
265.8337378789644
 20
27.79108854578044
 30
0.0
 11
265.1492766103633
 21
27.93776087372497
 31
0.0
  0
LINE
  5
194
330
1E
100
AcDbEntity
  8
1
 62
     7
100
AcDbLine
 10
264.0736987290499
 20
29.600028066817
 30
0.0
 11
264.2203710569944
 21
30.28448933541835
 31
0.0
  0
LINE
  5
195
330
1E
100
AcDbEntity
  8
1
 62
     7
100
AcDbLine
 10
264.2203710569944
 20
30.28448933541835
 30
0.0
 11
264.9048323255959
 21
30.13781700747369
 31
0.0
  0
LINE
  5
196
330
1E
100
AcDbEntity
  8
1
 62
     7
100
AcDbLine
 10
264.9048323255959
 20
30.13781700747369
 30
0.0
 11
264.7581599976514
 21
29.45335573887246
 31
0.0
  0
LINE
  5
197
330
1E
100
AcDbEntity
  8
1
 62
     7
100
AcDbLine
 10
215.541384309883
 20
-55.36218299252539
 30
0.0
 11
215.3947119819387
 21
-56.04664426112663
 31
0.0
  0
LINE
  5
198
330
1E
100
AcDbEntity
  8
1
 62
     7
100
AcDbLine
 10
214.8569230412819
 20
-55.21551066458073
 30
0.0
 11
215.541384309883
 21
-55.36218299252539
 31
0.0
  0
LINE
  5
199
330
1E
100
AcDbEntity
  8
1
 62
     7
100
AcDbLine
 10
214.7102507133371
 20
-55.89997193318209
 30
0.0
 11
214.8569230412819
 21
-55.21551066458073
 31
0.0
  0
LINE
  5
19A
330
1E
100
AcDbEntity
  8
1
 62
     7
100
AcDbLine
 10
216.4702898632516
 20
-57.70891145421864
 30
0.0
 11
215.7858285946506
 21
-57.56223912627411
 31
0.0
  0
LINE
  5
19B
330
1E
100
AcDbEntity
  8
1
 62
     7
100
AcDbLine
 10
216.6169621911964
 20
-57.02445018561741
 30
0.0
 11
216.4702898632516
 21
-57.70891145421864
 31
0.0
  0
LINE
  5
19C
330
1E
100
AcDbEntity
  8
1
 62
     7
100
AcDbLine
 10
215.9325009225948
 20
-56.87777785767273
 30
0.0
 11
216.6169621911964
 21
-57.02445018561741
 31
0.0
  0
LINE
  5
19D
330
1E
100
AcDbEntity
  8
1
 62
     7
100
AcDbLine
 10
214.8080226701595
 20
-58.78448933553193
 30
0.0
 11
214.9546949981048
 21
-58.10002806693058
 31
0.0
  0
LINE
  5
19E
330
1E
100
AcDbEntity
  8
1
 62
     7
100
AcDbLine
 10
214.1235614015585
 20
-58.63781700758727
 30
0.0
 11
214.8080226701595
 21
-58.78448933553193
 31
0.0
  0
LINE
  5
19F
330
1E
100
AcDbEntity
  8
1
 62
     7
100
AcDbLine
 10
214.270233729503
 20
-57.95335573898592
 30
0.0
 11
214.1235614015585
 21
-58.63781700758727
 31
0.0
  0
LINE
  5
1A0
330
1E
100
AcDbEntity
  8
1
 62
     7
100
AcDbLine
 10
213.0479835202454
 20
-56.97554981449524
 30
0.0
 11
213.7324447888464
 21
-57.12222214243991
 31
0.0
  0
LINE
  5
1A1
330
1E
100
AcDbEntity
  8
1
 62
     7
100
AcDbLine
 10
213.1946558481899
 20
-56.29108854589401
 30
0.0
 11
213.0479835202454
 21
-56.97554981449524
 31
0.0
  0
LINE
  5
1A2
330
1E
100
AcDbEntity
  8
1
 62
     7
100
AcDbLine
 10
213.8791171167913
 20
-56.43776087383844
 30
0.0
 11
213.1946558481899
 21
-56.29108854589401
 31
0.0
  0
LINE
  5
1A3
330
1E
100
AcDbEntity
  8
1
  6
CENTER
 62
     3
100
AcDbLine
 10
270.4746050488704
 20
32.12499999994224
 30
0.0
 11
257.9172366939967
 21
24.87499999994303
 31
0.0
  0
LINE
  5
1A4
330
1E
100
AcDbEntity
  8
1
 62
     7
100
AcDbLine
 10
167.1068418475395
 20
29.20891145410507
 30
0.0
 11
166.4223805789385
 21
29.06223912616065
 31
0.0
  0
LINE
  5
1A5
330
1E
100
AcDbEntity
  8
1
 62
     7
100
AcDbLine
 10
167.2535141754843
 20
28.52445018550384
 30
0.0
 11
167.1068418475395
 21
29.20891145410507
 31
0.0
  0
LINE
  5
1A6
330
1E
100
AcDbEntity
  8
1
 62
     7
100
AcDbLine
 10
166.5690529068833
 20
28.37777785755918
 30
0.0
 11
167.2535141754843
 21
28.52445018550384
 31
0.0
  0
LINE
  5
1A7
330
1E
100
AcDbEntity
  8
1
 62
     7
100
AcDbLine
 10
166.1779362941713
 20
26.86218299241181
 30
0.0
 11
166.0312639662267
 21
27.54664426101318
 31
0.0
  0
LINE
  5
1A8
330
1E
100
AcDbEntity
  8
1
 62
     7
100
AcDbLine
 10
165.4934750255701
 20
26.71551066446715
 30
0.0
 11
166.1779362941713
 21
26.86218299241181
 31
0.0
  0
LINE
  5
1A9
330
1E
100
AcDbEntity
  8
1
 62
     7
100
AcDbLine
 10
165.346802697625
 20
27.39997193306852
 30
0.0
 11
165.4934750255701
 21
26.71551066446715
 31
0.0
  0
LINE
  5
1AA
330
1E
100
AcDbEntity
  8
1
 62
     7
100
AcDbLine
 10
163.6845355045334
 20
28.47554981438168
 30
0.0
 11
164.3689967731349
 21
28.62222214232634
 31
0.0
  0
LINE
  5
1AB
330
1E
100
AcDbEntity
  8
1
 62
     7
100
AcDbLine
 10
163.831207832478
 20
27.79108854578044
 30
0.0
 11
163.6845355045334
 21
28.47554981438168
 31
0.0
  0
LINE
  5
1AC
330
1E
100
AcDbEntity
  8
1
 62
     7
100
AcDbLine
 10
164.5156691010793
 20
27.93776087372497
 30
0.0
 11
163.831207832478
 21
27.79108854578044
 31
0.0
  0
LINE
  5
1AD
330
1E
100
AcDbEntity
  8
1
 62
     7
100
AcDbLine
 10
165.4445746544479
 20
30.28448933541835
 30
0.0
 11
165.5912469823927
 21
29.600028066817
 31
0.0
  0
LINE
  5
1AE
330
1E
100
AcDbEntity
  8
1
 62
     7
100
AcDbLine
 10
164.7601133858466
 20
30.13781700747369
 30
0.0
 11
165.4445746544479
 21
30.28448933541835
 31
0.0
  0
LINE
  5
1AF
330
1E
100
AcDbEntity
  8
1
 62
     7
100
AcDbLine
 10
164.906785713791
 20
29.45335573887246
 30
0.0
 11
164.7601133858466
 21
30.13781700747369
 31
0.0
  0
LINE
  5
1B0
330
1E
100
AcDbEntity
  8
1
  6
CENTER
 62
     3
100
AcDbLine
 10
171.7477090174456
 20
24.87499999994303
 30
0.0
 11
159.190340662572
 21
32.12499999994224
 31
0.0
  0
LINE
  5
1B1
330
1E
100
AcDbEntity
  8
1
  6
CENTER
 62
     3
100
AcDbLine
 10
144.5714344082398
 20
29.1030750314543
 30
0.0
 11
135.4250270363779
 21
32.89164101186873
 31
0.0
  0
LINE
  5
1B2
330
1E
100
AcDbEntity
  8
1
  6
CENTER
 62
     3
100
AcDbLine
 10
161.0570021464861
 20
-53.77547070914773
 30
0.0
 11
154.0566450127394
 21
-60.77582784289472
 31
0.0
  0
LINE
  5
1B3
330
1E
100
AcDbEntity
  8
1
  6
CENTER
 62
     3
100
AcDbLine
 10
144.5714344082398
 20
-29.10307503127592
 30
0.0
 11
135.4250270363779
 21
-32.89164101169034
 31
0.0
  0
LINE
  5
1B4
330
1E
100
AcDbEntity
  8
1
  6
CENTER
 62
     3
100
AcDbLine
 10
-95.05824800216698
 20
-60.77582784298375
 30
0.0
 11
-102.0586051359138
 21
-53.77547070923674
 31
0.0
  0
LINE
  5
1B5
330
1E
100
AcDbEntity
  8
1
  6
CENTER
 62
     3
100
AcDbLine
 10
-76.42663002580565
 20
-32.89164101177937
 30
0.0
 11
-85.57303739766741
 21
-29.10307503136494
 31
0.0
  0
LINE
  5
1B6
330
1E
100
AcDbEntity
  8
1
  6
CENTER
 62
     3
100
AcDbLine
 10
-76.42663002580555
 20
32.89164101177971
 30
0.0
 11
-85.57303739766741
 21
29.10307503136527
 31
0.0
  0
LINE
  5
1B7
330
1E
100
AcDbEntity
  8
1
  6
CENTER
 62
     3
100
AcDbLine
 10
-105.6933085951557
 20
28.94878546915913
 30
0.0
 11
-96.07832298402552
 21
34.49999999999955
 31
0.0
  0
LINE
  5
1B8
330
1E
100
AcDbEntity
  8
1
  6
CENTER
 62
     3
100
AcDbLine
 10
-96.07832298402552
 20
-34.49999999999931
 30
0.0
 11
-105.6933085951557
 21
-28.94878546915889
 31
0.0
  0
LINE
  5
1B9
330
1E
100
AcDbEntity
  8
1
 62
     7
100
AcDbLine
 10
-154.3340758451505
 20
64.36602540378316
 30
0.0
 11
-155.8340758451507
 21
65.2320508075676
 31
0.0
  0
LINE
  5
1BA
330
1E
100
AcDbEntity
  8
1
 62
     7
100
AcDbLine
 10
-155.8340758451507
 20
65.2320508075676
 30
0.0
 11
-157.3340758451505
 21
64.36602540378316
 31
0.0
  0
LINE
  5
1BB
330
1E
100
AcDbEntity
  8
1
 62
     7
100
AcDbLine
 10
-157.3340758451505
 20
64.36602540378316
 30
0.0
 11
-157.3340758451505
 21
62.63397459621433
 31
0.0
  0
LINE
  5
1BC
330
1E
100
AcDbEntity
  8
1
 62
     7
100
AcDbLine
 10
-157.3340758451505
 20
62.63397459621433
 30
0.0
 11
-155.8340758451507
 21
61.7679491924299
 31
0.0
  0
LINE
  5
1BD
330
1E
100
AcDbEntity
  8
1
 62
     7
100
AcDbLine
 10
-155.8340758451507
 20
61.7679491924299
 30
0.0
 11
-154.3340758451505
 21
62.63397459621433
 31
0.0
  0
LINE
  5
1BE
330
1E
100
AcDbEntity
  8
1
 62
     7
100
AcDbLine
 10
-154.3340758451505
 20
62.63397459621433
 30
0.0
 11
-154.3340758451505
 21
64.36602540378316
 31
0.0
  0
LINE
  5
1BF
330
1E
100
AcDbEntity
  8
1
 62
     7
100
AcDbLine
 10
-185.8520250375813
 20
54.99261314031071
 30
0.0
 11
-186.7180504413657
 21
56.49261314031071
 31
0.0
  0
LINE
  5
1C0
330
1E
100
AcDbEntity
  8
1
 62
     7
100
AcDbLine
 10
-186.7180504413657
 20
53.49261314031071
 30
0.0
 11
-185.8520250375813
 21
54.99261314031071
 31
0.0
  0
LINE
  5
1C1
330
1E
100
AcDbEntity
  8
1
 62
     7
100
AcDbLine
 10
-188.4501012489345
 20
53.49261314031071
 30
0.0
 11
-186.7180504413657
 21
53.49261314031071
 31
0.0
  0
LINE
  5
1C2
330
1E
100
AcDbEntity
  8
1
 62
     7
100
AcDbLine
 10
-189.3161266527189
 20
54.99261314031071
 30
0.0
 11
-188.4501012489345
 21
53.49261314031071
 31
0.0
  0
LINE
  5
1C3
330
1E
100
AcDbEntity
  8
1
 62
     7
100
AcDbLine
 10
-188.4501012489345
 20
56.49261314031071
 30
0.0
 11
-189.3161266527189
 21
54.99261314031071
 31
0.0
  0
LINE
  5
1C4
330
1E
100
AcDbEntity
  8
1
 62
     7
100
AcDbLine
 10
-186.7180504413657
 20
56.49261314031071
 30
0.0
 11
-188.4501012489345
 21
56.49261314031071
 31
0.0
  0
LINE
  5
1C5
330
1E
100
AcDbEntity
  8
1
 62
     7
100
AcDbLine
 10
-210.8266889854615
 20
33.48205080756804
 30
0.0
 11
-212.3266889854613
 21
32.61602540378362
 31
0.0
  0
LINE
  5
1C6
330
1E
100
AcDbEntity
  8
1
 62
     7
100
AcDbLine
 10
-212.3266889854613
 20
32.61602540378362
 30
0.0
 11
-212.3266889854613
 21
30.88397459621478
 31
0.0
  0
LINE
  5
1C7
330
1E
100
AcDbEntity
  8
1
 62
     7
100
AcDbLine
 10
-212.3266889854613
 20
30.88397459621478
 30
0.0
 11
-210.8266889854615
 21
30.01794919243037
 31
0.0
  0
LINE
  5
1C8
330
1E
100
AcDbEntity
  8
1
 62
     7
100
AcDbLine
 10
-210.8266889854615
 20
30.01794919243037
 30
0.0
 11
-209.3266889854615
 21
30.88397459621478
 31
0.0
  0
LINE
  5
1C9
330
1E
100
AcDbEntity
  8
1
 62
     7
100
AcDbLine
 10
-209.3266889854615
 20
30.88397459621478
 30
0.0
 11
-209.3266889854615
 21
32.61602540378373
 31
0.0
  0
LINE
  5
1CA
330
1E
100
AcDbEntity
  8
1
 62
     7
100
AcDbLine
 10
-209.3266889854615
 20
32.61602540378373
 30
0.0
 11
-210.8266889854615
 21
33.48205080756804
 31
0.0
  0
LINE
  5
1CB
330
1E
100
AcDbEntity
  8
1
 62
     7
100
AcDbLine
 10
-218.4680504413651
 20
1.499999999999884
 30
0.0
 11
-220.2001012489339
 21
1.499999999999773
 31
0.0
  0
LINE
  5
1CC
330
1E
100
AcDbEntity
  8
1
 62
     7
100
AcDbLine
 10
-217.6020250375807
 20
-0.0000000000002274
 30
0.0
 11
-218.4680504413651
 21
1.499999999999884
 31
0.0
  0
LINE
  5
1CD
330
1E
100
AcDbEntity
  8
1
 62
     7
100
AcDbLine
 10
-218.4680504413651
 20
-1.500000000000224
 30
0.0
 11
-217.6020250375807
 21
-0.0000000000002274
 31
0.0
  0
LINE
  5
1CE
330
1E
100
AcDbEntity
  8
1
 62
     7
100
AcDbLine
 10
-220.2001012489339
 20
-1.500000000000224
 30
0.0
 11
-218.4680504413651
 21
-1.500000000000224
 31
0.0
  0
LINE
  5
1CF
330
1E
100
AcDbEntity
  8
1
 62
     7
100
AcDbLine
 10
-221.0661266527182
 20
-0.0000000000002274
 30
0.0
 11
-220.2001012489339
 21
-1.500000000000224
 31
0.0
  0
LINE
  5
1D0
330
1E
100
AcDbEntity
  8
1
 62
     7
100
AcDbLine
 10
-220.2001012489339
 20
1.499999999999773
 30
0.0
 11
-221.0661266527182
 21
-0.0000000000002274
 31
0.0
  0
LINE
  5
1D1
330
1E
100
AcDbEntity
  8
1
 62
     7
100
AcDbLine
 10
-212.3266889854613
 20
-30.88397459621524
 30
0.0
 11
-212.3266889854613
 21
-32.61602540378408
 31
0.0
  0
LINE
  5
1D2
330
1E
100
AcDbEntity
  8
1
 62
     7
100
AcDbLine
 10
-212.3266889854613
 20
-32.61602540378408
 30
0.0
 11
-210.8266889854615
 21
-33.4820508075685
 31
0.0
  0
LINE
  5
1D3
330
1E
100
AcDbEntity
  8
1
 62
     7
100
AcDbLine
 10
-210.8266889854615
 20
-33.4820508075685
 30
0.0
 11
-209.3266889854615
 21
-32.61602540378408
 31
0.0
  0
LINE
  5
1D4
330
1E
100
AcDbEntity
  8
1
 62
     7
100
AcDbLine
 10
-209.3266889854615
 20
-32.61602540378408
 30
0.0
 11
-209.3266889854615
 21
-30.88397459621524
 31
0.0
  0
LINE
  5
1D5
330
1E
100
AcDbEntity
  8
1
 62
     7
100
AcDbLine
 10
-209.3266889854615
 20
-30.88397459621524
 30
0.0
 11
-210.8266889854615
 21
-30.01794919243071
 31
0.0
  0
LINE
  5
1D6
330
1E
100
AcDbEntity
  8
1
 62
     7
100
AcDbLine
 10
-210.8266889854615
 20
-30.01794919243071
 30
0.0
 11
-212.3266889854613
 21
-30.88397459621524
 31
0.0
  0
LINE
  5
1D7
330
1E
100
AcDbEntity
  8
1
 62
     7
100
AcDbLine
 10
-188.4501012489345
 20
-53.49261314031105
 30
0.0
 11
-189.3161266527188
 21
-54.99261314031116
 31
0.0
  0
LINE
  5
1D8
330
1E
100
AcDbEntity
  8
1
 62
     7
100
AcDbLine
 10
-186.7180504413656
 20
-53.49261314031116
 30
0.0
 11
-188.4501012489345
 21
-53.49261314031105
 31
0.0
  0
LINE
  5
1D9
330
1E
100
AcDbEntity
  8
1
 62
     7
100
AcDbLine
 10
-185.8520250375811
 20
-54.99261314031105
 30
0.0
 11
-186.7180504413656
 21
-53.49261314031116
 31
0.0
  0
LINE
  5
1DA
330
1E
100
AcDbEntity
  8
1
 62
     7
100
AcDbLine
 10
-186.7180504413657
 20
-56.49261314031105
 30
0.0
 11
-185.8520250375811
 21
-54.99261314031105
 31
0.0
  0
LINE
  5
1DB
330
1E
100
AcDbEntity
  8
1
 62
     7
100
AcDbLine
 10
-188.4501012489345
 20
-56.49261314031105
 30
0.0
 11
-186.7180504413657
 21
-56.49261314031105
 31
0.0
  0
LINE
  5
1DC
330
1E
100
AcDbEntity
  8
1
 62
     7
100
AcDbLine
 10
-189.3161266527188
 20
-54.99261314031116
 30
0.0
 11
-188.4501012489345
 21
-56.49261314031105
 31
0.0
  0
LINE
  5
1DD
330
1E
100
AcDbEntity
  8
1
 62
     7
100
AcDbLine
 10
-157.3340758451505
 20
-64.36602540378351
 30
0.0
 11
-155.8340758451505
 21
-65.23205080756793
 31
0.0
  0
LINE
  5
1DE
330
1E
100
AcDbEntity
  8
1
 62
     7
100
AcDbLine
 10
-155.8340758451505
 20
-65.23205080756793
 30
0.0
 11
-154.3340758451505
 21
-64.3660254037834
 31
0.0
  0
LINE
  5
1DF
330
1E
100
AcDbEntity
  8
1
 62
     7
100
AcDbLine
 10
-154.3340758451505
 20
-64.3660254037834
 30
0.0
 11
-154.3340758451505
 21
-62.63397459621468
 31
0.0
  0
LINE
  5
1E0
330
1E
100
AcDbEntity
  8
1
 62
     7
100
AcDbLine
 10
-154.3340758451505
 20
-62.63397459621468
 30
0.0
 11
-155.8340758451505
 21
-61.76794919243025
 31
0.0
  0
LINE
  5
1E1
330
1E
100
AcDbEntity
  8
1
 62
     7
100
AcDbLine
 10
-155.8340758451505
 20
-61.76794919243025
 30
0.0
 11
-157.3340758451505
 21
-62.63397459621468
 31
0.0
  0
LINE
  5
1E2
330
1E
100
AcDbEntity
  8
1
 62
     7
100
AcDbLine
 10
-157.3340758451505
 20
-62.63397459621468
 30
0.0
 11
-157.3340758451505
 21
-64.36602540378351
 31
0.0
  0
LINE
  5
1E3
330
1E
100
AcDbEntity
  8
1
 62
     7
100
AcDbLine
 10
-125.8161266527199
 20
-54.99261314031116
 30
0.0
 11
-124.9501012489355
 21
-56.49261314031105
 31
0.0
  0
LINE
  5
1E4
330
1E
100
AcDbEntity
  8
1
 62
     7
100
AcDbLine
 10
-124.9501012489355
 20
-53.49261314031105
 30
0.0
 11
-125.8161266527199
 21
-54.99261314031116
 31
0.0
  0
LINE
  5
1E5
330
1E
100
AcDbEntity
  8
1
 62
     7
100
AcDbLine
 10
-123.2180504413667
 20
-53.49261314031105
 30
0.0
 11
-124.9501012489355
 21
-53.49261314031105
 31
0.0
  0
LINE
  5
1E6
330
1E
100
AcDbEntity
  8
1
 62
     7
100
AcDbLine
 10
-122.3520250375824
 20
-54.99261314031105
 30
0.0
 11
-123.2180504413667
 21
-53.49261314031105
 31
0.0
  0
LINE
  5
1E7
330
1E
100
AcDbEntity
  8
1
 62
     7
100
AcDbLine
 10
-123.2180504413667
 20
-56.49261314031105
 30
0.0
 11
-122.3520250375824
 21
-54.99261314031105
 31
0.0
  0
LINE
  5
1E8
330
1E
100
AcDbEntity
  8
1
 62
     7
100
AcDbLine
 10
-124.9501012489355
 20
-56.49261314031105
 30
0.0
 11
-123.2180504413667
 21
-56.49261314031105
 31
0.0
  0
LINE
  5
1E9
330
1E
100
AcDbEntity
  8
1
 62
     7
100
AcDbLine
 10
-102.3414627048399
 20
-32.61602540378373
 30
0.0
 11
-100.8414627048398
 21
-33.48205080756804
 31
0.0
  0
LINE
  5
1EA
330
1E
100
AcDbEntity
  8
1
 62
     7
100
AcDbLine
 10
-102.3414627048399
 20
-30.88397459621478
 30
0.0
 11
-102.3414627048399
 21
-32.61602540378373
 31
0.0
  0
LINE
  5
1EB
330
1E
100
AcDbEntity
  8
1
 62
     7
100
AcDbLine
 10
-100.8414627048398
 20
-30.01794919243037
 30
0.0
 11
-102.3414627048399
 21
-30.88397459621478
 31
0.0
  0
LINE
  5
1EC
330
1E
100
AcDbEntity
  8
1
 62
     7
100
AcDbLine
 10
-99.3414627048399
 20
-30.88397459621478
 30
0.0
 11
-100.8414627048398
 21
-30.01794919243037
 31
0.0
  0
LINE
  5
1ED
330
1E
100
AcDbEntity
  8
1
 62
     7
100
AcDbLine
 10
-99.3414627048399
 20
-32.61602540378362
 30
0.0
 11
-99.3414627048399
 21
-30.88397459621478
 31
0.0
  0
LINE
  5
1EE
330
1E
100
AcDbEntity
  8
1
 62
     7
100
AcDbLine
 10
-100.8414627048398
 20
-33.48205080756804
 30
0.0
 11
-99.3414627048399
 21
-32.61602540378362
 31
0.0
  0
LINE
  5
1EF
330
1E
100
AcDbEntity
  8
1
 62
     7
100
AcDbLine
 10
-91.46805044136744
 20
-1.499999999999773
 30
0.0
 11
-90.60202503758301
 21
0.0000000000002274
 31
0.0
  0
LINE
  5
1F0
330
1E
100
AcDbEntity
  8
1
 62
     7
100
AcDbLine
 10
-90.60202503758301
 20
0.0000000000002274
 30
0.0
 11
-91.46805044136744
 21
1.500000000000224
 31
0.0
  0
LINE
  5
1F1
330
1E
100
AcDbEntity
  8
1
 62
     7
100
AcDbLine
 10
-91.46805044136744
 20
1.500000000000224
 30
0.0
 11
-93.2001012489364
 21
1.500000000000224
 31
0.0
  0
LINE
  5
1F2
330
1E
100
AcDbEntity
  8
1
 62
     7
100
AcDbLine
 10
-93.2001012489364
 20
1.500000000000224
 30
0.0
 11
-94.06612665272069
 21
0.0000000000002274
 31
0.0
  0
LINE
  5
1F3
330
1E
100
AcDbEntity
  8
1
 62
     7
100
AcDbLine
 10
-94.06612665272069
 20
0.0000000000002274
 30
0.0
 11
-93.2001012489364
 21
-1.499999999999884
 31
0.0
  0
LINE
  5
1F4
330
1E
100
AcDbEntity
  8
1
 62
     7
100
AcDbLine
 10
-93.2001012489364
 20
-1.499999999999884
 30
0.0
 11
-91.46805044136744
 21
-1.499999999999773
 31
0.0
  0
LINE
  5
1F5
330
1E
100
AcDbEntity
  8
1
 62
     7
100
AcDbLine
 10
-100.8414627048398
 20
30.01794919243071
 30
0.0
 11
-99.3414627048399
 21
30.88397459621524
 31
0.0
  0
LINE
  5
1F6
330
1E
100
AcDbEntity
  8
1
 62
     7
100
AcDbLine
 10
-102.3414627048399
 20
30.88397459621524
 30
0.0
 11
-100.8414627048398
 21
30.01794919243071
 31
0.0
  0
LINE
  5
1F7
330
1E
100
AcDbEntity
  8
1
 62
     7
100
AcDbLine
 10
-102.3414627048399
 20
32.61602540378408
 30
0.0
 11
-102.3414627048399
 21
30.88397459621524
 31
0.0
  0
LINE
  5
1F8
330
1E
100
AcDbEntity
  8
1
 62
     7
100
AcDbLine
 10
-100.8414627048398
 20
33.4820508075685
 30
0.0
 11
-102.3414627048399
 21
32.61602540378408
 31
0.0
  0
LINE
  5
1F9
330
1E
100
AcDbEntity
  8
1
 62
     7
100
AcDbLine
 10
-99.3414627048399
 20
32.61602540378408
 30
0.0
 11
-100.8414627048398
 21
33.4820508075685
 31
0.0
  0
LINE
  5
1FA
330
1E
100
AcDbEntity
  8
1
 62
     7
100
AcDbLine
 10
-99.3414627048399
 20
30.88397459621524
 30
0.0
 11
-99.3414627048399
 21
32.61602540378408
 31
0.0
  0
LINE
  5
1FB
330
1E
100
AcDbEntity
  8
1
 62
     7
100
AcDbLine
 10
-123.2180504413667
 20
53.49261314031082
 30
0.0
 11
-122.3520250375824
 21
54.99261314031094
 31
0.0
  0
LINE
  5
1FC
330
1E
100
AcDbEntity
  8
1
 62
     7
100
AcDbLine
 10
-124.9501012489355
 20
53.49261314031082
 30
0.0
 11
-123.2180504413667
 21
53.49261314031082
 31
0.0
  0
LINE
  5
1FD
330
1E
100
AcDbEntity
  8
1
 62
     7
100
AcDbLine
 10
-125.8161266527199
 20
54.99261314031082
 30
0.0
 11
-124.9501012489355
 21
53.49261314031082
 31
0.0
  0
LINE
  5
1FE
330
1E
100
AcDbEntity
  8
1
 62
     7
100
AcDbLine
 10
-124.9501012489355
 20
56.49261314031071
 30
0.0
 11
-125.8161266527199
 21
54.99261314031082
 31
0.0
  0
LINE
  5
1FF
330
1E
100
AcDbEntity
  8
1
 62
     7
100
AcDbLine
 10
-123.2180504413667
 20
56.49261314031083
 30
0.0
 11
-124.9501012489355
 21
56.49261314031071
 31
0.0
  0
LINE
  5
200
330
1E
100
AcDbEntity
  8
1
 62
     7
100
AcDbLine
 10
-122.3520250375824
 20
54.99261314031094
 30
0.0
 11
-123.2180504413667
 21
56.49261314031083
 31
0.0
  0
ARC
  5
205
330
1E
100
AcDbEntity
  8
1
 62
     3
100
AcDbCircle
 10
82.4000007432228
 20
85.13824261633317
 30
0.0
 40
2.261260614975473
100
AcDbArc
 50
32.83460395191456
 51
147.1653960480819
  0
ARC
  5
206
330
1E
100
AcDbEntity
  8
1
 62
     3
100
AcDbCircle
 10
82.4000007432228
 20
87.27836949150811
 30
0.0
 40
2.108426252355243
100
AcDbArc
 50
205.6908776164465
 51
334.3091223835565
  0
ARC
  5
207
330
1E
100
AcDbEntity
  8
1
 62
     3
100
AcDbCircle
 10
78.60000074322297
 20
85.13925881440512
 30
0.0
 40
2.26070977759696
100
AcDbArc
 50
32.81296385611219
 51
147.1870361438865
  0
ARC
  5
208
330
1E
100
AcDbEntity
  8
1
 62
     7
100
AcDbCircle
 10
80.50000074322319
 20
67.77148586615817
 30
0.0
 40
5.659636757518501
100
AcDbArc
 50
63.78603956461886
 51
116.2139604353809
  0
ARC
  5
209
330
1E
100
AcDbEntity
  8
1
 62
     7
100
AcDbCircle
 10
86.09817553657178
 20
72.17940738282914
 30
0.0
 40
1.978631200502244
100
AcDbArc
 50
62.88471577048944
 51
155.3396798334169
  0
ARC
  5
20A
330
1E
100
AcDbEntity
  8
1
 62
     7
100
AcDbCircle
 10
74.90182594987428
 20
72.17940738282914
 30
0.0
 40
1.978631200502371
100
AcDbArc
 50
24.66032016658196
 51
117.1152842295128
  0
ARC
  5
20B
330
1E
100
AcDbEntity
  8
1
 62
     3
100
AcDbCircle
 10
229.3361927095508
 20
93.19634664182173
 30
0.0
 40
2.288010088936228
100
AcDbArc
 50
203.858513359765
 51
316.1414866402278
  0
ARC
  5
20C
330
1E
100
AcDbEntity
  8
1
 62
     3
100
AcDbCircle
 10
233.1154633709584
 20
92.68634976718521
 30
0.0
 40
2.385593621549022
100
AcDbArc
 50
206.7921638674258
 51
312.38047235771
  0
ARC
  5
20D
330
1E
100
AcDbEntity
  8
1
 62
     3
100
AcDbCircle
 10
228.8853967107484
 20
90.63975548945723
 30
0.0
 40
2.314255812769963
100
AcDbArc
 50
24.81515119308357
 51
135.1848488069063
  0
ARC
  5
20E
330
1E
100
AcDbEntity
  8
1
 62
     3
100
AcDbCircle
 10
196.6281446450863
 20
92.30021170134488
 30
0.0
 40
2.288010088937046
100
AcDbArc
 50
223.8585133597843
 51
336.1414866402092
  0
ARC
  5
20F
330
1E
100
AcDbEntity
  8
1
 62
     3
100
AcDbCircle
 10
200.3539266017225
 20
93.11355809490569
 30
0.0
 40
2.385593621549249
100
AcDbArc
 50
226.7921638674308
 51
332.3804723576984
  0
ARC
  5
210
330
1E
100
AcDbEntity
  8
1
 62
     3
100
AcDbCircle
 10
197.0789406438887
 20
89.7436205489795
 30
0.0
 40
2.314255812770082
100
AcDbArc
 50
44.81515119308271
 51
155.1848488069111
  0
ARC
  5
211
330
1E
100
AcDbEntity
  8
1
 62
     3
100
AcDbCircle
 10
231.8983209128659
 20
85.84356990486458
 30
0.0
 40
2.562083742706545
100
AcDbArc
 50
32.13348690531683
 51
127.8665130946762
  0
ARC
  5
212
330
1E
100
AcDbEntity
  8
1
 62
     3
100
AcDbCircle
 10
232.4674215182521
 20
89.07109982172483
 30
0.0
 40
2.457434469537829
100
AcDbArc
 50
209.3611252644276
 51
310.6388747355621
  0
ARC
  5
213
330
1E
100
AcDbEntity
  8
1
 62
     3
100
AcDbCircle
 10
228.1826576862379
 20
86.65432443581472
 30
0.0
 40
2.461918547936723
100
AcDbArc
 50
29.48817598825868
 51
130.5118240117542
  0
ARC
  5
214
330
1E
100
AcDbEntity
  8
1
 62
     3
100
AcDbCircle
 10
201.5505553646645
 20
86.26716111465634
 30
0.0
 40
2.562083742706728
100
AcDbArc
 50
52.13348690531873
 51
147.8665130946779
  0
ARC
  5
215
330
1E
100
AcDbEntity
  8
1
 62
     3
100
AcDbCircle
 10
200.9814547592784
 20
89.4946910315166
 30
0.0
 40
2.457434469537865
100
AcDbArc
 50
229.3611252644324
 51
330.6388747355669
  0
ARC
  5
216
330
1E
100
AcDbEntity
  8
1
 62
     3
100
AcDbCircle
 10
197.7816796683993
 20
85.75818949533788
 30
0.0
 40
2.461918547936646
100
AcDbArc
 50
49.48817598824946
 51
150.5118240117538
  0
ARC
  5
217
330
1E
100
AcDbEntity
  8
1
 62
     7
100
AcDbCircle
 10
224.2502355874584
 20
70.68713627700117
 30
0.0
 40
4.549934297042436
100
AcDbArc
 50
50.36238109698435
 51
109.6376172914246
  0
ARC
  5
218
330
1E
100
AcDbEntity
  8
1
 62
     7
100
AcDbCircle
 10
230.1609652001095
 20
69.65592677016046
 30
0.0
 40
4.540511838095577
100
AcDbArc
 50
50.29471041378208
 51
109.7052879746406
  0
ARC
  5
219
330
1E
100
AcDbEntity
  8
1
 62
     7
100
AcDbCircle
 10
199.5045510619815
 20
69.65269088681032
 30
0.0
 40
4.540511838095058
100
AcDbArc
 50
70.29471204813238
 51
129.7052896089937
  0
ARC
  5
21A
330
1E
100
AcDbEntity
  8
1
 62
     7
100
AcDbCircle
 10
205.4152806742226
 20
70.68390039599933
 30
0.0
 40
4.549934297042796
100
AcDbArc
 50
70.36238273134832
 51
129.6376189257838
  0
ARC
  5
21B
330
1E
100
AcDbEntity
  8
1
 62
     3
100
AcDbCircle
 10
214.8324728557201
 20
-0.0000000000163709
 30
0.0
 40
63.19999999991341
100
AcDbArc
 50
87.2119188658049
 51
92.78808113419492
  0
ARC
  5
21C
330
1E
100
AcDbEntity
  8
1
 62
     3
100
AcDbCircle
 10
214.8324728557208
 20
-0.0000000000723048
 30
0.0
 40
63.19999999996912
100
AcDbArc
 50
107.2119188658188
 51
72.94176618241291
  0
ARC
  5
21D
330
1E
100
AcDbEntity
  8
1
 62
     7
100
AcDbCircle
 10
214.8324728557178
 20
-0.0000000000813998
 30
0.0
 40
63.69999999997874
100
AcDbArc
 50
87.18352158862343
 51
92.81647841136829
  0
ARC
  5
21E
330
1E
100
AcDbEntity
  8
1
 62
     3
100
AcDbCircle
 10
214.8324728557386
 20
0.0000000000609361
 30
0.0
 40
63.89000439330373
100
AcDbArc
 50
85.38867380365131
 51
88.42827575081688
  0
ARC
  5
21F
330
1E
100
AcDbEntity
  8
1
 62
     7
100
AcDbCircle
 10
214.8324728557172
 20
-0.0000000000463842
 30
0.0
 40
63.6999999999444
100
AcDbArc
 50
107.1835215886518
 51
72.81647841135802
  0
ARC
  5
220
330
1E
100
AcDbEntity
  8
1
 62
     3
100
AcDbCircle
 10
214.8324728557224
 20
-0.0000000000891305
 30
0.0
 40
63.89000439345434
100
AcDbArc
 50
105.3886616676444
 51
108.4282757508215
  0
ARC
  5
221
330
1E
100
AcDbEntity
  8
1
  6
CENTER
 62
     3
100
AcDbCircle
 10
214.8324728557195
 20
-0.0000000000891305
 30
0.0
 40
80.9999999999999
100
AcDbArc
 50
355.0000000000299
 51
5.000000000036113
  0
ARC
  5
222
330
1E
100
AcDbEntity
  8
1
 62
     7
100
AcDbCircle
 10
214.8324728557213
 20
0.0
 30
0.0
 40
87.50000000000005
100
AcDbArc
 50
102.4890566820656
 51
77.51094331793487
  0
ARC
  5
223
330
1E
100
AcDbEntity
  8
1
 62
     7
100
AcDbCircle
 10
214.8324728557213
 20
0.0
 30
0.0
 40
87.49999999999984
100
AcDbArc
 50
82.48905668206427
 51
97.51094331793629
  0
ARC
  5
224
330
1E
100
AcDbEntity
  8
1
 62
     7
100
AcDbCircle
 10
214.8324728557213
 20
0.0
 30
0.0
 40
74.00000000000007
100
AcDbArc
 50
84.65071413929003
 51
95.34928587903129
  0
ARC
  5
225
330
1E
100
AcDbEntity
  8
1
 62
     7
100
AcDbCircle
 10
214.8324728557213
 20
0.0
 30
0.0
 40
69.9999999999998
100
AcDbArc
 50
84.91710581182021
 51
95.08289420624441
  0
ARC
  5
226
330
1E
100
AcDbEntity
  8
1
 62
     7
100
AcDbCircle
 10
214.8324728557213
 20
0.0
 30
0.0
 40
69.99999999999984
100
AcDbArc
 50
104.9170948773004
 51
75.08290514076398
  0
ARC
  5
227
330
1E
100
AcDbEntity
  8
1
 62
     7
100
AcDbCircle
 10
214.8324728557213
 20
0.0
 30
0.0
 40
74.00000000000004
100
AcDbArc
 50
104.6507038887895
 51
75.34929612953161
  0
ARC
  5
228
330
1E
100
AcDbEntity
  8
1
 62
     7
100
AcDbCircle
 10
18.40000000000009
 20
74.20000000000005
 30
0.0
 40
0.4000000000000308
100
AcDbArc
 50
180.0
 51
299.9999999999543
  0
ARC
  5
229
330
1E
100
AcDbEntity
  8
1
 62
     7
100
AcDbCircle
 10
-0.3999999999992383
 20
70.19999999999993
 30
0.0
 40
0.4000000000006045
100
AcDbArc
 50
239.9999999999391
 51
359.9999999998697
  0
ARC
  5
22A
330
1E
100
AcDbEntity
  8
1
 62
     7
100
AcDbCircle
 10
18.40000000000009
 20
-74.20000000000119
 30
0.0
 40
0.4000000000009961
100
AcDbArc
 50
60.00000000010247
 51
180.0
  0
ARC
  5
22B
330
1E
100
AcDbEntity
  8
1
 62
     7
100
AcDbCircle
 10
-0.4000000000001478
 20
-70.20000000000107
 30
0.0
 40
0.4000000000001478
100
AcDbArc
 50
0.0
 51
119.999999999883
  0
ARC
  5
22C
330
1E
100
AcDbEntity
  8
1
  6
CENTER
 62
     3
100
AcDbCircle
 10
-155.8340758451507
 20
-0.0000000000001137
 30
0.0
 40
63.4999999999988
100
AcDbArc
 50
85.00000000000001
 51
95.0
  0
ARC
  5
22D
330
1E
100
AcDbEntity
  8
1
  6
CENTER
 62
     3
100
AcDbCircle
 10
-155.8340758451507
 20
-0.0000000000001137
 30
0.0
 40
63.49999999999869
100
AcDbArc
 50
54.99999999999945
 51
64.99999999999939
  0
ARC
  5
22E
330
1E
100
AcDbEntity
  8
1
  6
CENTER
 62
     3
100
AcDbCircle
 10
-155.8340758451507
 20
-0.0000000000001137
 30
0.0
 40
63.49999999999877
100
AcDbArc
 50
115.0000000000006
 51
125.0000000000005
  0
ARC
  5
22F
330
1E
100
AcDbEntity
  8
1
  6
CENTER
 62
     3
100
AcDbCircle
 10
-155.8340758451507
 20
-0.0000000000001137
 30
0.0
 40
63.49999999999869
100
AcDbArc
 50
145.0000000000009
 51
155.0000000000013
  0
ARC
  5
230
330
1E
100
AcDbEntity
  8
1
  6
CENTER
 62
     3
100
AcDbCircle
 10
-155.8340758451507
 20
-0.0000000000001137
 30
0.0
 40
63.4999999999988
100
AcDbArc
 50
175.0000000000015
 51
185.0000000000019
  0
ARC
  5
231
330
1E
100
AcDbEntity
  8
1
  6
CENTER
 62
     3
100
AcDbCircle
 10
-155.8340758451507
 20
-0.0000000000001137
 30
0.0
 40
63.49999999999871
100
AcDbArc
 50
205.0000000000021
 51
215.0000000000024
  0
ARC
  5
232
330
1E
100
AcDbEntity
  8
1
  6
CENTER
 62
     3
100
AcDbCircle
 10
-155.8340758451507
 20
-0.0000000000001137
 30
0.0
 40
63.49999999999866
100
AcDbArc
 50
235.0000000000025
 51
245.0000000000029
  0
ARC
  5
233
330
1E
100
AcDbEntity
  8
1
  6
CENTER
 62
     3
100
AcDbCircle
 10
-155.8340758451507
 20
-0.0000000000001137
 30
0.0
 40
63.49999999999871
100
AcDbArc
 50
265.0000000000033
 51
275.0000000000035
  0
ARC
  5
234
330
1E
100
AcDbEntity
  8
1
  6
CENTER
 62
     3
100
AcDbCircle
 10
-155.8340758451507
 20
-0.0000000000001137
 30
0.0
 40
63.49999999999869
100
AcDbArc
 50
295.0000000000039
 51
305.0000000000042
  0
ARC
  5
235
330
1E
100
AcDbEntity
  8
1
  6
CENTER
 62
     3
100
AcDbCircle
 10
-155.8340758451507
 20
-0.0000000000001137
 30
0.0
 40
40.49999999999992
100
AcDbArc
 50
41.00000000000004
 51
71.00000000000024
  0
ARC
  5
236
330
1E
100
AcDbEntity
  8
1
  6
CENTER
 62
     3
100
AcDbCircle
 10
-155.8340758451507
 20
-0.0000000000001137
 30
0.0
 40
40.50000000000006
100
AcDbArc
 50
131.000000000001
 51
161.0000000000009
  0
ARC
  5
237
330
1E
100
AcDbEntity
  8
1
  6
CENTER
 62
     3
100
AcDbCircle
 10
-155.8340758451507
 20
-0.0000000000001137
 30
0.0
 40
40.49999999999992
100
AcDbArc
 50
221.0000000000016
 51
251.0000000000018
  0
ARC
  5
238
330
1E
100
AcDbEntity
  8
1
  6
CENTER
 62
     3
100
AcDbCircle
 10
-155.8340758451507
 20
-0.0000000000001137
 30
0.0
 40
40.49999999999986
100
AcDbArc
 50
311.0000000000026
 51
341.0000000000026
  0
ARC
  5
239
330
1E
100
AcDbEntity
  8
1
  6
CENTER
 62
     3
100
AcDbCircle
 10
214.8324728557209
 20
-0.0000000000563887
 30
0.0
 40
57.0
100
AcDbArc
 50
259.9999999999971
 51
280.000000000038
  0
ARC
  5
23A
330
1E
100
AcDbEntity
  8
1
  6
CENTER
 62
     3
100
AcDbCircle
 10
214.8324728557195
 20
-0.0000000000891305
 30
0.0
 40
80.99999999999996
100
AcDbArc
 50
17.50000000002991
 51
27.50000000003606
  0
ARC
  5
23B
330
1E
100
AcDbEntity
  8
1
  6
CENTER
 62
     3
100
AcDbCircle
 10
214.8324728556634
 20
-0.0000000000703722
 30
0.0
 40
81.0000000000001
100
AcDbArc
 50
332.5000000000299
 51
342.500000000036
  0
ARC
  5
23C
330
1E
100
AcDbEntity
  8
1
  6
CENTER
 62
     3
100
AcDbCircle
 10
214.8324728558886
 20
0.0000000000418368
 30
0.0
 40
80.99999999999992
100
AcDbArc
 50
107.5000000000299
 51
117.5000000000359
  0
ARC
  5
23D
330
1E
100
AcDbEntity
  8
1
  6
CENTER
 62
     3
100
AcDbCircle
 10
214.8324728558886
 20
0.0000000000418368
 30
0.0
 40
80.99999999999992
100
AcDbArc
 50
85.00000000002998
 51
95.00000000003607
  0
ARC
  5
23E
330
1E
100
AcDbEntity
  8
1
  6
CENTER
 62
     3
100
AcDbCircle
 10
214.8324728558698
 20
-0.0000000000142109
 30
0.0
 40
81.00000000000003
100
AcDbArc
 50
62.50000000002996
 51
72.50000000003608
  0
ARC
  5
23F
330
1E
100
AcDbEntity
  8
1
  6
CENTER
 62
     3
100
AcDbCircle
 10
214.8324728556445
 20
-0.0000000001263061
 30
0.0
 40
81.00000000000001
100
AcDbArc
 50
287.5000000000298
 51
297.500000000036
  0
ARC
  5
240
330
1E
100
AcDbEntity
  8
1
  6
CENTER
 62
     3
100
AcDbCircle
 10
214.8324728556445
 20
-0.0000000001263061
 30
0.0
 40
81.00000000000004
100
AcDbArc
 50
265.0000000000299
 51
275.0000000000361
  0
ARC
  5
241
330
1E
100
AcDbEntity
  8
1
  6
CENTER
 62
     3
100
AcDbCircle
 10
214.8324728556634
 20
-0.0000000000703722
 30
0.0
 40
81.00000000000004
100
AcDbArc
 50
242.50000000003
 51
252.500000000036
  0
ARC
  5
242
330
1E
100
AcDbEntity
  8
1
  6
CENTER
 62
     3
100
AcDbCircle
 10
214.8324728557195
 20
-0.0000000000891305
 30
0.0
 40
81.00000000000006
100
AcDbArc
 50
40.00000000003118
 51
50.00000000003726
  0
ARC
  5
243
330
1E
100
AcDbEntity
  8
1
 62
     7
100
AcDbCircle
 10
214.8324728557209
 20
-0.0000000000563887
 30
0.0
 40
64.0
100
AcDbArc
 50
85.37938505632878
 51
94.62061496142359
  0
ARC
  5
244
330
1E
100
AcDbEntity
  8
1
 62
     3
100
AcDbCircle
 10
214.8324728557224
 20
-0.0000000000891305
 30
0.0
 40
63.89000439345427
100
AcDbArc
 50
91.57172424919556
 51
94.6113262141066
  0
ARC
  5
245
330
1E
100
AcDbEntity
  8
1
 62
     7
100
AcDbCircle
 10
214.8324728557209
 20
-0.0000000000563887
 30
0.0
 40
64.00000000000003
100
AcDbArc
 50
105.3793729436459
 51
74.62062707410634
  0
ARC
  5
246
330
1E
100
AcDbEntity
  8
1
 62
     3
100
AcDbCircle
 10
214.8324728557386
 20
0.0000000000609361
 30
0.0
 40
63.89000439330371
100
AcDbArc
 50
71.57172424916706
 51
74.61133835008785
  0
ARC
  5
247
330
1E
100
AcDbEntity
  8
1
 62
     7
100
AcDbCircle
 10
262.9492204766144
 20
27.69331658895794
 30
0.0
 40
0.6999999999999691
100
AcDbArc
 50
347.9050783645035
 51
77.90507836452174
  0
ARC
  5
248
330
1E
100
AcDbEntity
  8
1
 62
     7
100
AcDbCircle
 10
265.0026042824185
 20
27.25329960512385
 30
0.0
 40
0.699999999999863
100
AcDbArc
 50
77.90507836449693
 51
167.9050783645083
  0
ARC
  5
249
330
1E
100
AcDbEntity
  8
1
 62
     7
100
AcDbCircle
 10
265.4426212662526
 20
29.30668341092757
 30
0.0
 40
0.7000000000000477
100
AcDbArc
 50
167.9050783644957
 51
257.9050783644853
  0
ARC
  5
24A
330
1E
100
AcDbEntity
  8
1
 62
     7
100
AcDbCircle
 10
263.3892374604485
 20
29.74670039476177
 30
0.0
 40
0.699999999999839
100
AcDbArc
 50
257.905078364506
 51
347.9050783645026
  0
ARC
  5
24B
330
1E
100
AcDbEntity
  8
1
 62
     7
100
AcDbCircle
 10
214.0257894447359
 20
-55.75329960523732
 30
0.0
 40
0.699999999999839
100
AcDbArc
 50
257.905078364506
 51
347.9050783645031
  0
ARC
  5
24C
330
1E
100
AcDbEntity
  8
1
 62
     7
100
AcDbCircle
 10
216.07917325054
 20
-56.19331658907151
 30
0.0
 40
0.7000000000000469
100
AcDbArc
 50
167.905078364496
 51
257.9050783644853
  0
ARC
  5
24D
330
1E
100
AcDbEntity
  8
1
 62
     7
100
AcDbCircle
 10
215.6391562667058
 20
-58.24670039487523
 30
0.0
 40
0.699999999999864
100
AcDbArc
 50
77.90507836449933
 51
167.9050783645088
  0
ARC
  5
24E
330
1E
100
AcDbEntity
  8
1
 62
     7
100
AcDbCircle
 10
213.5857724609019
 20
-57.80668341104114
 30
0.0
 40
0.6999999999999415
100
AcDbArc
 50
347.9050783645031
 51
77.90507836452403
  0
ARC
  5
24F
330
1E
100
AcDbEntity
  8
1
  6
CENTER
 62
     3
100
AcDbCircle
 10
214.83247285577
 20
0.0000000000278533
 30
0.0
 40
57.0000000000001
100
AcDbArc
 50
19.99999999999701
 51
40.00000000003799
  0
ARC
  5
250
330
1E
100
AcDbEntity
  8
1
 62
     7
100
AcDbCircle
 10
166.7157252348278
 20
27.69331658895794
 30
0.0
 40
0.6999999999999095
100
AcDbArc
 50
102.0949216354737
 51
192.0949216354973
  0
ARC
  5
251
330
1E
100
AcDbEntity
  8
1
 62
     7
100
AcDbCircle
 10
164.662341429024
 20
27.25329960512385
 30
0.0
 40
0.6999999999997213
100
AcDbArc
 50
12.09492163549067
 51
102.0949216354916
  0
ARC
  5
252
330
1E
100
AcDbEntity
  8
1
 62
     7
100
AcDbCircle
 10
164.2223244451899
 20
29.30668341092757
 30
0.0
 40
0.7000000000000172
100
AcDbArc
 50
282.0949216355146
 51
12.09492163550624
  0
ARC
  5
253
330
1E
100
AcDbEntity
  8
1
 62
     7
100
AcDbCircle
 10
166.2757082509938
 20
29.74670039476177
 30
0.0
 40
0.6999999999998301
100
AcDbArc
 50
192.0949216354989
 51
282.0949216354916
  0
ARC
  5
254
330
1E
100
AcDbEntity
  8
1
  6
CENTER
 62
     3
100
AcDbCircle
 10
214.8324728556724
 20
0.0000000000278533
 30
0.0
 40
57.00000000000002
100
AcDbArc
 50
139.999999999962
 51
160.000000000003
  0
ARC
  5
255
330
1E
100
AcDbEntity
  8
1
  6
CENTER
 62
     3
100
AcDbCircle
 10
214.832472855723
 20
0.0000000000891305
 30
0.0
 40
81.00000000000001
100
AcDbArc
 50
175.00000000003
 51
185.0000000000362
  0
ARC
  5
256
330
1E
100
AcDbEntity
  8
1
  6
CENTER
 62
     3
100
AcDbCircle
 10
214.8324728557791
 20
0.0000000000703722
 30
0.0
 40
81.00000000000006
100
AcDbArc
 50
152.50000000003
 51
162.5000000000359
  0
ARC
  5
257
330
1E
100
AcDbEntity
  8
1
  6
CENTER
 62
     3
100
AcDbCircle
 10
214.832472855723
 20
0.0000000000891305
 30
0.0
 40
81.00000000000003
100
AcDbArc
 50
220.0000000000311
 51
230.0000000000373
  0
ARC
  5
258
330
1E
100
AcDbEntity
  8
1
  6
CENTER
 62
     3
100
AcDbCircle
 10
214.832472855723
 20
0.0000000000891305
 30
0.0
 40
80.99999999999992
100
AcDbArc
 50
197.5000000000298
 51
207.500000000036
  0
ARC
  5
259
330
1E
100
AcDbEntity
  8
1
  6
CENTER
 62
     3
100
AcDbCircle
 10
-155.8340758451507
 20
-0.0000000000001137
 30
0.0
 40
63.49999999999872
100
AcDbArc
 50
25.00000000000234
 51
35.00000000000263
  0
ARC
  5
25A
330
1E
100
AcDbEntity
  8
1
  6
CENTER
 62
     3
100
AcDbCircle
 10
-155.8340758451507
 20
-0.0000000000001137
 30
0.0
 40
63.49999999999871
100
AcDbArc
 50
355.0000000000019
 51
5.000000000002063
  0
ARC
  5
25B
330
1E
100
AcDbEntity
  8
1
  6
CENTER
 62
     3
100
AcDbCircle
 10
-155.8340758451507
 20
-0.0000000000001137
 30
0.0
 40
63.49999999999854
100
AcDbArc
 50
325.0000000000013
 51
335.0000000000012
  0
CIRCLE
  5
25C
330
1E
100
AcDbEntity
  8
1
 62
     3
100
AcDbCircle
 10
-111.9497980508644
 20
18.17746303734157
 30
0.0
 40
3.000000000000046
  0
CIRCLE
  5
25D
330
1E
100
AcDbEntity
  8
1
 62
     7
100
AcDbCircle
 10
-111.9497980508644
 20
18.17746303734157
 30
0.0
 40
2.399999999999925
  0
CIRCLE
  5
25E
330
1E
100
AcDbEntity
  8
1
 62
     3
100
AcDbCircle
 10
-122.2465037387894
 20
33.58757210636088
 30
0.0
 40
3.000000000000055
  0
CIRCLE
  5
25F
330
1E
100
AcDbEntity
  8
1
 62
     7
100
AcDbCircle
 10
-122.2465037387894
 20
33.58757210636088
 30
0.0
 40
2.399999999999962
  0
CIRCLE
  5
260
330
1E
100
AcDbEntity
  8
1
 62
     3
100
AcDbCircle
 10
-137.6566128078085
 20
43.88427779428615
 30
0.0
 40
2.999999999999928
  0
CIRCLE
  5
261
330
1E
100
AcDbEntity
  8
1
 62
     7
100
AcDbCircle
 10
-137.6566128078085
 20
43.88427779428615
 30
0.0
 40
2.400000000000076
  0
CIRCLE
  5
262
330
1E
100
AcDbEntity
  8
1
 62
     7
100
AcDbCircle
 10
-133.1867632545854
 20
33.57602168847905
 30
0.0
 40
6.0
  0
CIRCLE
  5
263
330
1E
100
AcDbEntity
  8
1
 62
     7
100
AcDbCircle
 10
-133.1867632545854
 20
33.57602168847905
 30
0.0
 40
5.050000000000096
  0
CIRCLE
  5
264
330
1E
100
AcDbEntity
  8
1
 62
     7
100
AcDbCircle
 10
-155.8340758451507
 20
-0.0000000000001137
 30
0.0
 40
87.50000000000012
  0
CIRCLE
  5
265
330
1E
100
AcDbEntity
  8
1
  6
CENTER
 62
     3
100
AcDbCircle
 10
-155.8340758451507
 20
-0.0000000000001137
 30
0.0
 40
81.0
  0
CIRCLE
  5
266
330
1E
100
AcDbEntity
  8
1
 62
     7
100
AcDbCircle
 10
-155.8340758451507
 20
-0.0000000000001137
 30
0.0
 40
70.0000000000001
  0
CIRCLE
  5
267
330
1E
100
AcDbEntity
  8
1
 62
     7
100
AcDbCircle
 10
-155.8340758451507
 20
-0.0000000000001137
 30
0.0
 40
68.5000000000001
  0
CIRCLE
  5
268
330
1E
100
AcDbEntity
  8
1
 62
     7
100
AcDbCircle
 10
-155.8340758451507
 20
-0.0000000000001137
 30
0.0
 40
59.00000000000011
  0
CIRCLE
  5
269
330
1E
100
AcDbEntity
  8
1
 62
     7
100
AcDbCircle
 10
214.8324728557209
 20
-57.00000000005639
 30
0.0
 40
4.999999999999816
  0
CIRCLE
  5
26A
330
1E
100
AcDbEntity
  8
1
 62
     7
100
AcDbCircle
 10
264.1959208714335
 20
28.4999999999427
 30
0.0
 40
4.999999999999917
  0
CIRCLE
  5
26B
330
1E
100
AcDbEntity
  8
1
 62
     7
100
AcDbCircle
 10
214.8324728557209
 20
-57.00000000005639
 30
0.0
 40
5.25
  0
CIRCLE
  5
26C
330
1E
100
AcDbEntity
  8
1
 62
     7
100
AcDbCircle
 10
264.1959208714335
 20
28.4999999999427
 30
0.0
 40
5.249999999999547
  0
CIRCLE
  5
26D
330
1E
100
AcDbEntity
  8
1
 62
     7
100
AcDbCircle
 10
214.8324728557209
 20
-0.0000000000563887
 30
0.0
 40
19.30000000000017
  0
CIRCLE
  5
26E
330
1E
100
AcDbEntity
  8
1
 62
     7
100
AcDbCircle
 10
214.8324728557209
 20
-0.0000000000563887
 30
0.0
 40
23.9999999999439
  0
CIRCLE
  5
26F
330
1E
100
AcDbEntity
  8
1
 62
     3
100
AcDbCircle
 10
214.8324728557209
 20
-0.0000000000563887
 30
0.0
 40
24.57735026913298
  0
CIRCLE
  5
270
330
1E
100
AcDbEntity
  8
1
 62
     7
100
AcDbCircle
 10
295.8324728557195
 20
-0.0000000000891305
 30
0.0
 40
3.300000000000069
  0
CIRCLE
  5
271
330
1E
100
AcDbEntity
  8
1
 62
     7
100
AcDbCircle
 10
183.83511483415
 20
74.83424213332513
 30
0.0
 40
3.299999999999958
  0
CIRCLE
  5
272
330
1E
100
AcDbEntity
  8
1
 62
     7
100
AcDbCircle
 10
289.6667149891338
 20
30.99735802148314
 30
0.0
 40
3.299999999999886
  0
CIRCLE
  5
273
330
1E
100
AcDbEntity
  8
1
 62
     7
100
AcDbCircle
 10
289.6667149891338
 20
-30.9973580216614
 30
0.0
 40
3.300000000000093
  0
CIRCLE
  5
274
330
1E
100
AcDbEntity
  8
1
 62
     7
100
AcDbCircle
 10
183.83511483415
 20
-74.83424213350336
 30
0.0
 40
3.300000000000063
  0
CIRCLE
  5
275
330
1E
100
AcDbEntity
  8
1
 62
     7
100
AcDbCircle
 10
245.8298308772945
 20
-74.83424213350348
 30
0.0
 40
3.299999999999958
  0
CIRCLE
  5
276
330
1E
100
AcDbEntity
  8
1
 62
     7
100
AcDbCircle
 10
245.8298308772945
 20
74.83424213332513
 30
0.0
 40
3.300000000000063
  0
CIRCLE
  5
277
330
1E
100
AcDbEntity
  8
1
 62
     7
100
AcDbCircle
 10
272.1081221318299
 20
57.27564927602122
 30
0.0
 40
2.399999999999806
  0
CIRCLE
  5
278
330
1E
100
AcDbEntity
  8
1
 62
     3
100
AcDbCircle
 10
272.1081221318299
 20
57.27564927602122
 30
0.0
 40
3.0
  0
CIRCLE
  5
279
330
1E
100
AcDbEntity
  8
1
 62
     7
100
AcDbCircle
 10
214.8324728557224
 20
80.99999999991089
 30
0.0
 40
3.299999999999958
  0
CIRCLE
  5
27A
330
1E
100
AcDbEntity
  8
1
 62
     7
100
AcDbCircle
 10
214.8324728557224
 20
-81.00000000008911
 30
0.0
 40
3.300000000000063
  0
CIRCLE
  5
27B
330
1E
100
AcDbEntity
  8
1
 62
     3
100
AcDbCircle
 10
214.8324728557213
 20
0.0
 30
0.0
 40
18.07735026919011
  0
CIRCLE
  5
27C
330
1E
100
AcDbEntity
  8
1
 62
     7
100
AcDbCircle
 10
214.8324728557213
 20
0.0
 30
0.0
 40
17.50000000000009
  0
CIRCLE
  5
27D
330
1E
100
AcDbEntity
  8
1
 62
     7
100
AcDbCircle
 10
214.8324728557213
 20
0.0
 30
0.0
 40
19.00000000000099
  0
CIRCLE
  5
27E
330
1E
100
AcDbEntity
  8
1
 62
     7
100
AcDbCircle
 10
214.8324728557213
 20
0.0
 30
0.0
 40
24.00000000000009
  0
CIRCLE
  5
27F
330
1E
100
AcDbEntity
  8
1
 62
     7
100
AcDbCircle
 10
-155.8340758451507
 20
-81.0000000000001
 30
0.0
 40
3.300000000000037
  0
CIRCLE
  5
280
330
1E
100
AcDbEntity
  8
1
 62
     7
100
AcDbCircle
 10
-155.8340758451507
 20
80.9999999999999
 30
0.0
 40
3.299999999999958
  0
CIRCLE
  5
281
330
1E
100
AcDbEntity
  8
1
 62
     3
100
AcDbCircle
 10
-213.1097251212611
 20
57.27564927611023
 30
0.0
 40
3.0
  0
CIRCLE
  5
282
330
1E
100
AcDbEntity
  8
1
 62
     7
100
AcDbCircle
 10
-213.1097251212611
 20
57.27564927611023
 30
0.0
 40
2.399999999999919
  0
CIRCLE
  5
283
330
1E
100
AcDbEntity
  8
1
 62
     7
100
AcDbCircle
 10
-124.8367178235784
 20
74.83424213341415
 30
0.0
 40
3.300000000000063
  0
CIRCLE
  5
284
330
1E
100
AcDbEntity
  8
1
 62
     7
100
AcDbCircle
 10
-124.8367178235784
 20
-74.83424213341449
 30
0.0
 40
3.299999999999958
  0
CIRCLE
  5
285
330
1E
100
AcDbEntity
  8
1
 62
     7
100
AcDbCircle
 10
-186.8314338667229
 20
-74.83424213341436
 30
0.0
 40
3.300000000000063
  0
CIRCLE
  5
286
330
1E
100
AcDbEntity
  8
1
 62
     7
100
AcDbCircle
 10
-230.6683179785649
 20
-30.99735802157238
 30
0.0
 40
3.300000000000041
  0
CIRCLE
  5
287
330
1E
100
AcDbEntity
  8
1
 62
     7
100
AcDbCircle
 10
-230.6683179785649
 20
30.99735802157214
 30
0.0
 40
3.299999999999898
  0
CIRCLE
  5
288
330
1E
100
AcDbEntity
  8
1
 62
     7
100
AcDbCircle
 10
-186.8314338667229
 20
74.83424213341415
 30
0.0
 40
3.299999999999879
  0
CIRCLE
  5
289
330
1E
100
AcDbEntity
  8
1
 62
     7
100
AcDbCircle
 10
-236.8340758451505
 20
-0.0000000000001137
 30
0.0
 40
3.300000000000068
  0
CIRCLE
  5
28A
330
1E
100
AcDbEntity
  8
1
 62
     7
100
AcDbCircle
 10
-122.2580541566715
 20
-22.6473125905652
 30
0.0
 40
5.050000000000071
  0
CIRCLE
  5
28B
330
1E
100
AcDbEntity
  8
1
 62
     7
100
AcDbCircle
 10
-122.2580541566715
 20
-22.6473125905652
 30
0.0
 40
6.0
  0
CIRCLE
  5
28C
330
1E
100
AcDbEntity
  8
1
 62
     7
100
AcDbCircle
 10
-178.4813884357158
 20
-33.57602168847905
 30
0.0
 40
5.050000000000012
  0
CIRCLE
  5
28D
330
1E
100
AcDbEntity
  8
1
 62
     7
100
AcDbCircle
 10
-178.4813884357158
 20
-33.57602168847905
 30
0.0
 40
6.0
  0
CIRCLE
  5
28E
330
1E
100
AcDbEntity
  8
1
 62
     7
100
AcDbCircle
 10
-189.4100975336296
 20
22.6473125905652
 30
0.0
 40
5.049999999999959
  0
CIRCLE
  5
28F
330
1E
100
AcDbEntity
  8
1
 62
     7
100
AcDbCircle
 10
-189.4100975336296
 20
22.6473125905652
 30
0.0
 40
6.0
  0
CIRCLE
  5
290
330
1E
100
AcDbEntity
  8
1
 62
     3
100
AcDbCircle
 10
-108.3340758451505
 20
-0.0000000000002274
 30
0.0
 40
3.0
  0
CIRCLE
  5
291
330
1E
100
AcDbEntity
  8
1
 62
     7
100
AcDbCircle
 10
-108.3340758451505
 20
-0.0000000000002274
 30
0.0
 40
2.400000000000088
  0
CIRCLE
  5
292
330
1E
100
AcDbEntity
  8
1
 62
     3
100
AcDbCircle
 10
-111.9497980508645
 20
-18.17746303734191
 30
0.0
 40
3.000000000000017
  0
CIRCLE
  5
293
330
1E
100
AcDbEntity
  8
1
 62
     7
100
AcDbCircle
 10
-111.9497980508645
 20
-18.17746303734191
 30
0.0
 40
2.400000000000034
  0
CIRCLE
  5
294
330
1E
100
AcDbEntity
  8
1
 62
     3
100
AcDbCircle
 10
-122.2465037387896
 20
-33.58757210636098
 30
0.0
 40
2.999999999999968
  0
CIRCLE
  5
295
330
1E
100
AcDbEntity
  8
1
 62
     7
100
AcDbCircle
 10
-122.2465037387896
 20
-33.58757210636098
 30
0.0
 40
2.39999999999996
  0
CIRCLE
  5
296
330
1E
100
AcDbEntity
  8
1
 62
     3
100
AcDbCircle
 10
-137.6566128078085
 20
-43.88427779428615
 30
0.0
 40
2.999999999999825
  0
CIRCLE
  5
297
330
1E
100
AcDbEntity
  8
1
 62
     7
100
AcDbCircle
 10
-137.6566128078085
 20
-43.88427779428615
 30
0.0
 40
2.399999999999889
  0
CIRCLE
  5
298
330
1E
100
AcDbEntity
  8
1
 62
     3
100
AcDbCircle
 10
-155.8340758451505
 20
-47.5
 30
0.0
 40
3.0
  0
CIRCLE
  5
299
330
1E
100
AcDbEntity
  8
1
 62
     7
100
AcDbCircle
 10
-155.8340758451505
 20
-47.5
 30
0.0
 40
2.400000000000006
  0
CIRCLE
  5
29A
330
1E
100
AcDbEntity
  8
1
 62
     3
100
AcDbCircle
 10
-174.0115388824924
 20
-43.88427779428627
 30
0.0
 40
3.000000000000051
  0
CIRCLE
  5
29B
330
1E
100
AcDbEntity
  8
1
 62
     7
100
AcDbCircle
 10
-174.0115388824924
 20
-43.88427779428627
 30
0.0
 40
2.400000000000009
  0
CIRCLE
  5
29C
330
1E
100
AcDbEntity
  8
1
 62
     3
100
AcDbCircle
 10
-189.4216479515115
 20
-33.58757210636122
 30
0.0
 40
3.000000000000023
  0
CIRCLE
  5
29D
330
1E
100
AcDbEntity
  8
1
 62
     7
100
AcDbCircle
 10
-189.4216479515115
 20
-33.58757210636122
 30
0.0
 40
2.39999999999995
  0
CIRCLE
  5
29E
330
1E
100
AcDbEntity
  8
1
 62
     3
100
AcDbCircle
 10
-199.7183536394367
 20
-18.17746303734191
 30
0.0
 40
2.999999999999976
  0
CIRCLE
  5
29F
330
1E
100
AcDbEntity
  8
1
 62
     7
100
AcDbCircle
 10
-199.7183536394367
 20
-18.17746303734191
 30
0.0
 40
2.399999999999999
  0
CIRCLE
  5
2A0
330
1E
100
AcDbEntity
  8
1
 62
     3
100
AcDbCircle
 10
-203.3340758451509
 20
-0.0000000000001137
 30
0.0
 40
3.0
  0
CIRCLE
  5
2A1
330
1E
100
AcDbEntity
  8
1
 62
     7
100
AcDbCircle
 10
-203.3340758451509
 20
-0.0000000000001137
 30
0.0
 40
2.399999999999977
  0
CIRCLE
  5
2A2
330
1E
100
AcDbEntity
  8
1
 62
     3
100
AcDbCircle
 10
-199.718353639437
 20
18.17746303734168
 30
0.0
 40
2.999999999999909
  0
CIRCLE
  5
2A3
330
1E
100
AcDbEntity
  8
1
 62
     7
100
AcDbCircle
 10
-199.718353639437
 20
18.17746303734168
 30
0.0
 40
2.399999999999895
  0
CIRCLE
  5
2A4
330
1E
100
AcDbEntity
  8
1
 62
     3
100
AcDbCircle
 10
-189.4216479515116
 20
33.58757210636098
 30
0.0
 40
3.000000000000038
  0
CIRCLE
  5
2A5
330
1E
100
AcDbEntity
  8
1
 62
     7
100
AcDbCircle
 10
-189.4216479515116
 20
33.58757210636098
 30
0.0
 40
2.400000000000033
  0
CIRCLE
  5
2A6
330
1E
100
AcDbEntity
  8
1
 62
     3
100
AcDbCircle
 10
-174.0115388824926
 20
43.88427779428627
 30
0.0
 40
2.999999999999928
  0
CIRCLE
  5
2A7
330
1E
100
AcDbEntity
  8
1
 62
     7
100
AcDbCircle
 10
-174.0115388824926
 20
43.88427779428627
 30
0.0
 40
2.399999999999933
  0
CIRCLE
  5
2A8
330
1E
100
AcDbEntity
  8
1
 62
     3
100
AcDbCircle
 10
-155.8340758451507
 20
47.5000000000001
 30
0.0
 40
3.0
  0
CIRCLE
  5
2A9
330
1E
100
AcDbEntity
  8
1
  6
CENTER
 62
     3
100
AcDbCircle
 10
-155.8340758451507
 20
-0.0000000000001137
 30
0.0
 40
47.50000000000031
  0
CIRCLE
  5
2AA
330
1E
100
AcDbEntity
  8
1
 62
     7
100
AcDbCircle
 10
-155.8340758451507
 20
-0.0000000000001137
 30
0.0
 40
17.50000000000022
  0
CIRCLE
  5
2AB
330
1E
100
AcDbEntity
  8
1
 62
     7
100
AcDbCircle
 10
-155.8340758451507
 20
-0.0000000000001137
 30
0.0
 40
25.00000000000022
  0
CIRCLE
  5
2AC
330
1E
100
AcDbEntity
  8
1
 62
     7
100
AcDbCircle
 10
-155.8340758451507
 20
-0.0000000000001137
 30
0.0
 40
30.00000000000022
  0
CIRCLE
  5
2AD
330
1E
100
AcDbEntity
  8
1
 62
     7
100
AcDbCircle
 10
-155.8340758451507
 20
-0.0000000000001137
 30
0.0
 40
33.50000000000022
  0
CIRCLE
  5
2AE
330
1E
100
AcDbEntity
  8
1
 62
     7
100
AcDbCircle
 10
-155.8340758451507
 20
-0.0000000000001137
 30
0.0
 40
52.5
  0
CIRCLE
  5
2AF
330
1E
100
AcDbEntity
  8
1
 62
     7
100
AcDbCircle
 10
-155.8340758451507
 20
47.5000000000001
 30
0.0
 40
2.400000000000006
  0
CIRCLE
  5
2B0
330
1E
100
AcDbEntity
  8
1
 62
     7
100
AcDbCircle
 10
264.1959208714335
 20
28.4999999999427
 30
0.0
 40
3.149999999999848
  0
CIRCLE
  5
2B1
330
1E
100
AcDbEntity
  8
1
 62
     7
100
AcDbCircle
 10
214.8324728557209
 20
-57.00000000005639
 30
0.0
 40
3.149999999999821
  0
CIRCLE
  5
2B2
330
1E
100
AcDbEntity
  8
1
 62
     7
100
AcDbCircle
 10
165.4690248400088
 20
28.4999999999427
 30
0.0
 40
4.999999999999873
  0
CIRCLE
  5
2B3
330
1E
100
AcDbEntity
  8
1
 62
     7
100
AcDbCircle
 10
165.4690248400088
 20
28.4999999999427
 30
0.0
 40
5.249999999999547
  0
CIRCLE
  5
2B4
330
1E
100
AcDbEntity
  8
1
 62
     7
100
AcDbCircle
 10
165.4690248400088
 20
28.4999999999427
 30
0.0
 40
3.14999999999979
  0
CIRCLE
  5
2B5
330
1E
100
AcDbEntity
  8
1
 62
     7
100
AcDbCircle
 10
133.8324728557231
 20
0.0000000000891305
 30
0.0
 40
3.300000000000069
  0
CIRCLE
  5
2B6
330
1E
100
AcDbEntity
  8
1
 62
     7
100
AcDbCircle
 10
139.9982307223087
 20
30.9973580216614
 30
0.0
 40
3.300000000000082
  0
CIRCLE
  5
2B7
330
1E
100
AcDbEntity
  8
1
 62
     7
100
AcDbCircle
 10
157.5568235796126
 20
-57.27564927602122
 30
0.0
 40
2.399999999999919
  0
CIRCLE
  5
2B8
330
1E
100
AcDbEntity
  8
1
 62
     3
100
AcDbCircle
 10
157.5568235796126
 20
-57.27564927602122
 30
0.0
 40
3.0
  0
CIRCLE
  5
2B9
330
1E
100
AcDbEntity
  8
1
 62
     7
100
AcDbCircle
 10
139.9982307223087
 20
-30.99735802148314
 30
0.0
 40
3.299999999999898
  0
CIRCLE
  5
2BA
330
1E
100
AcDbEntity
  8
1
 62
     3
100
AcDbCircle
 10
-98.55842656904023
 20
-57.27564927611023
 30
0.0
 40
3.0
  0
CIRCLE
  5
2BB
330
1E
100
AcDbEntity
  8
1
 62
     7
100
AcDbCircle
 10
-98.55842656904023
 20
-57.27564927611023
 30
0.0
 40
2.399999999999864
  0
CIRCLE
  5
2BC
330
1E
100
AcDbEntity
  8
1
 62
     7
100
AcDbCircle
 10
-80.99983371173648
 20
-30.99735802157214
 30
0.0
 40
3.299999999999898
  0
CIRCLE
  5
2BD
330
1E
100
AcDbEntity
  8
1
 62
     7
100
AcDbCircle
 10
-74.83407584515072
 20
0.0000000000001137
 30
0.0
 40
3.300000000000068
  0
CIRCLE
  5
2BE
330
1E
100
AcDbEntity
  8
1
 62
     7
100
AcDbCircle
 10
-80.99983371173648
 20
30.99735802157238
 30
0.0
 40
3.300000000000053
  0
CIRCLE
  5
2BF
330
1E
100
AcDbEntity
  8
1
 62
     7
100
AcDbCircle
 10
-155.8340758451507
 20
63.49999999999875
 30
0.0
 40
3.5
  0
CIRCLE
  5
2C0
330
1E
100
AcDbEntity
  8
1
 62
     7
100
AcDbCircle
 10
-155.8340758451507
 20
63.49999999999875
 30
0.0
 40
2.980384757729411
  0
CIRCLE
  5
2C1
330
1E
100
AcDbEntity
  8
1
 62
     7
100
AcDbCircle
 10
-187.5840758451499
 20
54.99261314031071
 30
0.0
 40
2.980384757729482
  0
CIRCLE
  5
2C2
330
1E
100
AcDbEntity
  8
1
 62
     7
100
AcDbCircle
 10
-187.5840758451499
 20
54.99261314031071
 30
0.0
 40
3.500000000000066
  0
CIRCLE
  5
2C3
330
1E
100
AcDbEntity
  8
1
 62
     7
100
AcDbCircle
 10
-210.8266889854615
 20
31.7499999999993
 30
0.0
 40
3.500000000000091
  0
CIRCLE
  5
2C4
330
1E
100
AcDbEntity
  8
1
 62
     7
100
AcDbCircle
 10
-210.8266889854615
 20
31.7499999999993
 30
0.0
 40
2.980384757729416
  0
CIRCLE
  5
2C5
330
1E
100
AcDbEntity
  8
1
 62
     7
100
AcDbCircle
 10
-219.3340758451496
 20
-0.0000000000001137
 30
0.0
 40
2.980384757729439
  0
CIRCLE
  5
2C6
330
1E
100
AcDbEntity
  8
1
 62
     7
100
AcDbCircle
 10
-219.3340758451496
 20
-0.0000000000001137
 30
0.0
 40
3.500000000000113
  0
CIRCLE
  5
2C7
330
1E
100
AcDbEntity
  8
1
 62
     7
100
AcDbCircle
 10
-210.8266889854615
 20
-31.74999999999955
 30
0.0
 40
3.500000000000091
  0
CIRCLE
  5
2C8
330
1E
100
AcDbEntity
  8
1
 62
     7
100
AcDbCircle
 10
-210.8266889854615
 20
-31.74999999999955
 30
0.0
 40
2.980384757729296
  0
CIRCLE
  5
2C9
330
1E
100
AcDbEntity
  8
1
 62
     7
100
AcDbCircle
 10
-187.58407584515
 20
-54.99261314031105
 30
0.0
 40
2.980384757729482
  0
CIRCLE
  5
2CA
330
1E
100
AcDbEntity
  8
1
 62
     7
100
AcDbCircle
 10
-187.58407584515
 20
-54.99261314031105
 30
0.0
 40
3.500000000000118
  0
CIRCLE
  5
2CB
330
1E
100
AcDbEntity
  8
1
 62
     7
100
AcDbCircle
 10
-155.8340758451508
 20
-63.49999999999909
 30
0.0
 40
3.500000000000198
  0
CIRCLE
  5
2CC
330
1E
100
AcDbEntity
  8
1
 62
     7
100
AcDbCircle
 10
-155.8340758451508
 20
-63.49999999999909
 30
0.0
 40
2.980384757729496
  0
CIRCLE
  5
2CD
330
1E
100
AcDbEntity
  8
1
 62
     7
100
AcDbCircle
 10
-124.0840758451512
 20
-54.99261314031116
 30
0.0
 40
2.980384757729595
  0
CIRCLE
  5
2CE
330
1E
100
AcDbEntity
  8
1
 62
     7
100
AcDbCircle
 10
-124.0840758451512
 20
-54.99261314031116
 30
0.0
 40
3.500000000000193
  0
CIRCLE
  5
2CF
330
1E
100
AcDbEntity
  8
1
 62
     7
100
AcDbCircle
 10
-100.8414627048398
 20
-31.7499999999993
 30
0.0
 40
2.98038475772939
  0
CIRCLE
  5
2D0
330
1E
100
AcDbEntity
  8
1
 62
     7
100
AcDbCircle
 10
-100.8414627048398
 20
-31.7499999999993
 30
0.0
 40
3.500000000000091
  0
CIRCLE
  5
2D1
330
1E
100
AcDbEntity
  8
1
 62
     7
100
AcDbCircle
 10
-92.33407584515186
 20
0.0000000000001137
 30
0.0
 40
3.500000000000113
  0
CIRCLE
  5
2D2
330
1E
100
AcDbEntity
  8
1
 62
     7
100
AcDbCircle
 10
-92.33407584515186
 20
0.0000000000001137
 30
0.0
 40
2.980384757729439
  0
CIRCLE
  5
2D3
330
1E
100
AcDbEntity
  8
1
 62
     7
100
AcDbCircle
 10
-100.8414627048398
 20
31.74999999999955
 30
0.0
 40
2.980384757729353
  0
CIRCLE
  5
2D4
330
1E
100
AcDbEntity
  8
1
 62
     7
100
AcDbCircle
 10
-100.8414627048398
 20
31.74999999999955
 30
0.0
 40
3.500000000000091
  0
CIRCLE
  5
2D5
330
1E
100
AcDbEntity
  8
1
 62
     7
100
AcDbCircle
 10
-124.0840758451511
 20
54.99261314031082
 30
0.0
 40
2.980384757729412
  0
CIRCLE
  5
2D6
330
1E
100
AcDbEntity
  8
1
 62
     7
100
AcDbCircle
 10
-124.0840758451511
 20
54.99261314031082
 30
0.0
 40
3.499999999999964
  0
LWPOLYLINE
  5
2D7
330
1E
100
AcDbEntity
  8
1
 62
     7
100
AcDbPolyline
 90
       19
 70
     0
 43
0.0
 10
85.97484166614208
 20
64.21150636169001
 42
-0.1282938820530084
 10
85.80235457701656
 20
64.00824155263672
 42
-0.0495506562763859
 10
85.46949263953818
 20
63.82490160422464
 42
-0.030841055482228
 10
84.99043546857855
 20
63.65441256749676
 42
-0.0198125376523246
 10
84.37553868874992
 20
63.5035279894179
 42
-0.0146670857055636
 10
83.64344644480725
 20
63.37661322025702
 42
-0.0117299856139788
 10
82.81602563111741
 20
63.27779964761543
 42
-0.0100980214928898
 10
81.91834310331801
 20
63.21016145409318
 42
-0.0092554005332997
 10
80.97761383745272
 20
63.17580974291045
 42
-0.0089951302058081
 10
80.02238764899322
 20
63.17580974291046
 42
-0.0092554956843064
 10
79.08165838312779
 20
63.21016145409316
 42
-0.0100982573548665
 10
78.18397585532848
 20
63.27779964761543
 42
-0.011730677119149
 10
77.35655504163867
 20
63.37661322025702
 42
-0.0146682923820386
 10
76.62446279769596
 20
63.5035279894179
 42
-0.0198217029753713
 10
76.00956601786736
 20
63.65441256749718
 42
-0.0308473859624075
 10
75.53050884690776
 20
63.82490160422447
 42
-0.0498581982540232
 10
75.19764690942931
 20
64.00824155263688
 42
-0.1318187056267994
 10
75.02515982030384
 20
64.21150636169044
 42
-0.1104870984427722
 10
75.00000074322267
 20
64.31502616545708
  0
LWPOLYLINE
  5
2EC
330
1E
100
AcDbEntity
  8
1
 62
     3
100
AcDbPolyline
 90
       19
 70
     0
 43
0.0
 10
85.47712885448518
 20
64.22091726411213
 42
-0.1282938843948152
 10
85.32032240930089
 20
64.03613109532042
 42
-0.0495506506834075
 10
85.0177206481608
 20
63.86945843672517
 42
-0.0308410528029283
 10
84.58221412948821
 20
63.71446842224512
 42
-0.0198125354033855
 10
84.02321705706642
 20
63.57730064085583
 42
-0.0146670840241958
 10
83.3576786535869
 20
63.46192359207591
 42
-0.0117299842167716
 10
82.60547791393292
 20
63.37209308246736
 42
-0.0100980202735302
 10
81.789402888708
 20
63.31060382313559
 42
-0.0092553994058121
 10
80.93419446523236
 20
63.27937499859896
 42
-0.0089951291085309
 10
80.06580702121397
 20
63.27937499859896
 42
-0.0092554945568007
 10
79.21059859773841
 20
63.31060382313559
 42
-0.0100982561354104
 10
78.39452357251352
 20
63.37209308246736
 42
-0.0117306757217175
 10
77.64232283285952
 20
63.46192359207594
 42
-0.014668290700127
 10
76.97678442937995
 20
63.57730064085583
 42
-0.0198217007243609
 10
76.41778735695824
 20
63.71446842224513
 42
-0.0308473832768164
 10
75.98228083828566
 20
63.86945843672517
 42
-0.0498581925963479
 10
75.67967907714545
 20
64.03613109532042
 42
-0.1318187089878657
 10
75.52287263196109
 20
64.22091726411209
 42
-0.1104871129140448
 10
75.50000074322319
 20
64.31502616696207
  0
LWPOLYLINE
  5
301
330
1E
100
AcDbEntity
  8
1
 62
     7
100
AcDbPolyline
 90
        5
 70
     0
 43
0.0
 10
86.00000074322322
 20
64.31502616574721
 42
-0.0303003650344079
 10
85.99842830088077
 20
64.28914621473302
 42
-0.0295395707991941
 10
85.99371097391978
 20
64.26326626371878
 42
-0.0280312974536043
 10
85.98584876234024
 20
64.23738631270442
 42
-0.0259958822982941
 10
85.97484166614208
 20
64.21150636169001
  0
LWPOLYLINE
  5
308
330
1E
100
AcDbEntity
  8
1
 62
     7
100
AcDbPolyline
 90
       22
 70
     0
 43
0.0
 10
85.97484167115158
 20
75.46020360435318
 42
-0.1282938599286014
 10
85.80235458747701
 20
75.25693857451196
 42
-0.0495507091076552
 10
85.46949264788267
 20
75.0735983998867
 42
-0.0308410807696172
 10
84.99043547295931
 20
74.90310916676993
 42
-0.0198125588888189
 10
84.37553869157531
 20
74.75222441352747
 42
-0.0146671015837215
 10
83.64344644654565
 20
74.6253094979842
 42
-0.0117299988070318
 10
82.81602563219042
 20
74.52649581135955
 42
-0.010098033004597
 10
81.91834310390104
 20
74.45885753987258
 42
-0.0092554111754003
 10
80.97761383763826
 20
74.42450578909668
 42
-0.0089951405737414
 10
80.02238764880749
 20
74.42450578909623
 42
-0.0092555063271895
 10
79.08165838254459
 20
74.45885753987216
 42
-0.0100982688674857
 10
78.18397585425519
 20
74.52649581136016
 42
-0.0117306903133981
 10
77.3565550399
 20
74.62530949798473
 42
-0.0146683082662168
 10
76.62446279487038
 20
74.75222441352747
 42
-0.0198217242268877
 10
76.00956601348639
 20
74.90310916676941
 42
-0.0308474113234617
 10
75.53050883856305
 20
75.07359839988684
 42
-0.0498582516733354
 10
75.19764689896868
 20
75.25693857451233
 42
-0.1318186738945039
 10
75.02515981529398
 20
75.46020360435298
 42
-0.2319123751278391
 10
75.02515981529398
 20
75.66724344398283
 42
-0.128293859927792
 10
75.19764689896861
 20
75.87050847382331
 42
-0.0495507091068834
 10
75.53050883856283
 20
76.05384864844947
 42
-0.0048026132925386
 10
75.60391734384658
 20
76.08436324714728
  0
LWPOLYLINE
  5
320
330
1E
100
AcDbEntity
  8
1
 62
     7
100
AcDbPolyline
 90
        7
 70
     0
 43
0.0
 10
85.93683151993557
 20
75.73380649924115
 42
-0.0342410787812302
 10
85.97484167115153
 20
75.66724344398259
 42
-0.0414810580765536
 10
85.99094347727724
 20
75.62583547605679
 42
-0.0463309063139742
 10
85.99899438034013
 20
75.58442750813094
 42
-0.0485117980668845
 10
85.99899438034013
 20
75.54301954020508
 42
-0.0471793461699978
 10
85.99094347727728
 20
75.50161157227916
 42
-0.0428617478026442
 10
85.97484167115158
 20
75.46020360435318
  0
LWPOLYLINE
  5
329
330
1E
100
AcDbEntity
  8
1
 62
     7
100
AcDbPolyline
 90
       19
 70
     0
 43
0.0
 10
85.47712885952176
 20
75.46961450615413
 42
-0.1282938599279201
 10
85.32032241981758
 20
75.28482811538966
 42
-0.0495507091075837
 10
85.01772065654998
 20
75.11815522936604
 42
-0.0308410807707731
 10
84.58221413389244
 20
74.96316501744195
 42
-0.0198125588877031
 10
84.02321705990706
 20
74.82599705994934
 42
-0.0146671015843523
 10
83.3576786553346
 20
74.71061986400084
 42
-0.0117299988065295
 10
82.60547791501183
 20
74.62078923979681
 42
-0.0100980330051009
 10
81.78940288929428
 20
74.55929990208169
 42
-0.009255411174864
 10
80.93419446541892
 20
74.5280710377402
 42
-0.0089951405743732
 10
80.06580702102739
 20
74.5280710377402
 42
-0.0092555063261922
 10
79.21059859715196
 20
74.55929990208169
 42
-0.0100982688679182
 10
78.39452357143442
 20
74.62078923979681
 42
-0.0117306903135857
 10
77.64232283111152
 20
74.71061986400086
 42
-0.0146683082665531
 10
76.97678442653908
 20
74.82599705994937
 42
-0.0198217242267117
 10
76.41778735255368
 20
74.96316501744257
 42
-0.0308474113228804
 10
75.98228082989611
 20
75.11815522936723
 42
-0.0498582516732593
 10
75.67967906662861
 20
75.28482811538964
 42
-0.1318186738950801
 10
75.52287262692444
 20
75.46961450615373
 42
-0.1503322131602465
 10
75.50246070808007
 20
75.59458699229617
  0
LWPOLYLINE
  5
33E
330
1E
100
AcDbEntity
  8
1
 62
     7
100
AcDbPolyline
 90
       19
 70
     0
 43
0.0
 10
85.17850117254379
 20
76.94248245284713
 42
-0.1282938599289183
 10
85.03110311922171
 20
76.76878324552787
 42
-0.0495507091066217
 10
84.74665746175018
 20
76.61211073266617
 42
-0.0308410807700599
 10
84.33728133045216
 20
76.46641993345659
 42
-0.0198125588887879
 10
83.81182408090595
 20
76.33748205341276
 42
-0.0146671015840082
 10
83.18621798060778
 20
76.22902748922125
 42
-0.0117299988067986
 10
82.47914928470423
 20
76.14458670246934
 42
-0.0100980330045142
 10
81.71203876052979
 20
76.08678672501655
 42
-0.0092554111756923
 10
80.908142842087
 20
76.05743159253522
 42
-0.0089951405737652
 10
80.09185864435892
 20
76.05743159253522
 42
-0.0092555063269904
 10
79.28796272591603
 20
76.08678672501655
 42
-0.0100982688673669
 10
78.52085220174159
 20
76.14458670246938
 42
-0.0117306903138819
 10
77.81378350583809
 20
76.22902748922126
 42
-0.0146683082661287
 10
77.18817740553998
 20
76.33748205341276
 42
-0.0198217242267261
 10
76.66272015599374
 20
76.46641993345594
 42
-0.0308474113233055
 10
76.25334402469559
 20
76.61211073266517
 42
-0.0498582516746792
 10
75.96889836722415
 20
76.76878324552752
 42
-0.1318186738934597
 10
75.8215003139022
 20
76.94248245284652
 42
-0.1104869813127714
 10
75.80000074322295
 20
77.0309449307822
  0
LWPOLYLINE
  5
353
330
1E
100
AcDbEntity
  8
1
 62
     7
100
AcDbPolyline
 90
        9
 70
     0
 43
0.0
 10
75.80000074322295
 20
77.0309449307822
 42
-0.0795398518393248
 10
75.80955610807754
 20
77.08991991473549
 42
-0.0826071184091748
 10
75.8505287371258
 20
77.1710313145862
 42
-0.0652621993786781
 10
75.92422776378676
 20
77.25788091824568
 42
-0.0644098500002062
 10
76.06063816360341
 20
77.35184366745719
 42
-0.0332426817898186
 10
76.25334402469565
 20
77.44977912689353
 42
-0.0205502772462054
 10
76.52428135127252
 20
77.55252939077866
 42
-0.002588438527655
 10
76.68135421592007
 20
77.60080444846702
 10
76.7000007437088
 20
77.60608547029916
  0
LWPOLYLINE
  5
35E
330
1E
100
AcDbEntity
  8
1
 62
     7
100
AcDbPolyline
 90
        6
 70
     0
 43
0.0
 10
85.39608414268846
 20
76.08436324711011
 42
-0.0048051716128161
 10
85.46949264788279
 20
76.05384864844866
 42
-0.0249910879025296
 10
85.63997237904969
 20
75.9707527016242
 42
-0.0247444960622594
 10
85.80235458747697
 20
75.87050847382379
 42
-0.0477727347340553
 10
85.87597116409172
 20
75.8088438694663
 42
-0.0476328081114155
 10
85.93683151993557
 20
75.73380649924115
  0
LWPOLYLINE
  5
366
330
1E
100
AcDbEntity
  8
1
 62
     7
100
AcDbPolyline
 90
        6
 70
     0
 43
0.0
 10
85.49754077813137
 20
75.59458699377002
 42
-0.0354385997142306
 10
85.49997605647796
 20
75.5668153298554
 42
-0.0357821281257761
 10
85.49842775753322
 20
75.53904366594079
 42
-0.0346953155629324
 10
85.49289588129715
 20
75.51127200202616
 42
-0.0324209124935413
 10
85.48338042776974
 20
75.48350033811148
 10
85.47712885952176
 20
75.46961450615413
  0
LWPOLYLINE
  5
36E
330
1E
100
AcDbEntity
  8
1
 62
     7
100
AcDbPolyline
 90
       19
 70
     0
 43
0.0
 10
84.28261811160998
 20
76.95942207608914
 42
-0.1282938599280877
 10
84.1634452174348
 20
76.81898441910778
 42
-0.049550709107332
 10
83.93346787735158
 20
76.6923130257298
 42
-0.0308410807707612
 10
83.60248292013176
 20
76.57452046466705
 42
-0.019812558888236
 10
83.17764514390281
 20
76.47027281697251
 42
-0.014667101583714
 10
82.6718359564278
 20
76.38258614805126
 42
-0.0117299988070185
 10
82.1001633937824
 20
76.31431487365555
 42
-0.0100980330052438
 10
81.47994637423705
 20
76.26758297699204
 42
-0.0092554111747168
 10
80.82998797209183
 20
76.24384904009257
 42
-0.0089951405745483
 10
80.17001351435428
 20
76.24384904009257
 42
-0.009255506325713
 10
79.52005511220902
 20
76.26758297699158
 42
-0.0100982688692057
 10
78.89983809266372
 20
76.31431487365556
 42
-0.0117306903124229
 10
78.3281655300183
 20
76.38258614805113
 42
-0.0146683082673746
 10
77.82235634254317
 20
76.47027281697198
 42
-0.0198217242260647
 10
77.3975185663142
 20
76.57452046466705
 42
-0.0308474113226477
 10
77.06653360909456
 20
76.69231302572931
 42
-0.0498582516766956
 10
76.83655626901125
 20
76.81898441910802
 42
-0.1318186738897438
 10
76.71738337483599
 20
76.95942207608876
 42
-0.1104869806387287
 10
76.7000007432231
 20
77.03094493018601
  0
LWPOLYLINE
  5
383
330
1E
100
AcDbEntity
  8
1
 62
     7
100
AcDbPolyline
 90
       10
 70
     0
 43
0.0
 10
84.3000007439703
 20
77.6060854699531
 42
-0.0014156282730136
 10
84.33728133045219
 20
77.59546992610274
 42
-0.0205587148648221
 10
84.61217884560605
 20
77.50396579104291
 42
-0.0229790075487068
 10
84.84454810368523
 20
77.40406783841092
 42
-0.0331055266896713
 10
85.03110311922176
 20
77.2931066140313
 42
-0.0662711695456192
 10
85.11523026602535
 20
77.21718915176444
 42
-0.063830848946688
 10
85.1785011725437
 20
77.11940740671234
 42
-0.0867632139080538
 10
85.19914076039574
 20
77.0486374251659
 42
-0.0964580091388999
 10
85.19226089777843
 20
76.97786744361994
 10
85.17850117254379
 20
76.94248245284713
  0
LWPOLYLINE
  5
38F
330
1E
100
AcDbEntity
  8
1
 62
     3
100
AcDbPolyline
 90
       16
 70
     0
 43
0.0
 10
-22.00000074322383
 20
39.01772202382449
 42
-0.1055097579452814
 10
-19.01372468630414
 20
37.30875855372882
 42
-0.0727498720116839
 10
-16.88480153390765
 20
34.67095762576627
 42
-0.030280440994357
 10
-15.25672642710157
 20
31.52094023718448
 42
0.0054097275711229
 10
-13.77299450695309
 20
28.27532738523116
 42
0.0436935038341038
 10
-12.07710091452944
 20
25.35074006715395
 42
0.0936495944441516
 10
-9.812540790897791
 20
23.1637992802005
 42
0.0834552970741949
 10
-6.263901613956963
 20
21.82414105774126
 42
-0.0007008380381963
 10
-2.311601582265747
 20
20.9882139396982
 42
-0.0810337259521754
 10
1.220932469867187
 20
19.62880299277047
 42
-0.1142519412194036
 10
3.66506474091623
 20
17.03205713816755
 42
-0.0652075845380752
 10
5.200951833976406
 20
13.42936753457584
 42
-0.0308810695471503
 10
6.12117020369621
 20
9.312637427105782
 42
-0.0084262574334294
 10
6.718296304724117
 20
5.173770060867811
 42
0.0143892353920211
 10
7.284906591708621
 20
1.50466868097237
 10
7.648198447012245
 20
0.0000000000001137
  0
ARC
  5
3A1
330
1E
100
AcDbEntity
  8
1
 62
     3
100
AcDbCircle
 10
233.3324728557213
 20
29.62634848283618
 30
0.0
 40
1.5
100
AcDbArc
 50
270.0
 51
0.0
  0
ARC
  5
3A2
330
1E
100
AcDbEntity
  8
1
 62
     3
100
AcDbCircle
 10
196.3324728557213
 20
29.62634848283618
 30
0.0
 40
1.5
100
AcDbArc
 50
180.0
 51
270.0
  0
ARC
  5
3A3
330
1E
100
AcDbEntity
  8
1
 62
     3
100
AcDbCircle
 10
196.3324728557213
 20
55.62634848283619
 30
0.0
 40
1.5
100
AcDbArc
 50
90.0
 51
180.0
  0
ARC
  5
3A4
330
1E
100
AcDbEntity
  8
1
 62
     3
100
AcDbCircle
 10
233.3324728557213
 20
55.62634848283619
 30
0.0
 40
1.5
100
AcDbArc
 50
0.0
 51
90.0
  0
ARC
  5
3A5
330
1E
100
AcDbEntity
  8
1
 62
     7
100
AcDbCircle
 10
-12.10000074322414
 20
59.40000000000077
 30
0.0
 40
0.4000000000007732
100
AcDbArc
 50
270.0
 51
0.0
  0
ARC
  5
3A6
330
1E
100
AcDbEntity
  8
1
 62
     7
100
AcDbCircle
 10
-164.494329882995
 20
14.99999999999989
 30
0.0
 40
4.0
100
AcDbArc
 50
90.0
 51
149.9999999999988
  0
ARC
  5
3A7
330
1E
100
AcDbEntity
  8
1
 62
     7
100
AcDbCircle
 10
-173.1545839208395
 20
-0.0000000000001137
 30
0.0
 40
4.000000000000033
100
AcDbArc
 50
150.0000000000003
 51
209.9999999999996
  0
ARC
  5
3A8
330
1E
100
AcDbEntity
  8
1
 62
     7
100
AcDbCircle
 10
-164.494329882995
 20
-15.00000000000011
 30
0.0
 40
3.999999999999861
100
AcDbArc
 50
210.0000000000011
 51
270.0
  0
ARC
  5
3A9
330
1E
100
AcDbEntity
  8
1
 62
     7
100
AcDbCircle
 10
-147.1738218073061
 20
-15.00000000000011
 30
0.0
 40
4.0
100
AcDbArc
 50
270.0
 51
329.9999999999997
  0
ARC
  5
3AA
330
1E
100
AcDbEntity
  8
1
 62
     7
100
AcDbCircle
 10
-138.5135677694619
 20
-0.0000000000001137
 30
0.0
 40
3.999999999999861
100
AcDbArc
 50
329.9999999999988
 51
30.00000000000115
  0
ARC
  5
3AB
330
1E
100
AcDbEntity
  8
1
 62
     7
100
AcDbCircle
 10
-147.1738218073061
 20
14.99999999999989
 30
0.0
 40
3.999999999999958
100
AcDbArc
 50
30.00000000000032
 51
90.0
  0
ARC
  5
3AC
330
1E
100
AcDbEntity
  8
1
 62
     7
100
AcDbCircle
 10
-15.00000074322382
 20
-58.49999999999898
 30
0.0
 40
1.0
100
AcDbArc
 50
180.0
 51
270.0
  0
ARC
  5
3AD
330
1E
100
AcDbEntity
  8
1
 62
     7
100
AcDbCircle
 10
-10.70000074322398
 20
-67.70000000000016
 30
0.0
 40
1.0
100
AcDbArc
 50
180.0
 51
270.0
  0
ARC
  5
3AE
330
1E
100
AcDbEntity
  8
1
 62
     7
100
AcDbCircle
 10
-12.10000074322375
 20
-59.89999999999998
 30
0.0
 40
0.3999999999997499
100
AcDbArc
 50
0.0
 51
90.0
  0
ARC
  5
3AF
330
1E
100
AcDbEntity
  8
1
 62
     7
100
AcDbCircle
 10
-15.00000074322382
 20
58.0
 30
0.0
 40
1.0
100
AcDbArc
 50
90.0
 51
180.0
  0
ARC
  5
3B0
330
1E
100
AcDbEntity
  8
1
 62
     7
100
AcDbCircle
 10
-10.70000074322398
 20
67.5000000000001
 30
0.0
 40
0.9999999999998864
100
AcDbArc
 50
90.0
 51
180.0
  0
LINE
  5
3B5
330
1E
100
AcDbEntity
  8
1
 62
     3
100
AcDbLine
 10
134.7215595391548
 20
126.6060143779984
 30
0.0
 11
181.6475933022939
 21
126.6060143779984
 31
0.0
  0
LINE
  5
3B6
330
1E
100
AcDbEntity
  8
1
 62
     3
100
AcDbLine
 10
181.6475933022939
 20
126.6060143779984
 30
0.0
 11
197.0878387658693
 21
100.6348287003045
 31
0.0
  0
CIRCLE
  5
3B7
330
1E
100
AcDbEntity
  8
1
 62
     3
100
AcDbCircle
 10
197.0878387658693
 20
100.6348287003045
 30
0.0
 40
0.75
  0
LINE
  5
3B8
330
1E
100
AcDbEntity
  8
1
 62
     3
100
AcDbLine
 10
293.1038738267948
 20
126.629411890951
 30
0.0
 11
246.3582657526039
 21
126.629411890951
 31
0.0
  0
LINE
  5
3B9
330
1E
100
AcDbEntity
  8
1
 62
     3
100
AcDbLine
 10
246.3582657526039
 20
126.629411890951
 30
0.0
 11
232.5812345614675
 21
100.6582262132571
 31
0.0
  0
CIRCLE
  5
3BA
330
1E
100
AcDbEntity
  8
1
 62
     3
100
AcDbCircle
 10
232.5812345614675
 20
100.6582262132571
 30
0.0
 40
0.75
  0
TEXT
  5
3BB
330
1E
100
AcDbEntity
  8
1
 62
     3
100
AcDbText
 10
143.7356027542288
 20
127.6389647639923
 30
0.0
 40
3.5
  1
MOTOR LEADS
 41
0.9
 72
     2
 11
177.3356027542288
 21
127.6389647639923
 31
0.0
100
AcDbText
  0
TEXT
  5
3BC
330
1E
100
AcDbEntity
  8
1
 62
     3
100
AcDbText
 10
152.9045626818173
 20
124.0741084686574
 30
0.0
 40
1.5
  1
2
 41
0.9
100
AcDbText
  0
TEXT
  5
3BD
330
1E
100
AcDbEntity
  8
1
 62
     3
100
AcDbText
 10
136.3948340841596
 20
121.1248866006533
 30
0.0
 40
3.5
  1
0.75mm-6C+SHILD
 41
0.9
100
AcDbText
  0
TEXT
  5
3BE
330
1E
100
AcDbEntity
  8
1
 62
     3
100
AcDbText
 10
142.102167993166
 20
115.7546480842684
 30
0.0
 40
3.5
  1
L=1000   mm
 41
0.9
100
AcDbText
  0
TEXT
  5
3BF
330
1E
100
AcDbEntity
  8
1
 62
     3
100
AcDbText
 10
160.6708084579454
 20
117.9386324501185
 30
0.0
 40
1.5
  1
+200
 41
0.9
100
AcDbText
  0
TEXT
  5
3C0
330
1E
100
AcDbEntity
  8
1
 62
     3
100
AcDbText
 10
160.6708084579454
 20
115.6886324501186
 30
0.0
 40
1.5
  1
 0
 41
0.9
100
AcDbText
  0
TEXT
  5
3C1
330
1E
100
AcDbEntity
  8
1
 62
     3
100
AcDbText
 10
138.5737804814488
 20
110.3061008318224
 30
0.0
 40
3.0
  1
GROUND :
 41
0.9
100
AcDbText
  0
TEXT
  5
3C2
330
1E
100
AcDbEntity
  8
1
 62
     3
100
AcDbText
 10
138.5737804814488
 20
105.8061008318224
 30
0.0
 40
3.0
  1
 GREEN/YELLOW
 41
0.9
100
AcDbText
  0
TEXT
  5
3C5
330
1E
100
AcDbEntity
  8
1
 62
     3
100
AcDbText
 10
247.4300390627308
 20
127.5092226520707
 30
0.0
 40
3.5
  1
ENCODER LEADS
 41
0.9
100
AcDbText
  0
TEXT
  5
3CA
330
1E
100
AcDbEntity
  8
1
 62
     0
100
AcDbText
 10
177.5910574220469
 20
-126.0829220425065
 30
0.0
 40
6.0
  1
FHA-32C-XXX-E250.dxf
 41
0.9
100
AcDbText
  0
TEXT
  5
3CB
330
1E
100
AcDbEntity
  8
1
 62
     0
100
AcDbText
 10
177.5910574220469
 20
-139.2829220425064
 30
0.0
 40
6.0
  1
2015/6
 41
0.9
100
AcDbText
  0
TEXT
  5
3CF
330
1E
100
AcDbEntity
  8
1
 62
     3
100
AcDbText
 10
-215.8932131756349
 20
-166.0220167942656
 30
0.0
 40
4.0
  1
 
 41
0.9
100
AcDbText
  0
INSERT
  5
449
330
1E
100
AcDbEntity
  8
0
100
AcDbBlockReference
  2
HD Logo
 10
91.38708239812617
 20
-213.8403983704058
 30
0.0
 41
1.669286971749519
 42
1.669286971749519
 43
1.669286971749519
  0
INSERT
  5
453
330
1E
100
AcDbEntity
  8
0
100
AcDbBlockReference
  2
Harmonic Drive LLC
 10
-211.4562989775972
 20
202.2221983151611
 30
0.0
 41
2.506201625490938
 42
2.506201625490938
 43
2.506201625490938
  0
INSERT
  5
468
330
1E
100
AcDbEntity
  8
0
100
AcDbBlockReference
  2
NTC
 10
-314.7780070413212
 20
-137.9181553354765
 30
0.0
  0
TEXT
  5
529
330
1E
100
AcDbEntity
  8
1
 62
     3
100
AcDbText
 10
247.3541546922234
 20
121.1482841136056
 30
0.0
 40
3.5
  1
22AWG-1P
 41
0.9
100
AcDbText
  0
TEXT
  5
52A
330
1E
100
AcDbEntity
  8
1
 62
     3
100
AcDbText
 10
247.3541546922234
 20
115.7780841136057
 30
0.0
 40
3.5
  1
24AWG-6P+SHIELD
 41
0.9
100
AcDbText
  0
TEXT
  5
52B
330
1E
100
AcDbEntity
  8
1
 62
     3
100
AcDbText
 10
271.6301290660094
 20
110.341829963071
 30
0.0
 40
1.5
  1
 0
 41
0.9
100
AcDbText
  0
TEXT
  5
52C
330
1E
100
AcDbEntity
  8
1
 62
     3
100
AcDbText
 10
271.6301290660094
 20
112.591829963071
 30
0.0
 40
1.5
  1
+200
 41
0.9
100
AcDbText
  0
TEXT
  5
52D
330
1E
100
AcDbEntity
  8
1
 62
     3
100
AcDbText
 10
253.06148860123
 20
110.4078455972208
 30
0.0
 40
3.5
  1
L=1000   mm
 41
0.9
100
AcDbText
  0
ENDSEC
  0
SECTION
  2
OBJECTS
  0
DICTIONARY
  5
C
330
0
100
AcDbDictionary
281
     1
  3
ACAD_COLOR
350
46F
  3
ACAD_GROUP
350
D
  3
ACAD_LAYOUT
350
19
  3
ACAD_MATERIAL
350
46E
  3
ACAD_MLINESTYLE
350
16
  3
ACAD_PLOTSETTINGS
350
18
  3
ACAD_PLOTSTYLENAME
350
E
  3
AcDbVariableDictionary
350
454
  3
AcmDictionary
350
4D6
  3
AMG
350
480
  3
AMGSNAPSETTINGS
350
515
  0
DICTIONARY
  5
53A
330
1E
100
AcDbDictionary
280
     1
281
     1
  3
ACAD_INDEX
360
53B
  0
DICTIONARY
  5
46F
102
{ACAD_REACTORS
330
C
102
}
330
C
100
AcDbDictionary
281
     1
  0
DICTIONARY
  5
D
102
{ACAD_REACTORS
330
C
102
}
330
C
100
AcDbDictionary
281
     1
  0
DICTIONARY
  5
19
102
{ACAD_REACTORS
330
C
102
}
330
C
100
AcDbDictionary
281
     1
  3
Layout1
350
1D
  3
Model
350
21
  0
DICTIONARY
  5
46E
102
{ACAD_REACTORS
330
C
102
}
330
C
100
AcDbDictionary
281
     1
  0
DICTIONARY
  5
16
102
{ACAD_REACTORS
330
C
102
}
330
C
100
AcDbDictionary
281
     1
  3
Standard
350
17
  0
DICTIONARY
  5
18
102
{ACAD_REACTORS
330
C
102
}
330
C
100
AcDbDictionary
281
     1
  0
ACDBDICTIONARYWDFLT
  5
E
102
{ACAD_REACTORS
330
C
102
}
330
C
100
AcDbDictionary
281
     1
  3
Normal
350
F
100
AcDbDictionaryWithDefault
340
F
  0
DICTIONARY
  5
454
102
{ACAD_REACTORS
330
C
102
}
330
C
100
AcDbDictionary
281
     1
  3
DIMASSOC
350
455
  0
DICTIONARY
  5
4D6
102
{ACAD_REACTORS
330
C
102
}
330
C
100
AcDbDictionary
281
     1
  3
AcmBOMDATA
350
4D7
  3
AcmStdDictionary
350
4E3
  0
DICTIONARY
  5
480
102
{ACAD_REACTORS
330
C
102
}
330
C
100
AcDbDictionary
281
     1
  3
AcMgSettings
350
481
  3
AMGLAYCFG
350
4E5
  0
DICTIONARY
  5
515
102
{ACAD_REACTORS
330
C
102
}
330
C
100
AcDbDictionary
281
     1
  3
DIMENSION
350
51A
  3
FEA
350
519
  3
HATCH (1)
350
516
  3
HATCH (2)
350
517
  3
SIMPLE WELD
350
51B
  3
SYMBOLS
350
518
  0
DICTIONARY
  5
53B
102
{ACAD_REACTORS
330
53A
102
}
330
53A
100
AcDbDictionary
281
     1
  3
*A1
350
53C
  0
LAYOUT
  5
1D
102
{ACAD_REACTORS
330
19
102
}
330
19
100
AcDbPlotSettings
  1

  2
\\SERVER9\HP LaserJet 5100 PCL 5e
  4

  6

 40
0.0
 41
0.0
 42
0.0
 43
0.0
 44
0.0
 45
0.0
 46
0.0
 47
0.0
 48
0.0
 49
0.0
140
0.0
141
0.0
142
1.0
143
1.0
 70
   688
 72
     0
 73
     0
 74
     5
  7

 75
    16
147
1.0
 76
     0
 77
     2
 78
   300
148
0.0
149
0.0
100
AcDbLayout
  1
Layout1
 70
     1
 71
     1
 10
0.0
 20
0.0
 11
12.0
 21
9.0
 12
0.0
 22
0.0
 32
0.0
 14
1.000000000000000E+20
 24
1.000000000000000E+20
 34
1.000000000000000E+20
 15
-1.000000000000000E+20
 25
-1.000000000000000E+20
 35
-1.000000000000000E+20
146
0.0
 13
0.0
 23
0.0
 33
0.0
 16
1.0
 26
0.0
 36
0.0
 17
0.0
 27
1.0
 37
0.0
 76
     0
330
1A
  0
LAYOUT
  5
21
102
{ACAD_REACTORS
330
19
102
}
330
19
100
AcDbPlotSettings
  1

  2
\\SERVER9\HP LaserJet 5100 PCL 5e
  4

  6

 40
0.0
 41
0.0
 42
0.0
 43
0.0
 44
0.0
 45
0.0
 46
0.0
 47
0.0
 48
0.0
 49
0.0
140
0.0
141
0.0
142
1.0
143
1.0
 70
  1712
 72
     0
 73
     0
 74
     0
  7

 75
     0
147
1.0
 76
     0
 77
     2
 78
   300
148
0.0
149
0.0
100
AcDbLayout
  1
Model
 70
     1
 71
     0
 10
0.0
 20
0.0
 11
12.0
 21
9.0
 12
0.0
 22
0.0
 32
0.0
 14
0.0
 24
0.0
 34
0.0
 15
0.0
 25
0.0
 35
0.0
146
0.0
 13
0.0
 23
0.0
 33
0.0
 16
1.0
 26
0.0
 36
0.0
 17
0.0
 27
1.0
 37
0.0
 76
     0
330
1E
  0
MLINESTYLE
  5
17
102
{ACAD_REACTORS
330
16
102
}
330
16
100
AcDbMlineStyle
  2
STANDARD
 70
     0
  3

 62
   256
 51
90.0
 52
90.0
 71
     2
 49
0.5
 62
   256
  6
BYLAYER
 49
-0.5
 62
   256
  6
BYLAYER
  0
ACDBPLACEHOLDER
  5
F
102
{ACAD_REACTORS
330
E
102
}
330
E
  0
DICTIONARYVAR
  5
455
102
{ACAD_REACTORS
330
454
102
}
330
454
100
DictionaryVariables
280
     0
  1
1
  0
ACMDATADICTIONARY
  5
4D7
102
{ACAD_REACTORS
330
4D6
102
}
330
4D6
100
AcDbDictionary
281
     1
100
AcmDataDictionary
  0
DICTIONARY
  5
4E3
102
{ACAD_REACTORS
330
4D6
102
}
330
4D6
100
AcDbDictionary
281
     1
  3
ANSI
350
4E4
  0
DICTIONARY
  5
481
102
{ACAD_REACTORS
330
480
102
}
330
480
100
AcDbDictionary
281
     1
  3
DWGSETTINGS
350
482
  3
TRANSSETTINGS
350
483
  0
ACAMGFILTERDAT
  5
51A
102
{ACAD_REACTORS
330
515
102
}
330
515
100
AcAmgFilterDat
 70
    15
  1
DIMENSION,AMDT_*_DIM
  2
*
  3
*
  4
*
  5
*
290
     1
  0
ACAMGFILTERDAT
  5
519
102
{ACAD_REACTORS
330
515
102
}
330
515
100
AcAmgFilterDat
 70
    15
  1
*
  2
AM_FEA-AM_*
  3
*
  4
*
  5
*
290
     1
  0
ACAMGFILTERDAT
  5
516
102
{ACAD_REACTORS
330
515
102
}
330
515
100
AcAmgFilterDat
 70
    15
  1
HATCH
  2
*
  3
*
  4
*
  5
*
290
     1
  0
ACAMGFILTERDAT
  5
517
102
{ACAD_REACTORS
330
515
102
}
330
515
100
AcAmgFilterDat
 70
    15
  1
LINE
  2
8,8N,*-8,*-8N,AM_8,AM_8N,*-AM_8,*-AM_8N
  3
*
  4
*
  5
INSERT,STDPART2D
290
     1
  0
ACAMGFILTERDAT
  5
51B
102
{ACAD_REACTORS
330
515
102
}
330
515
100
AcAmgFilterDat
 70
    15
  1
ARC
  2
AM_5
  3
*
  4
2
  5
INSERT
290
     0
  0
ACAMGFILTERDAT
  5
518
102
{ACAD_REACTORS
330
515
102
}
330
515
100
AcAmgFilterDat
 70
    15
  1
ACMFCFRAME,ACMDATUMTARGET,ACMDATUMID,ACMWELDSYM,ACMSURFSYM,ACMFEATID,ACMPARTREF,ACMBALLOON,AMDTEDGESYM,AMGSCREWCALCTABLE
  2
*
  3
*
  4
*
  5
*
290
     1
  0
LAYER_INDEX
  5
53C
102
{ACAD_REACTORS
330
53B
102
}
330
53B
100
AcDbIndex
 40
2457203.705736574
100
AcDbLayerIndex
  8
0
360
53D
 90
        3
  8
1
360
53E
 90
      724
  8
LAYER_1
360
53F
 90
        0
  0
IDBUFFER
  5
53D
330
0
100
AcDbIdBuffer
330
449
330
453
330
468
  0
IDBUFFER
  5
53E
330
0
100
AcDbIdBuffer
330
227
330
228
330
229
330
22A
330
22B
330
22C
330
22D
330
22E
330
22F
330
230
330
231
330
232
330
233
330
234
330
235
330
236
330
237
330
238
330
239
330
23A
330
23B
330
23C
330
23D
330
23E
330
23F
330
240
330
241
330
242
330
243
330
244
330
245
330
246
330
247
330
248
330
249
330
24A
330
24B
330
24C
330
24D
330
24E
330
24F
330
250
330
251
330
252
330
253
330
254
330
255
330
256
330
257
330
258
330
259
330
25A
330
25B
330
25C
330
25D
330
25E
330
25F
330
260
330
261
330
262
330
263
330
264
330
265
330
266
330
267
330
268
330
269
330
26A
330
26B
330
26C
330
26D
330
26E
330
26F
330
270
330
271
330
272
330
273
330
274
330
275
330
276
330
277
330
278
330
279
330
27A
330
27B
330
27C
330
27D
330
27E
330
27F
330
280
330
281
330
282
330
283
330
284
330
285
330
286
330
287
330
288
330
289
330
28A
330
28B
330
28C
330
28D
330
28E
330
28F
330
290
330
291
330
292
330
293
330
294
330
295
330
296
330
297
330
298
330
299
330
29A
330
29B
330
29C
330
29D
330
29E
330
29F
330
2A0
330
2A1
330
2A2
330
2A3
330
2A4
330
2A5
330
2A6
330
2A7
330
2A8
330
2A9
330
2AA
330
2AB
330
2AC
330
2AD
330
2AE
330
2AF
330
2B0
330
2B1
330
2B2
330
2B3
330
2B4
330
2B5
330
2B6
330
2B7
330
2B8
330
2B9
330
2BA
330
2BB
330
2BC
330
2BD
330
2BE
330
2BF
330
2C0
330
2C1
330
2C2
330
2C3
330
2C4
330
2C5
330
2C6
330
2C7
330
2C8
330
2C9
330
2CA
330
2CB
330
2CC
330
2CD
330
2CE
330
2CF
330
2D0
330
2D1
330
2D2
330
2D3
330
2D4
330
2D5
330
2D6
330
2D7
330
2EC
330
301
330
308
330
320
330
329
330
33E
330
353
330
35E
330
366
330
36E
330
383
330
38F
330
3A1
330
3A2
330
3A3
330
3A4
330
3A5
330
3A6
330
3A7
330
3A8
330
3A9
330
3AA
330
3AB
330
3AC
330
3AD
330
3AE
330
3AF
330
3B0
330
3B5
330
3B6
330
3B7
330
3B8
330
3B9
330
3BA
330
3BB
330
3BC
330
3BD
330
3BE
330
3BF
330
3C0
330
3C1
330
3C2
330
3C5
330
3CA
330
3CB
330
3CF
330
529
330
52A
330
52B
330
52C
330
52D
330
33
330
34
330
35
330
36
330
37
330
38
330
39
330
3A
330
3B
330
3C
330
3D
330
3E
330
3F
330
40
330
41
330
42
330
43
330
44
330
45
330
46
330
47
330
48
330
49
330
4A
330
4B
330
4C
330
4D
330
4E
330
4F
330
50
330
51
330
52
330
53
330
54
330
55
330
56
330
57
330
58
330
59
330
5A
330
5B
330
5C
330
5D
330
5E
330
5F
330
60
330
61
330
62
330
63
330
64
330
65
330
66
330
67
330
68
330
69
330
6A
330
6B
330
6C
330
6D
330
6E
330
6F
330
70
330
71
330
72
330
73
330
74
330
75
330
76
330
77
330
78
330
79
330
7A
330
7B
330
7C
330
7D
330
7E
330
7F
330
80
330
81
330
82
330
83
330
84
330
85
330
86
330
87
330
88
330
89
330
8A
330
8B
330
8C
330
8D
330
8E
330
8F
330
90
330
91
330
92
330
93
330
94
330
95
330
96
330
97
330
98
330
99
330
9A
330
9B
330
9C
330
9D
330
9E
330
9F
330
A0
330
A1
330
A2
330
A3
330
A4
330
A5
330
A6
330
A7
330
A8
330
A9
330
AA
330
AB
330
AC
330
AD
330
AE
330
AF
330
B0
330
B1
330
B2
330
B3
330
B4
330
B5
330
B6
330
B7
330
B8
330
B9
330
BA
330
BB
330
BC
330
BD
330
BE
330
BF
330
C0
330
C1
330
C2
330
C3
330
C4
330
C5
330
C6
330
C7
330
C8
330
C9
330
CA
330
CB
330
CC
330
CD
330
CE
330
CF
330
D0
330
D1
330
D2
330
D3
330
D4
330
D5
330
D6
330
D7
330
D8
330
D9
330
DA
330
DB
330
DC
330
DD
330
DE
330
DF
330
E0
330
E1
330
E2
330
E3
330
E4
330
E5
330
E6
330
E7
330
E8
330
E9
330
EA
330
EB
330
EC
330
ED
330
EE
330
EF
330
F0
330
F1
330
F2
330
F3
330
F4
330
F5
330
F6
330
F7
330
F8
330
F9
330
FA
330
FB
330
FC
330
FD
330
FE
330
FF
330
100
330
101
330
102
330
103
330
104
330
105
330
106
330
107
330
108
330
109
330
10A
330
10B
330
10C
330
10D
330
10E
330
10F
330
110
330
111
330
112
330
113
330
114
330
115
330
116
330
117
330
118
330
119
330
11A
330
11B
330
11C
330
11D
330
11E
330
11F
330
120
330
121
330
122
330
123
330
124
330
125
330
126
330
127
330
128
330
129
330
12A
330
12B
330
12C
330
12D
330
12E
330
12F
330
130
330
131
330
132
330
133
330
134
330
135
330
136
330
137
330
138
330
139
330
13A
330
13B
330
13C
330
13D
330
13E
330
13F
330
140
330
141
330
142
330
143
330
144
330
145
330
146
330
147
330
148
330
149
330
14A
330
14B
330
14C
330
14D
330
14E
330
14F
330
150
330
151
330
152
330
153
330
154
330
155
330
156
330
157
330
158
330
159
330
15A
330
15B
330
15C
330
15D
330
15E
330
15F
330
160
330
161
330
162
330
163
330
164
330
165
330
166
330
167
330
168
330
169
330
16A
330
16B
330
16C
330
16D
330
16E
330
16F
330
170
330
171
330
172
330
173
330
174
330
175
330
176
330
177
330
178
330
179
330
17A
330
17B
330
17C
330
17D
330
17E
330
17F
330
180
330
181
330
182
330
183
330
184
330
185
330
186
330
187
330
188
330
189
330
18A
330
18B
330
18C
330
18D
330
18E
330
18F
330
190
330
191
330
192
330
193
330
194
330
195
330
196
330
197
330
198
330
199
330
19A
330
19B
330
19C
330
19D
330
19E
330
19F
330
1A0
330
1A1
330
1A2
330
1A3
330
1A4
330
1A5
330
1A6
330
1A7
330
1A8
330
1A9
330
1AA
330
1AB
330
1AC
330
1AD
330
1AE
330
1AF
330
1B0
330
1B1
330
1B2
330
1B3
330
1B4
330
1B5
330
1B6
330
1B7
330
1B8
330
1B9
330
1BA
330
1BB
330
1BC
330
1BD
330
1BE
330
1BF
330
1C0
330
1C1
330
1C2
330
1C3
330
1C4
330
1C5
330
1C6
330
1C7
330
1C8
330
1C9
330
1CA
330
1CB
330
1CC
330
1CD
330
1CE
330
1CF
330
1D0
330
1D1
330
1D2
330
1D3
330
1D4
330
1D5
330
1D6
330
1D7
330
1D8
330
1D9
330
1DA
330
1DB
330
1DC
330
1DD
330
1DE
330
1DF
330
1E0
330
1E1
330
1E2
330
1E3
330
1E4
330
1E5
330
1E6
330
1E7
330
1E8
330
1E9
330
1EA
330
1EB
330
1EC
330
1ED
330
1EE
330
1EF
330
1F0
330
1F1
330
1F2
330
1F3
330
1F4
330
1F5
330
1F6
330
1F7
330
1F8
330
1F9
330
1FA
330
1FB
330
1FC
330
1FD
330
1FE
330
1FF
330
200
330
205
330
206
330
207
330
208
330
209
330
20A
330
20B
330
20C
330
20D
330
20E
330
20F
330
210
330
211
330
212
330
213
330
214
330
215
330
216
330
217
330
218
330
219
330
21A
330
21B
330
21C
330
21D
330
21E
330
21F
330
220
330
221
330
222
330
223
330
224
330
225
330
226
  0
IDBUFFER
  5
53F
330
0
100
AcDbIdBuffer
  0
ENDSEC
  0
EOF
