  0
SECTION
  2
HEADER
  9
$ACADVER
  1
AC1015
  9
$ACADMAINTVER
 70
     6
  9
$DWGCODEPAGE
  3
DOS932
  9
$INSBASE
 10
0.0
 20
0.0
 30
0.0
  9
$EXTMIN
 10
0.0
 20
0.0
 30
0.0
  9
$EXTMAX
 10
420.0
 20
297.0
 30
0.0
  9
$LIMMIN
 10
0.0
 20
0.0
  9
$LIMMAX
 10
420.0
 20
297.0
  9
$ORTHOMODE
 70
     0
  9
$REGENMODE
 70
     1
  9
$FILLMODE
 70
     1
  9
$QTEXTMODE
 70
     0
  9
$MIRRTEXT
 70
     1
  9
$LTSCALE
 40
1.0
  9
$ATTMODE
 70
     1
  9
$TEXTSIZE
 40
4.2333333333
  9
$TRACEWID
 40
1.0
  9
$TEXTSTYLE
  7
Standard
  9
$CLAYER
  8
0
  9
$CELTYPE
  6
ByLayer
  9
$CECOLOR
 62
   256
  9
$CELTSCALE
 40
1.0
  9
$DISPSILH
 70
     0
  9
$DIMSCALE
 40
1.0
  9
$DIMASZ
 40
2.6975097656
  9
$DIMEXO
 40
1.0
  9
$DIMDLI
 40
3.75
  9
$DIMRND
 40
0.0
  9
$DIMDLE
 40
0.0
  9
$DIMEXE
 40
1.0
  9
$DIMTP
 40
0.0
  9
$DIMTM
 40
0.0
  9
$DIMTXT
 40
3.5277777778
  9
$DIMCEN
 40
2.5
  9
$DIMTSZ
 40
0.0
  9
$DIMTOL
 70
     0
  9
$DIMLIM
 70
     0
  9
$DIMTIH
 70
     1
  9
$DIMTOH
 70
     1
  9
$DIMSE1
 70
     0
  9
$DIMSE2
 70
     0
  9
$DIMTAD
 70
     1
  9
$DIMZIN
 70
     0
  9
$DIMBLK
  1

  9
$DIMASO
 70
     1
  9
$DIMSHO
 70
     1
  9
$DIMPOST
  1

  9
$DIMAPOST
  1

  9
$DIMALT
 70
     0
  9
$DIMALTD
 70
     3
  9
$DIMALTF
 40
0.0393700787
  9
$DIMLFAC
 40
1.0
  9
$DIMTOFL
 70
     1
  9
$DIMTVP
 40
0.0
  9
$DIMTIX
 70
     0
  9
$DIMSOXD
 70
     0
  9
$DIMSAH
 70
     0
  9
$DIMBLK1
  1

  9
$DIMBLK2
  1

  9
$DIMSTYLE
  2
ISO-25
  9
$DIMCLRD
 70
     0
  9
$DIMCLRE
 70
     0
  9
$DIMCLRT
 70
     0
  9
$DIMTFAC
 40
1.0
  9
$DIMGAP
 40
2.0
  9
$DIMJUST
 70
     0
  9
$DIMSD1
 70
     0
  9
$DIMSD2
 70
     0
  9
$DIMTOLJ
 70
     0
  9
$DIMTZIN
 70
     0
  9
$DIMALTZ
 70
     0
  9
$DIMALTTZ
 70
     0
  9
$DIMUPT
 70
     0
  9
$DIMDEC
 70
     3
  9
$DIMTDEC
 70
     3
  9
$DIMALTU
 70
     2
  9
$DIMALTTD
 70
     3
  9
$DIMTXSTY
  7
Standard
  9
$DIMAUNIT
 70
     0
  9
$DIMADEC
 70
     3
  9
$DIMALTRND
 40
0.0
  9
$DIMAZIN
 70
     0
  9
$DIMDSEP
 70
    44
  9
$DIMATFIT
 70
     3
  9
$DIMFRAC
 70
     0
  9
$DIMLDRBLK
  1

  9
$DIMLUNIT
 70
     2
  9
$DIMLWD
 70
    -2
  9
$DIMLWE
 70
    -2
  9
$DIMTMOVE
 70
     0
  9
$LUNITS
 70
     2
  9
$LUPREC
 70
     3
  9
$SKETCHINC
 40
1.0
  9
$FILLETRAD
 40
10.0
  9
$AUNITS
 70
     0
  9
$AUPREC
 70
     0
  9
$MENU
  1
.
  9
$ELEVATION
 40
0.0
  9
$PELEVATION
 40
0.0
  9
$THICKNESS
 40
0.0
  9
$LIMCHECK
 70
     0
  9
$CHAMFERA
 40
0.0
  9
$CHAMFERB
 40
0.0
  9
$CHAMFERC
 40
0.0
  9
$CHAMFERD
 40
0.0
  9
$SKPOLY
 70
     0
  9
$TDCREATE
 40
2458185.450906632
  9
$TDUCREATE
 40
2458185.075906632
  9
$TDUPDATE
 40
2458185.45090934
  9
$TDUUPDATE
 40
2458185.07590934
  9
$TDINDWG
 40
0.0000000116
  9
$TDUSRTIMER
 40
0.0000000116
  9
$USRTIMER
 70
     1
  9
$ANGBASE
 50
0.0
  9
$ANGDIR
 70
     0
  9
$PDMODE
 70
     0
  9
$PDSIZE
 40
-1.0
  9
$PLINEWID
 40
0.0
  9
$SPLFRAME
 70
     0
  9
$SPLINETYPE
 70
     6
  9
$SPLINESEGS
 70
     8
  9
$HANDSEED
  5
3C0
  9
$SURFTAB1
 70
     6
  9
$SURFTAB2
 70
     6
  9
$SURFTYPE
 70
     6
  9
$SURFU
 70
     6
  9
$SURFV
 70
     6
  9
$UCSBASE
  2

  9
$UCSNAME
  2

  9
$UCSORG
 10
0.0
 20
0.0
 30
0.0
  9
$UCSXDIR
 10
1.0
 20
0.0
 30
0.0
  9
$UCSYDIR
 10
0.0
 20
1.0
 30
0.0
  9
$UCSORTHOREF
  2

  9
$UCSORTHOVIEW
 70
     0
  9
$UCSORGTOP
 10
0.0
 20
0.0
 30
0.0
  9
$UCSORGBOTTOM
 10
0.0
 20
0.0
 30
0.0
  9
$UCSORGLEFT
 10
0.0
 20
0.0
 30
0.0
  9
$UCSORGRIGHT
 10
0.0
 20
0.0
 30
0.0
  9
$UCSORGFRONT
 10
0.0
 20
0.0
 30
0.0
  9
$UCSORGBACK
 10
0.0
 20
0.0
 30
0.0
  9
$PUCSBASE
  2

  9
$PUCSNAME
  2

  9
$PUCSORG
 10
0.0
 20
0.0
 30
0.0
  9
$PUCSXDIR
 10
1.0
 20
0.0
 30
0.0
  9
$PUCSYDIR
 10
0.0
 20
1.0
 30
0.0
  9
$PUCSORTHOREF
  2

  9
$PUCSORTHOVIEW
 70
     0
  9
$PUCSORGTOP
 10
0.0
 20
0.0
 30
0.0
  9
$PUCSORGBOTTOM
 10
0.0
 20
0.0
 30
0.0
  9
$PUCSORGLEFT
 10
0.0
 20
0.0
 30
0.0
  9
$PUCSORGRIGHT
 10
0.0
 20
0.0
 30
0.0
  9
$PUCSORGFRONT
 10
0.0
 20
0.0
 30
0.0
  9
$PUCSORGBACK
 10
0.0
 20
0.0
 30
0.0
  9
$USERI1
 70
     0
  9
$USERI2
 70
     0
  9
$USERI3
 70
     0
  9
$USERI4
 70
     0
  9
$USERI5
 70
     0
  9
$USERR1
 40
0.0
  9
$USERR2
 40
0.0
  9
$USERR3
 40
0.0
  9
$USERR4
 40
0.0
  9
$USERR5
 40
0.0
  9
$WORLDVIEW
 70
     1
  9
$SHADEDGE
 70
     3
  9
$SHADEDIF
 70
    70
  9
$TILEMODE
 70
     1
  9
$MAXACTVP
 70
    64
  9
$PINSBASE
 10
0.0
 20
0.0
 30
0.0
  9
$PLIMCHECK
 70
     0
  9
$PEXTMIN
 10
1.0000000000E+20
 20
1.0000000000E+20
 30
1.0000000000E+20
  9
$PEXTMAX
 10
-1.0000000000E+20
 20
-1.0000000000E+20
 30
-1.0000000000E+20
  9
$PLIMMIN
 10
0.0
 20
0.0
  9
$PLIMMAX
 10
420.0
 20
297.0
  9
$UNITMODE
 70
     0
  9
$VISRETAIN
 70
     1
  9
$PLINEGEN
 70
     0
  9
$PSLTSCALE
 70
     1
  9
$TREEDEPTH
 70
  3020
  9
$CMLSTYLE
  2
Standard
  9
$CMLJUST
 70
     0
  9
$CMLSCALE
 40
20.0
  9
$PROXYGRAPHICS
 70
     1
  9
$MEASUREMENT
 70
     1
  9
$CELWEIGHT
370
    -1
  9
$ENDCAPS
280
     0
  9
$JOINSTYLE
280
     0
  9
$LWDISPLAY
290
     1
  9
$INSUNITS
 70
     4
  9
$HYPERLINKBASE
  1

  9
$STYLESHEET
  1

  9
$XEDIT
290
     1
  9
$CEPSNTYPE
380
     0
  9
$PSTYLEMODE
290
     1
  9
$FINGERPRINTGUID
  2
{DFC209C1-C3F7-4DB1-8B3C-A5006EA0D1AA}
  9
$VERSIONGUID
  2
{FAEB1C32-E019-11D5-929B-00C0DF256EC4}
  9
$EXTNAMES
290
     1
  9
$PSVPSCALE
 40
0.0
  9
$OLESTARTUP
290
     0
  0
ENDSEC
  0
SECTION
  2
CLASSES
  0
CLASS
  1
ACDBDICTIONARYWDFLT
  2
AcDbDictionaryWithDefault
  3
ObjectDBX Classes
 90
        0
280
     0
281
     0
  0
CLASS
  1
VISUALSTYLE
  2
AcDbVisualStyle
  3
ObjectDBX Classes
 90
     4095
280
     0
281
     0
  0
CLASS
  1
MATERIAL
  2
AcDbMaterial
  3
ObjectDBX Classes
 90
     1153
280
     0
281
     0
  0
CLASS
  1
SCALE
  2
AcDbScale
  3
ObjectDBX Classes
 90
     1153
280
     0
281
     0
  0
CLASS
  1
TABLESTYLE
  2
AcDbTableStyle
  3
ObjectDBX Classes
 90
     4095
280
     0
281
     0
  0
CLASS
  1
MLEADERSTYLE
  2
AcDbMLeaderStyle
  3
ACDB_MLEADERSTYLE_CLASS
 90
     4095
280
     0
281
     0
  0
CLASS
  1
SUN
  2
AcDbSun
  3
SCENEOE
 90
     1153
280
     0
281
     0
  0
CLASS
  1
ACDBPLACEHOLDER
  2
AcDbPlaceHolder
  3
ObjectDBX Classes
 90
        0
280
     0
281
     0
  0
CLASS
  1
LAYOUT
  2
AcDbLayout
  3
ObjectDBX Classes
 90
        0
280
     0
281
     0
  0
ENDSEC
  0
SECTION
  2
TABLES
  0
TABLE
  2
VPORT
  5
8
330
0
100
AcDbSymbolTable
 70
     1
  0
VPORT
  5
29
330
8
100
AcDbSymbolTableRecord
100
AcDbViewportTableRecord
  2
*Active
 70
     0
 10
0.0
 20
0.0
 11
1.0
 21
1.0
 12
210.0
 22
148.5
 13
0.0
 23
0.0
 14
10.0
 24
10.0
 15
10.0
 25
10.0
 16
0.0
 26
0.0
 36
1.0
 17
0.0
 27
0.0
 37
0.0
 40
297.0
 41
1.4141414141
 42
50.0
 43
0.0
 44
0.0
 50
0.0
 51
0.0
 71
     0
 72
  2000
 73
     1
 74
     3
 75
     0
 76
     0
 77
     0
 78
     0
281
     0
 65
     1
110
0.0
120
0.0
130
0.0
111
1.0
121
0.0
131
0.0
112
0.0
122
1.0
132
0.0
 79
     0
146
0.0
  0
ENDTAB
  0
TABLE
  2
LTYPE
  5
5
330
0
100
AcDbSymbolTable
 70
     6
  0
LTYPE
  5
14
330
5
100
AcDbSymbolTableRecord
100
AcDbLinetypeTableRecord
  2
ByBlock
 70
     0
  3

 72
    65
 73
     0
 40
0.0
  0
LTYPE
  5
15
330
5
100
AcDbSymbolTableRecord
100
AcDbLinetypeTableRecord
  2
ByLayer
 70
     0
  3

 72
    65
 73
     0
 40
0.0
  0
LTYPE
  5
16
330
5
100
AcDbSymbolTableRecord
100
AcDbLinetypeTableRecord
  2
Continuous
 70
     0
  3
Solid line
 72
    65
 73
     0
 40
0.0
  0
LTYPE
  5
6E
330
5
100
AcDbSymbolTableRecord
100
AcDbLinetypeTableRecord
  2
HIDDEN
 70
     0
  3
Hidden __ __ __ __ __ __ __ __ __ __ __ __ __ __
 72
    65
 73
     2
 40
1.905
 49
1.27
 74
     0
 49
-0.635
 74
     0
  0
LTYPE
  5
6F
330
5
100
AcDbSymbolTableRecord
100
AcDbLinetypeTableRecord
  2
PHANTOM
 70
     0
  3
Phantom ______  __  __  ______  __  __  ______
 72
    65
 73
     6
 40
12.7
 49
6.35
 74
     0
 49
-1.27
 74
     0
 49
1.27
 74
     0
 49
-1.27
 74
     0
 49
1.27
 74
     0
 49
-1.27
 74
     0
  0
LTYPE
  5
70
330
5
100
AcDbSymbolTableRecord
100
AcDbLinetypeTableRecord
  2
CENTER
 70
     0
  3
Center ____ _ ____ _ ____ _ ____ _ ____ _ ____
 72
    65
 73
     4
 40
10.16
 49
6.35
 74
     0
 49
-1.27
 74
     0
 49
1.27
 74
     0
 49
-1.27
 74
     0
  0
LTYPE
  5
71
330
5
100
AcDbSymbolTableRecord
100
AcDbLinetypeTableRecord
  2
CENTERX2
 70
     0
  3
Center (2x) ________  __  ________  __  _____
 72
    65
 73
     4
 40
20.32
 49
12.7
 74
     0
 49
-2.54
 74
     0
 49
2.54
 74
     0
 49
-2.54
 74
     0
  0
LTYPE
  5
72
330
5
100
AcDbSymbolTableRecord
100
AcDbLinetypeTableRecord
  2
DOT2
 70
     0
  3
Dot (.5x) ........................................
 72
    65
 73
     2
 40
0.635
 49
0.0
 74
     0
 49
-0.635
 74
     0
  0
ENDTAB
  0
TABLE
  2
LAYER
  5
2
330
0
100
AcDbSymbolTable
 70
     6
  0
LAYER
  5
10
330
2
100
AcDbSymbolTableRecord
100
AcDbLayerTableRecord
  2
0
 70
     0
 62
     7
  6
Continuous
370
    -3
390
F
  0
LAYER
  5
73
330
2
100
AcDbSymbolTableRecord
100
AcDbLayerTableRecord
  2
SLD-0
 70
     0
 62
   179
  6
Continuous
370
    -3
390
F
  0
LAYER
  5
74
330
2
100
AcDbSymbolTableRecord
100
AcDbLayerTableRecord
  2
1
 70
     0
 62
   179
  6
Continuous
370
    -3
390
F
  0
LAYER
  5
75
330
2
100
AcDbSymbolTableRecord
100
AcDbLayerTableRecord
  2
FORMAT
 70
     0
 62
     7
  6
Continuous
370
    -3
390
F
  0
LAYER
  5
76
330
2
100
AcDbSymbolTableRecord
100
AcDbLayerTableRecord
  2
注記
 70
     0
 62
   190
  6
Continuous
370
    -3
390
F
  0
LAYER
  5
77
330
2
100
AcDbSymbolTableRecord
100
AcDbLayerTableRecord
  2
寸法
 70
     0
 62
    96
  6
Continuous
370
    -3
390
F
  0
ENDTAB
  0
TABLE
  2
STYLE
  5
3
330
0
100
AcDbSymbolTable
 70
     2
  0
STYLE
  5
11
330
3
100
AcDbSymbolTableRecord
100
AcDbTextStyleTableRecord
  2
Standard
 70
     0
 40
0.0
 41
1.0
 50
0.0
 71
     0
 42
4.2333333333
  3
txt
  4
bigfont
  0
STYLE
  5
78
330
3
100
AcDbSymbolTableRecord
100
AcDbTextStyleTableRecord
  2
SLDTEXTSTYLE0
 70
     0
 40
0.0
 41
0.7
 50
0.0
 71
     0
 42
4.2333333333
  3
TXT
  4
bigfont
  0
ENDTAB
  0
TABLE
  2
VIEW
  5
6
330
0
100
AcDbSymbolTable
 70
     0
  0
ENDTAB
  0
TABLE
  2
UCS
  5
7
330
0
100
AcDbSymbolTable
 70
     0
  0
ENDTAB
  0
TABLE
  2
APPID
  5
9
330
0
100
AcDbSymbolTable
 70
     1
  0
APPID
  5
12
330
9
100
AcDbSymbolTableRecord
100
AcDbRegAppTableRecord
  2
ACAD
 70
     0
  0
ENDTAB
  0
TABLE
  2
DIMSTYLE
  5
A
330
0
100
AcDbSymbolTable
 70
     1
100
AcDbDimStyleTable
  0
DIMSTYLE
105
27
330
A
100
AcDbSymbolTableRecord
100
AcDbDimStyleTableRecord
  2
ISO-25
 70
     0
 41
2.5
 42
0.625
 43
3.75
 44
1.25
 73
     0
 74
     0
 77
     1
 78
     8
140
2.5
141
2.5
143
0.0393700787
147
0.625
171
     3
172
     1
178
     0
271
     2
272
     2
274
     3
278
    44
283
     0
284
     8
340
11
  0
ENDTAB
  0
TABLE
  2
BLOCK_RECORD
  5
1
330
0
100
AcDbSymbolTable
 70
    12
  0
BLOCK_RECORD
  5
1F
330
1
100
AcDbSymbolTableRecord
100
AcDbBlockTableRecord
  2
*Model_Space
340
22
  0
BLOCK_RECORD
  5
1B
330
1
100
AcDbSymbolTableRecord
100
AcDbBlockTableRecord
  2
*Paper_Space
340
1E
  0
BLOCK_RECORD
  5
23
330
1
100
AcDbSymbolTableRecord
100
AcDbBlockTableRecord
  2
*Paper_Space0
340
26
  0
BLOCK_RECORD
  5
EA
330
1
100
AcDbSymbolTableRecord
100
AcDbBlockTableRecord
  2
SW_CENTERMARKSYMBOL_0
340
0
102
{BLKREFS
331
109
102
}
  0
BLOCK_RECORD
  5
10A
330
1
100
AcDbSymbolTableRecord
100
AcDbBlockTableRecord
  2
SW_CENTERMARKSYMBOL_1
340
0
102
{BLKREFS
331
12D
102
}
  0
BLOCK_RECORD
  5
12E
330
1
100
AcDbSymbolTableRecord
100
AcDbBlockTableRecord
  2
SW_CENTERMARKSYMBOL_2
340
0
102
{BLKREFS
331
14D
102
}
  0
BLOCK_RECORD
  5
14E
330
1
100
AcDbSymbolTableRecord
100
AcDbBlockTableRecord
  2
SW_CENTERMARKSYMBOL_3
340
0
102
{BLKREFS
331
159
102
}
  0
BLOCK_RECORD
  5
15A
330
1
100
AcDbSymbolTableRecord
100
AcDbBlockTableRecord
  2
SW_CENTERMARKSYMBOL_4
340
0
102
{BLKREFS
331
165
102
}
  0
BLOCK_RECORD
  5
172
330
1
100
AcDbSymbolTableRecord
100
AcDbBlockTableRecord
  2
SW_DOWELSYMBOL_0
340
0
102
{BLKREFS
331
178
102
}
  0
BLOCK_RECORD
  5
24A
330
1
100
AcDbSymbolTableRecord
100
AcDbBlockTableRecord
  2
SW_CENTERMARKSYMBOL_5
340
0
102
{BLKREFS
331
26D
102
}
  0
BLOCK_RECORD
  5
26E
330
1
100
AcDbSymbolTableRecord
100
AcDbBlockTableRecord
  2
SW_CENTERMARKSYMBOL_6
340
0
102
{BLKREFS
331
291
102
}
  0
BLOCK_RECORD
  5
292
330
1
100
AcDbSymbolTableRecord
100
AcDbBlockTableRecord
  2
SW_CENTERMARKSYMBOL_7
340
0
102
{BLKREFS
331
29D
102
}
  0
BLOCK_RECORD
  5
29E
330
1
100
AcDbSymbolTableRecord
100
AcDbBlockTableRecord
  2
SW_CENTERMARKSYMBOL_8
340
0
102
{BLKREFS
331
2A5
102
}
  0
BLOCK_RECORD
  5
2A6
330
1
100
AcDbSymbolTableRecord
100
AcDbBlockTableRecord
  2
SW_CENTERMARKSYMBOL_9
340
0
102
{BLKREFS
331
2C5
102
}
  0
ENDTAB
  0
ENDSEC
  0
SECTION
  2
BLOCKS
  0
BLOCK
  5
20
330
1F
100
AcDbEntity
  8
0
100
AcDbBlockBegin
  2
*Model_Space
 70
     0
 10
0.0
 20
0.0
 30
0.0
  3
*Model_Space
  1

  0
ENDBLK
  5
21
330
1F
100
AcDbEntity
  8
0
100
AcDbBlockEnd
  0
BLOCK
  5
1C
330
1B
100
AcDbEntity
 67
     1
  8
0
100
AcDbBlockBegin
  2
*Paper_Space
 70
     0
 10
0.0
 20
0.0
 30
0.0
  3
*Paper_Space
  1

  0
ENDBLK
  5
1D
330
1B
100
AcDbEntity
 67
     1
  8
0
100
AcDbBlockEnd
  0
BLOCK
  5
24
330
23
100
AcDbEntity
  8
0
100
AcDbBlockBegin
  2
*Paper_Space0
 70
     0
 10
0.0
 20
0.0
 30
0.0
  3
*Paper_Space0
  1

  0
ENDBLK
  5
25
330
23
100
AcDbEntity
  8
0
100
AcDbBlockEnd
  0
BLOCK
  5
EB
330
EA
100
AcDbEntity
  8
0
100
AcDbBlockBegin
  2
SW_CENTERMARKSYMBOL_0
 70
     0
 10
0.0
 20
0.0
 30
0.0
  3
SW_CENTERMARKSYMBOL_0
  1

  0
ARC
  5
ED
330
EA
100
AcDbEntity
  8
0
  6
Continuous
 62
     0
370
     0
100
AcDbCircle
 10
-22.627416998
 20
-22.627416998
 30
0.0
 40
32.00000000000006
100
AcDbArc
 50
45.0
 51
46.7904931098
  0
ARC
  5
EE
330
EA
100
AcDbEntity
  8
0
  6
Continuous
 62
     0
370
     0
100
AcDbCircle
 10
-22.627416998
 20
-22.627416998
 30
0.0
 40
32.00000000000006
100
AcDbArc
 50
43.2095068902
 51
45.0
  0
ARC
  5
EF
330
EA
100
AcDbEntity
  8
0
  6
Continuous
 62
     0
370
     0
100
AcDbCircle
 10
-22.627416998
 20
-22.627416998
 30
0.0
 40
32.00000000000006
100
AcDbArc
 50
315.0
 51
316.7904931098
  0
ARC
  5
F0
330
EA
100
AcDbEntity
  8
0
  6
Continuous
 62
     0
370
     0
100
AcDbCircle
 10
-22.627416998
 20
-22.627416998
 30
0.0
 40
32.00000000000006
100
AcDbArc
 50
313.2095068902
 51
315.0
  0
ARC
  5
F1
330
EA
100
AcDbEntity
  8
0
  6
Continuous
 62
     0
370
     0
100
AcDbCircle
 10
-22.627416998
 20
-22.627416998
 30
0.0
 40
32.00000000000006
100
AcDbArc
 50
225.0
 51
226.7904931098
  0
ARC
  5
F2
330
EA
100
AcDbEntity
  8
0
  6
Continuous
 62
     0
370
     0
100
AcDbCircle
 10
-22.627416998
 20
-22.627416998
 30
0.0
 40
32.00000000000006
100
AcDbArc
 50
223.2095068902
 51
225.0
  0
ARC
  5
F3
330
EA
100
AcDbEntity
  8
0
  6
Continuous
 62
     0
370
     0
100
AcDbCircle
 10
-22.627416998
 20
-22.627416998
 30
0.0
 40
32.00000000000005
100
AcDbArc
 50
135.0
 51
136.7904931098
  0
ARC
  5
F4
330
EA
100
AcDbEntity
  8
0
  6
Continuous
 62
     0
370
     0
100
AcDbCircle
 10
-22.627416998
 20
-22.627416998
 30
0.0
 40
32.00000000000006
100
AcDbArc
 50
133.2095068902
 51
135.0
  0
ARC
  5
F5
330
EA
100
AcDbEntity
  8
0
  6
CENTERX2
 62
     0
370
     0
100
AcDbCircle
 10
-22.627416998
 20
-22.627416998
 30
0.0
 40
32.00000000000006
100
AcDbArc
 50
228.5809862196
 51
311.4190137804
  0
ARC
  5
F6
330
EA
100
AcDbEntity
  8
0
  6
CENTERX2
 62
     0
370
     0
100
AcDbCircle
 10
-22.627416998
 20
-22.627416998
 30
0.0
 40
32.00000000000006
100
AcDbArc
 50
318.5809862196
 51
41.4190137804
  0
ARC
  5
F7
330
EA
100
AcDbEntity
  8
0
  6
CENTERX2
 62
     0
370
     0
100
AcDbCircle
 10
-22.627416998
 20
-22.627416998
 30
0.0
 40
32.00000000000006
100
AcDbArc
 50
138.5809862196
 51
221.4190137804
  0
ARC
  5
F8
330
EA
100
AcDbEntity
  8
0
  6
CENTERX2
 62
     0
370
     0
100
AcDbCircle
 10
-22.627416998
 20
-22.627416998
 30
0.0
 40
32.00000000000006
100
AcDbArc
 50
48.5809862196
 51
131.4190137804
  0
LINE
  5
F9
330
EA
100
AcDbEntity
  8
0
  6
Continuous
 62
     0
370
     0
100
AcDbLine
 10
0.0
 20
0.0
 30
0.0
 11
0.7071067812
 21
0.7071067812
 31
0.0
  0
LINE
  5
FA
330
EA
100
AcDbEntity
  8
0
  6
Continuous
 62
     0
370
     0
100
AcDbLine
 10
0.0
 20
0.0
 30
0.0
 11
-0.7071067812
 21
-0.7071067812
 31
0.0
  0
LINE
  5
FB
330
EA
100
AcDbEntity
  8
0
  6
Continuous
 62
     0
370
     0
100
AcDbLine
 10
1.4142135624
 20
1.4142135624
 30
0.0
 11
2.1566756826
 21
2.1566756826
 31
0.0
  0
LINE
  5
FC
330
EA
100
AcDbEntity
  8
0
  6
Continuous
 62
     0
370
     0
100
AcDbLine
 10
-1.4142135624
 20
-1.4142135624
 30
0.0
 11
-2.1566756826
 21
-2.1566756826
 31
0.0
  0
LINE
  5
FD
330
EA
100
AcDbEntity
  8
0
  6
Continuous
 62
     0
370
     0
100
AcDbLine
 10
0.0
 20
-45.2548339959
 30
0.0
 11
0.7071067812
 21
-45.9619407771
 31
0.0
  0
LINE
  5
FE
330
EA
100
AcDbEntity
  8
0
  6
Continuous
 62
     0
370
     0
100
AcDbLine
 10
0.0
 20
-45.2548339959
 30
0.0
 11
-0.7071067812
 21
-44.5477272148
 31
0.0
  0
LINE
  5
FF
330
EA
100
AcDbEntity
  8
0
  6
Continuous
 62
     0
370
     0
100
AcDbLine
 10
1.4142135624
 20
-46.6690475583
 30
0.0
 11
2.1566756826
 21
-47.4115096786
 31
0.0
  0
LINE
  5
100
330
EA
100
AcDbEntity
  8
0
  6
Continuous
 62
     0
370
     0
100
AcDbLine
 10
-1.4142135624
 20
-43.8406204336
 30
0.0
 11
-2.1566756826
 21
-43.0981583133
 31
0.0
  0
LINE
  5
101
330
EA
100
AcDbEntity
  8
0
  6
Continuous
 62
     0
370
     0
100
AcDbLine
 10
-45.2548339959
 20
-45.2548339959
 30
0.0
 11
-45.9619407771
 21
-45.9619407771
 31
0.0
  0
LINE
  5
102
330
EA
100
AcDbEntity
  8
0
  6
Continuous
 62
     0
370
     0
100
AcDbLine
 10
-45.2548339959
 20
-45.2548339959
 30
0.0
 11
-44.5477272148
 21
-44.5477272148
 31
0.0
  0
LINE
  5
103
330
EA
100
AcDbEntity
  8
0
  6
Continuous
 62
     0
370
     0
100
AcDbLine
 10
-46.6690475583
 20
-46.6690475583
 30
0.0
 11
-47.4115096786
 21
-47.4115096786
 31
0.0
  0
LINE
  5
104
330
EA
100
AcDbEntity
  8
0
  6
Continuous
 62
     0
370
     0
100
AcDbLine
 10
-43.8406204336
 20
-43.8406204336
 30
0.0
 11
-43.0981583133
 21
-43.0981583133
 31
0.0
  0
LINE
  5
105
330
EA
100
AcDbEntity
  8
0
  6
Continuous
 62
     0
370
     0
100
AcDbLine
 10
-45.2548339959
 20
0.0
 30
0.0
 11
-45.9619407771
 21
0.7071067812
 31
0.0
  0
LINE
  5
106
330
EA
100
AcDbEntity
  8
0
  6
Continuous
 62
     0
370
     0
100
AcDbLine
 10
-45.2548339959
 20
0.0
 30
0.0
 11
-44.5477272148
 21
-0.7071067812
 31
0.0
  0
LINE
  5
107
330
EA
100
AcDbEntity
  8
0
  6
Continuous
 62
     0
370
     0
100
AcDbLine
 10
-46.6690475583
 20
1.4142135624
 30
0.0
 11
-47.4115096786
 21
2.1566756826
 31
0.0
  0
LINE
  5
108
330
EA
100
AcDbEntity
  8
0
  6
Continuous
 62
     0
370
     0
100
AcDbLine
 10
-43.8406204336
 20
-1.4142135624
 30
0.0
 11
-43.0981583133
 21
-2.1566756826
 31
0.0
  0
ENDBLK
  5
EC
330
EA
100
AcDbEntity
  8
0
100
AcDbBlockEnd
  0
BLOCK
  5
10B
330
10A
100
AcDbEntity
  8
0
100
AcDbBlockBegin
  2
SW_CENTERMARKSYMBOL_1
 70
     0
 10
0.0
 20
0.0
 30
0.0
  3
SW_CENTERMARKSYMBOL_1
  1

  0
ARC
  5
10D
330
10A
100
AcDbEntity
  8
0
  6
Continuous
 62
     0
370
     0
100
AcDbCircle
 10
-8.2822094433
 20
-30.9096264413
 30
0.0
 40
32.00000000000006
100
AcDbArc
 50
75.0
 51
76.7904931098
  0
ARC
  5
10E
330
10A
100
AcDbEntity
  8
0
  6
Continuous
 62
     0
370
     0
100
AcDbCircle
 10
-8.2822094433
 20
-30.9096264413
 30
0.0
 40
32.00000000000007
100
AcDbArc
 50
73.2095068902
 51
75.0
  0
ARC
  5
10F
330
10A
100
AcDbEntity
  8
0
  6
Continuous
 62
     0
370
     0
100
AcDbCircle
 10
-8.2822094433
 20
-30.9096264413
 30
0.0
 40
32.00000000000007
100
AcDbArc
 50
78.5809862196
 51
80.0133807074
  0
ARC
  5
110
330
10A
100
AcDbEntity
  8
0
  6
Continuous
 62
     0
370
     0
100
AcDbCircle
 10
-8.2822094433
 20
-30.9096264413
 30
0.0
 40
32.00000000000007
100
AcDbArc
 50
69.9866192926
 51
71.4190137804
  0
ARC
  5
111
330
10A
100
AcDbEntity
  8
0
  6
Continuous
 62
     0
370
     0
100
AcDbCircle
 10
-8.2822094433
 20
-30.9096264413
 30
0.0
 40
32.00000000000007
100
AcDbArc
 50
345.0
 51
346.7904931098
  0
ARC
  5
112
330
10A
100
AcDbEntity
  8
0
  6
Continuous
 62
     0
370
     0
100
AcDbCircle
 10
-8.2822094433
 20
-30.9096264413
 30
0.0
 40
32.00000000000008
100
AcDbArc
 50
343.2095068902
 51
345.0
  0
ARC
  5
113
330
10A
100
AcDbEntity
  8
0
  6
Continuous
 62
     0
370
     0
100
AcDbCircle
 10
-8.2822094433
 20
-30.9096264413
 30
0.0
 40
32.00000000000007
100
AcDbArc
 50
348.5809862196
 51
350.0133807074
  0
ARC
  5
114
330
10A
100
AcDbEntity
  8
0
  6
Continuous
 62
     0
370
     0
100
AcDbCircle
 10
-8.2822094433
 20
-30.9096264413
 30
0.0
 40
32.00000000000007
100
AcDbArc
 50
339.9866192926
 51
341.4190137804
  0
ARC
  5
115
330
10A
100
AcDbEntity
  8
0
  6
Continuous
 62
     0
370
     0
100
AcDbCircle
 10
-8.2822094433
 20
-30.9096264413
 30
0.0
 40
32.00000000000008
100
AcDbArc
 50
255.0
 51
256.7904931098
  0
ARC
  5
116
330
10A
100
AcDbEntity
  8
0
  6
Continuous
 62
     0
370
     0
100
AcDbCircle
 10
-8.2822094433
 20
-30.9096264413
 30
0.0
 40
32.00000000000005
100
AcDbArc
 50
253.2095068902
 51
255.0
  0
ARC
  5
117
330
10A
100
AcDbEntity
  8
0
  6
Continuous
 62
     0
370
     0
100
AcDbCircle
 10
-8.2822094433
 20
-30.9096264413
 30
0.0
 40
32.00000000000008
100
AcDbArc
 50
258.5809862196
 51
260.0133807074
  0
ARC
  5
118
330
10A
100
AcDbEntity
  8
0
  6
Continuous
 62
     0
370
     0
100
AcDbCircle
 10
-8.2822094433
 20
-30.9096264413
 30
0.0
 40
32.00000000000006
100
AcDbArc
 50
249.9866192926
 51
251.4190137804
  0
ARC
  5
119
330
10A
100
AcDbEntity
  8
0
  6
Continuous
 62
     0
370
     0
100
AcDbCircle
 10
-8.2822094433
 20
-30.9096264413
 30
0.0
 40
32.00000000000006
100
AcDbArc
 50
165.0
 51
166.7904931098
  0
ARC
  5
11A
330
10A
100
AcDbEntity
  8
0
  6
Continuous
 62
     0
370
     0
100
AcDbCircle
 10
-8.2822094433
 20
-30.9096264413
 30
0.0
 40
32.00000000000006
100
AcDbArc
 50
163.2095068902
 51
165.0
  0
ARC
  5
11B
330
10A
100
AcDbEntity
  8
0
  6
Continuous
 62
     0
370
     0
100
AcDbCircle
 10
-8.2822094433
 20
-30.9096264413
 30
0.0
 40
32.00000000000006
100
AcDbArc
 50
168.5809862196
 51
170.0133807074
  0
ARC
  5
11C
330
10A
100
AcDbEntity
  8
0
  6
Continuous
 62
     0
370
     0
100
AcDbCircle
 10
-8.2822094433
 20
-30.9096264413
 30
0.0
 40
32.00000000000007
100
AcDbArc
 50
159.9866192926
 51
161.4190137804
  0
LINE
  5
11D
330
10A
100
AcDbEntity
  8
0
  6
Continuous
 62
     0
370
     0
100
AcDbLine
 10
0.0
 20
0.0
 30
0.0
 11
0.2588190451
 21
0.9659258263
 31
0.0
  0
LINE
  5
11E
330
10A
100
AcDbEntity
  8
0
  6
Continuous
 62
     0
370
     0
100
AcDbLine
 10
0.0
 20
0.0
 30
0.0
 11
-0.2588190451
 21
-0.9659258263
 31
0.0
  0
LINE
  5
11F
330
10A
100
AcDbEntity
  8
0
  6
Continuous
 62
     0
370
     0
100
AcDbLine
 10
0.5176380902
 20
1.9318516526
 30
0.0
 11
0.7246933263
 21
2.7045923136
 31
0.0
  0
LINE
  5
120
330
10A
100
AcDbEntity
  8
0
  6
Continuous
 62
     0
370
     0
100
AcDbLine
 10
-0.5176380902
 20
-1.9318516526
 30
0.0
 11
-0.7246933263
 21
-2.7045923136
 31
0.0
  0
LINE
  5
121
330
10A
100
AcDbEntity
  8
0
  6
Continuous
 62
     0
370
     0
100
AcDbLine
 10
22.627416998
 20
-39.1918358845
 30
0.0
 11
23.5933428243
 21
-39.4506549296
 31
0.0
  0
LINE
  5
122
330
10A
100
AcDbEntity
  8
0
  6
Continuous
 62
     0
370
     0
100
AcDbLine
 10
22.627416998
 20
-39.1918358845
 30
0.0
 11
21.6614911717
 21
-38.9330168394
 31
0.0
  0
LINE
  5
123
330
10A
100
AcDbEntity
  8
0
  6
Continuous
 62
     0
370
     0
100
AcDbLine
 10
24.5592686505
 20
-39.7094739747
 30
0.0
 11
26.0923614797
 21
-40.1202649602
 31
0.0
  0
LINE
  5
124
330
10A
100
AcDbEntity
  8
0
  6
Continuous
 62
     0
370
     0
100
AcDbLine
 10
20.6955653454
 20
-38.6741977943
 30
0.0
 11
19.9228246844
 21
-38.4671425582
 31
0.0
  0
LINE
  5
125
330
10A
100
AcDbEntity
  8
0
  6
Continuous
 62
     0
370
     0
100
AcDbLine
 10
-16.5644188866
 20
-61.8192528825
 30
0.0
 11
-16.8232379317
 21
-62.7851787088
 31
0.0
  0
LINE
  5
126
330
10A
100
AcDbEntity
  8
0
  6
Continuous
 62
     0
370
     0
100
AcDbLine
 10
-16.5644188866
 20
-61.8192528825
 30
0.0
 11
-16.3055998415
 21
-60.8533270562
 31
0.0
  0
LINE
  5
127
330
10A
100
AcDbEntity
  8
0
  6
Continuous
 62
     0
370
     0
100
AcDbLine
 10
-17.0820569768
 20
-63.7511045351
 30
0.0
 11
-17.2891122128
 21
-64.5238451961
 31
0.0
  0
LINE
  5
128
330
10A
100
AcDbEntity
  8
0
  6
Continuous
 62
     0
370
     0
100
AcDbLine
 10
-16.0467807964
 20
-59.8874012299
 30
0.0
 11
-15.8397255603
 21
-59.1146605689
 31
0.0
  0
LINE
  5
129
330
10A
100
AcDbEntity
  8
0
  6
Continuous
 62
     0
370
     0
100
AcDbLine
 10
-39.1918358845
 20
-22.627416998
 30
0.0
 11
-40.1577617108
 21
-22.3685979529
 31
0.0
  0
LINE
  5
12A
330
10A
100
AcDbEntity
  8
0
  6
Continuous
 62
     0
370
     0
100
AcDbLine
 10
-39.1918358845
 20
-22.627416998
 30
0.0
 11
-38.2259100582
 21
-22.8862360431
 31
0.0
  0
LINE
  5
12B
330
10A
100
AcDbEntity
  8
0
  6
Continuous
 62
     0
370
     0
100
AcDbLine
 10
-41.1236875371
 20
-22.1097789078
 30
0.0
 11
-41.8964281981
 21
-21.9027236717
 31
0.0
  0
LINE
  5
12C
330
10A
100
AcDbEntity
  8
0
  6
Continuous
 62
     0
370
     0
100
AcDbLine
 10
-37.259984232
 20
-23.1450550882
 30
0.0
 11
-36.4872435709
 21
-23.3521103243
 31
0.0
  0
ENDBLK
  5
10C
330
10A
100
AcDbEntity
  8
0
100
AcDbBlockEnd
  0
BLOCK
  5
12F
330
12E
100
AcDbEntity
  8
0
100
AcDbBlockBegin
  2
SW_CENTERMARKSYMBOL_2
 70
     0
 10
0.0
 20
0.0
 30
0.0
  3
SW_CENTERMARKSYMBOL_2
  1

  0
ARC
  5
131
330
12E
100
AcDbEntity
  8
0
  6
Continuous
 62
     0
370
     0
100
AcDbCircle
 10
0.0
 20
-17.5
 30
0.0
 40
17.50000000000001
100
AcDbArc
 50
90.0
 51
93.2740445436
  0
ARC
  5
132
330
12E
100
AcDbEntity
  8
0
  6
Continuous
 62
     0
370
     0
100
AcDbCircle
 10
0.0
 20
-17.5
 30
0.0
 40
17.50000000000001
100
AcDbArc
 50
86.7259554564
 51
90.0
  0
ARC
  5
133
330
12E
100
AcDbEntity
  8
0
  6
Continuous
 62
     0
370
     0
100
AcDbCircle
 10
0.0
 20
-17.5
 30
0.0
 40
17.5
100
AcDbArc
 50
180.0
 51
183.2740445436
  0
ARC
  5
134
330
12E
100
AcDbEntity
  8
0
  6
Continuous
 62
     0
370
     0
100
AcDbCircle
 10
0.0
 20
-17.5
 30
0.0
 40
17.5
100
AcDbArc
 50
176.7259554564
 51
180.0
  0
ARC
  5
135
330
12E
100
AcDbEntity
  8
0
  6
Continuous
 62
     0
370
     0
100
AcDbCircle
 10
0.0
 20
-17.5
 30
0.0
 40
17.50000000000001
100
AcDbArc
 50
270.0
 51
273.2740445436
  0
ARC
  5
136
330
12E
100
AcDbEntity
  8
0
  6
Continuous
 62
     0
370
     0
100
AcDbCircle
 10
0.0
 20
-17.5
 30
0.0
 40
17.50000000000001
100
AcDbArc
 50
266.7259554564
 51
270.0
  0
ARC
  5
137
330
12E
100
AcDbEntity
  8
0
  6
Continuous
 62
     0
370
     0
100
AcDbCircle
 10
0.0
 20
-17.5
 30
0.0
 40
17.5
100
AcDbArc
 50
0.0
 51
3.2740445436
  0
ARC
  5
138
330
12E
100
AcDbEntity
  8
0
  6
Continuous
 62
     0
370
     0
100
AcDbCircle
 10
0.0
 20
-17.5
 30
0.0
 40
17.5
100
AcDbArc
 50
356.7259554564
 51
0.0
  0
ARC
  5
139
330
12E
100
AcDbEntity
  8
0
  6
CENTERX2
 62
     0
370
     0
100
AcDbCircle
 10
0.0
 20
-17.5
 30
0.0
 40
17.5
100
AcDbArc
 50
96.5480890872
 51
173.4519109128
  0
ARC
  5
13A
330
12E
100
AcDbEntity
  8
0
  6
CENTERX2
 62
     0
370
     0
100
AcDbCircle
 10
0.0
 20
-17.5
 30
0.0
 40
17.50000000000002
100
AcDbArc
 50
186.5480890872
 51
263.4519109128
  0
ARC
  5
13B
330
12E
100
AcDbEntity
  8
0
  6
CENTERX2
 62
     0
370
     0
100
AcDbCircle
 10
0.0
 20
-17.5
 30
0.0
 40
17.50000000000001
100
AcDbArc
 50
276.5480890872
 51
353.4519109128
  0
ARC
  5
13C
330
12E
100
AcDbEntity
  8
0
  6
CENTERX2
 62
     0
370
     0
100
AcDbCircle
 10
0.0
 20
-17.5
 30
0.0
 40
17.50000000000001
100
AcDbArc
 50
6.5480890872
 51
83.4519109128
  0
LINE
  5
13D
330
12E
100
AcDbEntity
  8
0
  6
Continuous
 62
     0
370
     0
100
AcDbLine
 10
0.0
 20
0.0
 30
0.0
 11
0.0
 21
1.0
 31
0.0
  0
LINE
  5
13E
330
12E
100
AcDbEntity
  8
0
  6
Continuous
 62
     0
370
     0
100
AcDbLine
 10
0.0
 20
0.0
 30
0.0
 11
0.0
 21
-1.0
 31
0.0
  0
LINE
  5
13F
330
12E
100
AcDbEntity
  8
0
  6
Continuous
 62
     0
370
     0
100
AcDbLine
 10
0.0
 20
2.0
 30
0.0
 11
0.0
 21
2.25
 31
0.0
  0
LINE
  5
140
330
12E
100
AcDbEntity
  8
0
  6
Continuous
 62
     0
370
     0
100
AcDbLine
 10
0.0
 20
-2.0
 30
0.0
 11
0.0
 21
-2.25
 31
0.0
  0
LINE
  5
141
330
12E
100
AcDbEntity
  8
0
  6
Continuous
 62
     0
370
     0
100
AcDbLine
 10
-17.5
 20
-17.5
 30
0.0
 11
-18.5
 21
-17.5
 31
0.0
  0
LINE
  5
142
330
12E
100
AcDbEntity
  8
0
  6
Continuous
 62
     0
370
     0
100
AcDbLine
 10
-17.5
 20
-17.5
 30
0.0
 11
-16.5
 21
-17.5
 31
0.0
  0
LINE
  5
143
330
12E
100
AcDbEntity
  8
0
  6
Continuous
 62
     0
370
     0
100
AcDbLine
 10
-19.5
 20
-17.5
 30
0.0
 11
-19.75
 21
-17.5
 31
0.0
  0
LINE
  5
144
330
12E
100
AcDbEntity
  8
0
  6
Continuous
 62
     0
370
     0
100
AcDbLine
 10
-15.5
 20
-17.5
 30
0.0
 11
-15.25
 21
-17.5
 31
0.0
  0
LINE
  5
145
330
12E
100
AcDbEntity
  8
0
  6
Continuous
 62
     0
370
     0
100
AcDbLine
 10
0.0
 20
-35.0
 30
0.0
 11
0.0
 21
-36.0
 31
0.0
  0
LINE
  5
146
330
12E
100
AcDbEntity
  8
0
  6
Continuous
 62
     0
370
     0
100
AcDbLine
 10
0.0
 20
-35.0
 30
0.0
 11
0.0
 21
-34.0
 31
0.0
  0
LINE
  5
147
330
12E
100
AcDbEntity
  8
0
  6
Continuous
 62
     0
370
     0
100
AcDbLine
 10
0.0
 20
-37.0
 30
0.0
 11
0.0
 21
-37.25
 31
0.0
  0
LINE
  5
148
330
12E
100
AcDbEntity
  8
0
  6
Continuous
 62
     0
370
     0
100
AcDbLine
 10
0.0
 20
-33.0
 30
0.0
 11
0.0
 21
-32.75
 31
0.0
  0
LINE
  5
149
330
12E
100
AcDbEntity
  8
0
  6
Continuous
 62
     0
370
     0
100
AcDbLine
 10
17.5
 20
-17.5
 30
0.0
 11
18.5
 21
-17.5
 31
0.0
  0
LINE
  5
14A
330
12E
100
AcDbEntity
  8
0
  6
Continuous
 62
     0
370
     0
100
AcDbLine
 10
17.5
 20
-17.5
 30
0.0
 11
16.5
 21
-17.5
 31
0.0
  0
LINE
  5
14B
330
12E
100
AcDbEntity
  8
0
  6
Continuous
 62
     0
370
     0
100
AcDbLine
 10
19.5
 20
-17.5
 30
0.0
 11
19.75
 21
-17.5
 31
0.0
  0
LINE
  5
14C
330
12E
100
AcDbEntity
  8
0
  6
Continuous
 62
     0
370
     0
100
AcDbLine
 10
15.5
 20
-17.5
 30
0.0
 11
15.25
 21
-17.5
 31
0.0
  0
ENDBLK
  5
130
330
12E
100
AcDbEntity
  8
0
100
AcDbBlockEnd
  0
BLOCK
  5
14F
330
14E
100
AcDbEntity
  8
0
100
AcDbBlockBegin
  2
SW_CENTERMARKSYMBOL_3
 70
     0
 10
0.0
 20
0.0
 30
0.0
  3
SW_CENTERMARKSYMBOL_3
  1

  0
LINE
  5
151
330
14E
100
AcDbEntity
  8
0
  6
Continuous
 62
     0
370
     0
100
AcDbLine
 10
0.0
 20
0.0
 30
0.0
 11
0.0
 21
1.0
 31
0.0
  0
LINE
  5
152
330
14E
100
AcDbEntity
  8
0
  6
Continuous
 62
     0
370
     0
100
AcDbLine
 10
0.0
 20
0.0
 30
0.0
 11
-1.0
 21
0.0
 31
0.0
  0
LINE
  5
153
330
14E
100
AcDbEntity
  8
0
  6
Continuous
 62
     0
370
     0
100
AcDbLine
 10
0.0
 20
0.0
 30
0.0
 11
0.0
 21
-1.0
 31
0.0
  0
LINE
  5
154
330
14E
100
AcDbEntity
  8
0
  6
Continuous
 62
     0
370
     0
100
AcDbLine
 10
0.0
 20
0.0
 30
0.0
 11
1.0
 21
0.0
 31
0.0
  0
LINE
  5
155
330
14E
100
AcDbEntity
  8
0
  6
Continuous
 62
     0
370
     0
100
AcDbLine
 10
0.0
 20
2.0
 30
0.0
 11
0.0
 21
46.8816167816
 31
0.0
  0
LINE
  5
156
330
14E
100
AcDbEntity
  8
0
  6
Continuous
 62
     0
370
     0
100
AcDbLine
 10
-2.0
 20
0.0
 30
0.0
 11
-38.7806256614
 21
0.0
 31
0.0
  0
LINE
  5
157
330
14E
100
AcDbEntity
  8
0
  6
Continuous
 62
     0
370
     0
100
AcDbLine
 10
0.0
 20
-2.0
 30
0.0
 11
0.0
 21
-39.7219663589
 31
0.0
  0
LINE
  5
158
330
14E
100
AcDbEntity
  8
0
  6
Continuous
 62
     0
370
     0
100
AcDbLine
 10
2.0
 20
0.0
 30
0.0
 11
38.1079911578
 21
0.0
 31
0.0
  0
ENDBLK
  5
150
330
14E
100
AcDbEntity
  8
0
100
AcDbBlockEnd
  0
BLOCK
  5
15B
330
15A
100
AcDbEntity
  8
0
100
AcDbBlockBegin
  2
SW_CENTERMARKSYMBOL_4
 70
     0
 10
0.0
 20
0.0
 30
0.0
  3
SW_CENTERMARKSYMBOL_4
  1

  0
ARC
  5
15D
330
15A
100
AcDbEntity
  8
0
  6
Continuous
 62
     0
370
     0
100
AcDbCircle
 10
6.6969600664
 20
-16.1678918189
 30
0.0
 40
17.50000000000001
100
AcDbArc
 50
112.5
 51
117.4110668154
  0
ARC
  5
15E
330
15A
100
AcDbEntity
  8
0
  6
Continuous
 62
     0
370
     0
100
AcDbCircle
 10
6.6969600664
 20
-16.1678918189
 30
0.0
 40
17.50000000000001
100
AcDbArc
 50
107.5889331846
 51
112.5
  0
ARC
  5
15F
330
15A
100
AcDbEntity
  8
0
  6
Continuous
 62
     0
370
     0
100
AcDbCircle
 10
6.6969600664
 20
-16.1678918189
 30
0.0
 40
17.50000000000001
100
AcDbArc
 50
117.4110668154
 51
122.3221336308
  0
ARC
  5
160
330
15A
100
AcDbEntity
  8
0
  6
Continuous
 62
     0
370
     0
100
AcDbCircle
 10
6.6969600664
 20
-16.1678918189
 30
0.0
 40
17.50000000000001
100
AcDbArc
 50
102.6778663692
 51
107.5889331846
  0
LINE
  5
161
330
15A
100
AcDbEntity
  8
0
  6
Continuous
 62
     0
370
     0
100
AcDbLine
 10
0.0
 20
0.0
 30
0.0
 11
-0.5740251485
 21
1.3858192988
 31
0.0
  0
LINE
  5
162
330
15A
100
AcDbEntity
  8
0
  6
Continuous
 62
     0
370
     0
100
AcDbLine
 10
0.0
 20
0.0
 30
0.0
 11
0.5740251485
 21
-1.3858192988
 31
0.0
  0
LINE
  5
163
330
15A
100
AcDbEntity
  8
0
  6
Continuous
 62
     0
370
     0
100
AcDbLine
 10
-0.5740251485
 20
1.3858192988
 30
0.0
 11
-1.1480502971
 21
2.7716385975
 31
0.0
  0
LINE
  5
164
330
15A
100
AcDbEntity
  8
0
  6
Continuous
 62
     0
370
     0
100
AcDbLine
 10
0.5740251485
 20
-1.3858192988
 30
0.0
 11
1.1480502971
 21
-2.7716385975
 31
0.0
  0
ENDBLK
  5
15C
330
15A
100
AcDbEntity
  8
0
100
AcDbBlockEnd
  0
BLOCK
  5
173
330
172
100
AcDbEntity
  8
0
100
AcDbBlockBegin
  2
SW_DOWELSYMBOL_0
 70
     0
 10
0.0
 20
0.0
 30
0.0
  3
SW_DOWELSYMBOL_0
  1

  0
CIRCLE
  5
175
330
172
100
AcDbEntity
  8
0
  6
Continuous
 62
     0
370
     0
100
AcDbCircle
 10
0.0
 20
0.0
 30
0.0
 40
1.500000000000001
  0
HATCH
  5
176
330
172
100
AcDbEntity
  8
0
  6
Continuous
 62
     0
370
     0
100
AcDbHatch
 10
0.0
 20
0.0
 30
0.0
210
0.0
220
0.0
230
1.0
  2
SOLID
 70
     1
 71
     0
 91
        1
 92
        0
 93
        3
 72
     2
 10
0.0
 20
0.0
 40
1.500000000000001
 50
0.0
 51
90.0
 73
     1
 72
     1
 10
0.0
 20
1.500000000000001
 11
0.0
 21
0.0
 72
     1
 10
0.0
 20
0.0
 11
1.500000000000001
 21
0.0
 97
        0
 75
     0
 76
     1
 98
        1
 10
0.0
 20
0.0
  0
HATCH
  5
177
330
172
100
AcDbEntity
  8
0
  6
Continuous
 62
     0
370
     0
100
AcDbHatch
 10
0.0
 20
0.0
 30
0.0
210
0.0
220
0.0
230
1.0
  2
SOLID
 70
     1
 71
     0
 91
        1
 92
        0
 93
        3
 72
     2
 10
0.0
 20
0.0
 40
1.500000000000001
 50
180.0
 51
270.0000000000008
 73
     1
 72
     1
 10
0.0
 20
-1.500000000000001
 11
0.0
 21
0.0
 72
     1
 10
0.0
 20
0.0
 11
-1.500000000000001
 21
0.0
 97
        0
 75
     0
 76
     1
 98
        1
 10
0.0
 20
0.0
  0
ENDBLK
  5
174
330
172
100
AcDbEntity
  8
0
100
AcDbBlockEnd
  0
BLOCK
  5
24B
330
24A
100
AcDbEntity
  8
0
100
AcDbBlockBegin
  2
SW_CENTERMARKSYMBOL_5
 70
     0
 10
0.0
 20
0.0
 30
0.0
  3
SW_CENTERMARKSYMBOL_5
  1

  0
ARC
  5
24D
330
24A
100
AcDbEntity
  8
0
  6
Continuous
 62
     0
370
     0
100
AcDbCircle
 10
8.2822094433
 20
-30.9096264413
 30
0.0
 40
32.00000000000001
100
AcDbArc
 50
105.0
 51
106.7904931098
  0
ARC
  5
24E
330
24A
100
AcDbEntity
  8
0
  6
Continuous
 62
     0
370
     0
100
AcDbCircle
 10
8.2822094433
 20
-30.9096264413
 30
0.0
 40
32.00000000000001
100
AcDbArc
 50
103.2095068902
 51
105.0
  0
ARC
  5
24F
330
24A
100
AcDbEntity
  8
0
  6
Continuous
 62
     0
370
     0
100
AcDbCircle
 10
8.2822094433
 20
-30.9096264413
 30
0.0
 40
32.00000000000002
100
AcDbArc
 50
108.5809862196
 51
111.8754935416
  0
ARC
  5
250
330
24A
100
AcDbEntity
  8
0
  6
Continuous
 62
     0
370
     0
100
AcDbCircle
 10
8.2822094433
 20
-30.9096264413
 30
0.0
 40
32.00000000000002
100
AcDbArc
 50
98.1245064584
 51
101.4190137804
  0
ARC
  5
251
330
24A
100
AcDbEntity
  8
0
  6
Continuous
 62
     0
370
     0
100
AcDbCircle
 10
8.2822094433
 20
-30.9096264413
 30
0.0
 40
32.00000000000002
100
AcDbArc
 50
15.0
 51
16.7904931098
  0
ARC
  5
252
330
24A
100
AcDbEntity
  8
0
  6
Continuous
 62
     0
370
     0
100
AcDbCircle
 10
8.2822094433
 20
-30.9096264413
 30
0.0
 40
32.00000000000002
100
AcDbArc
 50
13.2095068902
 51
15.0
  0
ARC
  5
253
330
24A
100
AcDbEntity
  8
0
  6
Continuous
 62
     0
370
     0
100
AcDbCircle
 10
8.2822094433
 20
-30.9096264413
 30
0.0
 40
32.00000000000003
100
AcDbArc
 50
18.5809862196
 51
21.8754935416
  0
ARC
  5
254
330
24A
100
AcDbEntity
  8
0
  6
Continuous
 62
     0
370
     0
100
AcDbCircle
 10
8.2822094433
 20
-30.9096264413
 30
0.0
 40
32.00000000000005
100
AcDbArc
 50
8.1245064584
 51
11.4190137804
  0
ARC
  5
255
330
24A
100
AcDbEntity
  8
0
  6
Continuous
 62
     0
370
     0
100
AcDbCircle
 10
8.2822094433
 20
-30.9096264413
 30
0.0
 40
32.00000000000001
100
AcDbArc
 50
285.0
 51
286.7904931098
  0
ARC
  5
256
330
24A
100
AcDbEntity
  8
0
  6
Continuous
 62
     0
370
     0
100
AcDbCircle
 10
8.2822094433
 20
-30.9096264413
 30
0.0
 40
32.00000000000004
100
AcDbArc
 50
283.2095068902
 51
285.0
  0
ARC
  5
257
330
24A
100
AcDbEntity
  8
0
  6
Continuous
 62
     0
370
     0
100
AcDbCircle
 10
8.2822094433
 20
-30.9096264413
 30
0.0
 40
32.00000000000002
100
AcDbArc
 50
288.5809862196
 51
291.8754935416
  0
ARC
  5
258
330
24A
100
AcDbEntity
  8
0
  6
Continuous
 62
     0
370
     0
100
AcDbCircle
 10
8.2822094433
 20
-30.9096264413
 30
0.0
 40
32.00000000000001
100
AcDbArc
 50
278.1245064584
 51
281.4190137804
  0
ARC
  5
259
330
24A
100
AcDbEntity
  8
0
  6
Continuous
 62
     0
370
     0
100
AcDbCircle
 10
8.2822094433
 20
-30.9096264413
 30
0.0
 40
32.00000000000001
100
AcDbArc
 50
195.0
 51
196.7904931098
  0
ARC
  5
25A
330
24A
100
AcDbEntity
  8
0
  6
Continuous
 62
     0
370
     0
100
AcDbCircle
 10
8.2822094433
 20
-30.9096264413
 30
0.0
 40
32.00000000000001
100
AcDbArc
 50
193.2095068902
 51
195.0
  0
ARC
  5
25B
330
24A
100
AcDbEntity
  8
0
  6
Continuous
 62
     0
370
     0
100
AcDbCircle
 10
8.2822094433
 20
-30.9096264413
 30
0.0
 40
32.0
100
AcDbArc
 50
198.5809862196
 51
201.8754935416
  0
ARC
  5
25C
330
24A
100
AcDbEntity
  8
0
  6
Continuous
 62
     0
370
     0
100
AcDbCircle
 10
8.2822094433
 20
-30.9096264413
 30
0.0
 40
32.00000000000001
100
AcDbArc
 50
188.1245064584
 51
191.4190137804
  0
LINE
  5
25D
330
24A
100
AcDbEntity
  8
0
  6
Continuous
 62
     0
370
     0
100
AcDbLine
 10
0.0
 20
0.0
 30
0.0
 11
-0.2588190451
 21
0.9659258263
 31
0.0
  0
LINE
  5
25E
330
24A
100
AcDbEntity
  8
0
  6
Continuous
 62
     0
370
     0
100
AcDbLine
 10
0.0
 20
0.0
 30
0.0
 11
0.2588190451
 21
-0.9659258263
 31
0.0
  0
LINE
  5
25F
330
24A
100
AcDbEntity
  8
0
  6
Continuous
 62
     0
370
     0
100
AcDbLine
 10
-0.5176380902
 20
1.9318516526
 30
0.0
 11
-0.9938651332
 21
3.709155173
 31
0.0
  0
LINE
  5
260
330
24A
100
AcDbEntity
  8
0
  6
Continuous
 62
     0
370
     0
100
AcDbLine
 10
0.5176380902
 20
-1.9318516526
 30
0.0
 11
0.9938651332
 21
-3.709155173
 31
0.0
  0
LINE
  5
261
330
24A
100
AcDbEntity
  8
0
  6
Continuous
 62
     0
370
     0
100
AcDbLine
 10
39.1918358845
 20
-22.627416998
 30
0.0
 11
40.1577617108
 21
-22.3685979529
 31
0.0
  0
LINE
  5
262
330
24A
100
AcDbEntity
  8
0
  6
Continuous
 62
     0
370
     0
100
AcDbLine
 10
39.1918358845
 20
-22.627416998
 30
0.0
 11
38.2259100582
 21
-22.8862360431
 31
0.0
  0
LINE
  5
263
330
24A
100
AcDbEntity
  8
0
  6
Continuous
 62
     0
370
     0
100
AcDbLine
 10
41.1236875371
 20
-22.1097789078
 30
0.0
 11
42.9009910575
 21
-21.6335518648
 31
0.0
  0
LINE
  5
264
330
24A
100
AcDbEntity
  8
0
  6
Continuous
 62
     0
370
     0
100
AcDbLine
 10
37.259984232
 20
-23.1450550882
 30
0.0
 11
35.4826807116
 21
-23.6212821312
 31
0.0
  0
LINE
  5
265
330
24A
100
AcDbEntity
  8
0
  6
Continuous
 62
     0
370
     0
100
AcDbLine
 10
16.5644188866
 20
-61.8192528825
 30
0.0
 11
16.8232379317
 21
-62.7851787088
 31
0.0
  0
LINE
  5
266
330
24A
100
AcDbEntity
  8
0
  6
Continuous
 62
     0
370
     0
100
AcDbLine
 10
16.5644188866
 20
-61.8192528825
 30
0.0
 11
16.3055998415
 21
-60.8533270562
 31
0.0
  0
LINE
  5
267
330
24A
100
AcDbEntity
  8
0
  6
Continuous
 62
     0
370
     0
100
AcDbLine
 10
17.0820569768
 20
-63.7511045351
 30
0.0
 11
17.5582840198
 21
-65.5284080555
 31
0.0
  0
LINE
  5
268
330
24A
100
AcDbEntity
  8
0
  6
Continuous
 62
     0
370
     0
100
AcDbLine
 10
16.0467807964
 20
-59.8874012299
 30
0.0
 11
15.5705537534
 21
-58.1100977096
 31
0.0
  0
LINE
  5
269
330
24A
100
AcDbEntity
  8
0
  6
Continuous
 62
     0
370
     0
100
AcDbLine
 10
-22.627416998
 20
-39.1918358845
 30
0.0
 11
-23.5933428243
 21
-39.4506549296
 31
0.0
  0
LINE
  5
26A
330
24A
100
AcDbEntity
  8
0
  6
Continuous
 62
     0
370
     0
100
AcDbLine
 10
-22.627416998
 20
-39.1918358845
 30
0.0
 11
-21.6614911717
 21
-38.9330168394
 31
0.0
  0
LINE
  5
26B
330
24A
100
AcDbEntity
  8
0
  6
Continuous
 62
     0
370
     0
100
AcDbLine
 10
-24.5592686505
 20
-39.7094739747
 30
0.0
 11
-26.3365721709
 21
-40.1857010177
 31
0.0
  0
LINE
  5
26C
330
24A
100
AcDbEntity
  8
0
  6
Continuous
 62
     0
370
     0
100
AcDbLine
 10
-20.6955653454
 20
-38.6741977943
 30
0.0
 11
-18.918261825
 21
-38.1979707513
 31
0.0
  0
ENDBLK
  5
24C
330
24A
100
AcDbEntity
  8
0
100
AcDbBlockEnd
  0
BLOCK
  5
26F
330
26E
100
AcDbEntity
  8
0
100
AcDbBlockBegin
  2
SW_CENTERMARKSYMBOL_6
 70
     0
 10
0.0
 20
0.0
 30
0.0
  3
SW_CENTERMARKSYMBOL_6
  1

  0
ARC
  5
271
330
26E
100
AcDbEntity
  8
0
  6
Continuous
 62
     0
370
     0
100
AcDbCircle
 10
-14.9437232514
 20
-23.9149563116
 30
0.0
 40
28.20000000000001
100
AcDbArc
 50
58.0
 51
62.0635304619
  0
ARC
  5
272
330
26E
100
AcDbEntity
  8
0
  6
Continuous
 62
     0
370
     0
100
AcDbCircle
 10
-14.9437232514
 20
-23.9149563116
 30
0.0
 40
28.2
100
AcDbArc
 50
53.9364695381
 51
58.0
  0
ARC
  5
273
330
26E
100
AcDbEntity
  8
0
  6
Continuous
 62
     0
370
     0
100
AcDbCircle
 10
-14.9437232514
 20
-23.9149563116
 30
0.0
 40
28.20000000000001
100
AcDbArc
 50
66.1270609238
 51
67.3461200624
  0
ARC
  5
274
330
26E
100
AcDbEntity
  8
0
  6
Continuous
 62
     0
370
     0
100
AcDbCircle
 10
-14.9437232514
 20
-23.9149563116
 30
0.0
 40
28.20000000000002
100
AcDbArc
 50
48.6538799376
 51
49.8729390762
  0
ARC
  5
275
330
26E
100
AcDbEntity
  8
0
  6
Continuous
 62
     0
370
     0
100
AcDbCircle
 10
-14.9437232514
 20
-23.9149563116
 30
0.0
 40
28.19999999999999
100
AcDbArc
 50
328.0
 51
332.0635304619
  0
ARC
  5
276
330
26E
100
AcDbEntity
  8
0
  6
Continuous
 62
     0
370
     0
100
AcDbCircle
 10
-14.9437232514
 20
-23.9149563116
 30
0.0
 40
28.20000000000002
100
AcDbArc
 50
323.9364695381
 51
328.0
  0
ARC
  5
277
330
26E
100
AcDbEntity
  8
0
  6
Continuous
 62
     0
370
     0
100
AcDbCircle
 10
-14.9437232514
 20
-23.9149563116
 30
0.0
 40
28.20000000000003
100
AcDbArc
 50
336.1270609238
 51
337.3461200624
  0
ARC
  5
278
330
26E
100
AcDbEntity
  8
0
  6
Continuous
 62
     0
370
     0
100
AcDbCircle
 10
-14.9437232514
 20
-23.9149563116
 30
0.0
 40
28.20000000000001
100
AcDbArc
 50
318.6538799376
 51
319.8729390762
  0
ARC
  5
279
330
26E
100
AcDbEntity
  8
0
  6
Continuous
 62
     0
370
     0
100
AcDbCircle
 10
-14.9437232514
 20
-23.9149563116
 30
0.0
 40
28.20000000000001
100
AcDbArc
 50
238.0
 51
242.0635304619
  0
ARC
  5
27A
330
26E
100
AcDbEntity
  8
0
  6
Continuous
 62
     0
370
     0
100
AcDbCircle
 10
-14.9437232514
 20
-23.9149563116
 30
0.0
 40
28.2
100
AcDbArc
 50
233.9364695381
 51
238.0
  0
ARC
  5
27B
330
26E
100
AcDbEntity
  8
0
  6
Continuous
 62
     0
370
     0
100
AcDbCircle
 10
-14.9437232514
 20
-23.9149563116
 30
0.0
 40
28.20000000000001
100
AcDbArc
 50
246.1270609238
 51
247.3461200624
  0
ARC
  5
27C
330
26E
100
AcDbEntity
  8
0
  6
Continuous
 62
     0
370
     0
100
AcDbCircle
 10
-14.9437232514
 20
-23.9149563116
 30
0.0
 40
28.19999999999998
100
AcDbArc
 50
228.6538799376
 51
229.8729390762
  0
ARC
  5
27D
330
26E
100
AcDbEntity
  8
0
  6
Continuous
 62
     0
370
     0
100
AcDbCircle
 10
-14.9437232514
 20
-23.9149563116
 30
0.0
 40
28.2
100
AcDbArc
 50
148.0
 51
152.0635304619
  0
ARC
  5
27E
330
26E
100
AcDbEntity
  8
0
  6
Continuous
 62
     0
370
     0
100
AcDbCircle
 10
-14.9437232514
 20
-23.9149563116
 30
0.0
 40
28.2
100
AcDbArc
 50
143.9364695381
 51
148.0
  0
ARC
  5
27F
330
26E
100
AcDbEntity
  8
0
  6
Continuous
 62
     0
370
     0
100
AcDbCircle
 10
-14.9437232514
 20
-23.9149563116
 30
0.0
 40
28.2
100
AcDbArc
 50
156.1270609238
 51
157.3461200624
  0
ARC
  5
280
330
26E
100
AcDbEntity
  8
0
  6
Continuous
 62
     0
370
     0
100
AcDbCircle
 10
-14.9437232514
 20
-23.9149563116
 30
0.0
 40
28.2
100
AcDbArc
 50
138.6538799376
 51
139.8729390762
  0
LINE
  5
281
330
26E
100
AcDbEntity
  8
0
  6
Continuous
 62
     0
370
     0
100
AcDbLine
 10
0.0
 20
0.0
 30
0.0
 11
1.0598385285
 21
1.6960961923
 31
0.0
  0
LINE
  5
282
330
26E
100
AcDbEntity
  8
0
  6
Continuous
 62
     0
370
     0
100
AcDbLine
 10
0.0
 20
0.0
 30
0.0
 11
-1.0598385285
 21
-1.6960961923
 31
0.0
  0
LINE
  5
283
330
26E
100
AcDbEntity
  8
0
  6
Continuous
 62
     0
370
     0
100
AcDbLine
 10
2.1196770569
 20
3.3921923846
 30
0.0
 11
2.4376286155
 21
3.9010212423
 31
0.0
  0
LINE
  5
284
330
26E
100
AcDbEntity
  8
0
  6
Continuous
 62
     0
370
     0
100
AcDbLine
 10
-2.1196770569
 20
-3.3921923846
 30
0.0
 11
-2.4376286155
 21
-3.9010212423
 31
0.0
  0
LINE
  5
285
330
26E
100
AcDbEntity
  8
0
  6
Continuous
 62
     0
370
     0
100
AcDbLine
 10
8.9712330602
 20
-38.858679563
 30
0.0
 11
10.6673292525
 21
-39.9185180915
 31
0.0
  0
LINE
  5
286
330
26E
100
AcDbEntity
  8
0
  6
Continuous
 62
     0
370
     0
100
AcDbLine
 10
8.9712330602
 20
-38.858679563
 30
0.0
 11
7.2751368679
 21
-37.7988410345
 31
0.0
  0
LINE
  5
287
330
26E
100
AcDbEntity
  8
0
  6
Continuous
 62
     0
370
     0
100
AcDbLine
 10
12.3634254449
 20
-40.9783566199
 30
0.0
 11
12.8722543026
 21
-41.2963081785
 31
0.0
  0
LINE
  5
288
330
26E
100
AcDbEntity
  8
0
  6
Continuous
 62
     0
370
     0
100
AcDbLine
 10
5.5790406756
 20
-36.7390025061
 30
0.0
 11
5.0702118179
 21
-36.4210509475
 31
0.0
  0
LINE
  5
289
330
26E
100
AcDbEntity
  8
0
  6
Continuous
 62
     0
370
     0
100
AcDbLine
 10
-29.8874465028
 20
-47.8299126232
 30
0.0
 11
-30.9472850312
 21
-49.5260088155
 31
0.0
  0
LINE
  5
28A
330
26E
100
AcDbEntity
  8
0
  6
Continuous
 62
     0
370
     0
100
AcDbLine
 10
-29.8874465028
 20
-47.8299126232
 30
0.0
 11
-28.8276079743
 21
-46.1338164309
 31
0.0
  0
LINE
  5
28B
330
26E
100
AcDbEntity
  8
0
  6
Continuous
 62
     0
370
     0
100
AcDbLine
 10
-32.0071235597
 20
-51.2221050078
 30
0.0
 11
-32.3250751182
 21
-51.7309338655
 31
0.0
  0
LINE
  5
28C
330
26E
100
AcDbEntity
  8
0
  6
Continuous
 62
     0
370
     0
100
AcDbLine
 10
-27.7677694458
 20
-44.4377202386
 30
0.0
 11
-27.4498178873
 21
-43.9288913809
 31
0.0
  0
LINE
  5
28D
330
26E
100
AcDbEntity
  8
0
  6
Continuous
 62
     0
370
     0
100
AcDbLine
 10
-38.858679563
 20
-8.9712330602
 30
0.0
 11
-40.5547757553
 21
-7.9113945318
 31
0.0
  0
LINE
  5
28E
330
26E
100
AcDbEntity
  8
0
  6
Continuous
 62
     0
370
     0
100
AcDbLine
 10
-38.858679563
 20
-8.9712330602
 30
0.0
 11
-37.1625833707
 21
-10.0310715887
 31
0.0
  0
LINE
  5
28F
330
26E
100
AcDbEntity
  8
0
  6
Continuous
 62
     0
370
     0
100
AcDbLine
 10
-42.2508719476
 20
-6.8515560033
 30
0.0
 11
-42.7597008053
 21
-6.5336044448
 31
0.0
  0
LINE
  5
290
330
26E
100
AcDbEntity
  8
0
  6
Continuous
 62
     0
370
     0
100
AcDbLine
 10
-35.4664871784
 20
-11.0909101172
 30
0.0
 11
-34.9576583207
 21
-11.4088616757
 31
0.0
  0
ENDBLK
  5
270
330
26E
100
AcDbEntity
  8
0
100
AcDbBlockEnd
  0
BLOCK
  5
293
330
292
100
AcDbEntity
  8
0
100
AcDbBlockBegin
  2
SW_CENTERMARKSYMBOL_7
 70
     0
 10
0.0
 20
0.0
 30
0.0
  3
SW_CENTERMARKSYMBOL_7
  1

  0
LINE
  5
295
330
292
100
AcDbEntity
  8
0
  6
Continuous
 62
     0
370
     0
100
AcDbLine
 10
0.0
 20
0.0
 30
0.0
 11
0.0
 21
1.0
 31
0.0
  0
LINE
  5
296
330
292
100
AcDbEntity
  8
0
  6
Continuous
 62
     0
370
     0
100
AcDbLine
 10
0.0
 20
0.0
 30
0.0
 11
-1.0
 21
0.0
 31
0.0
  0
LINE
  5
297
330
292
100
AcDbEntity
  8
0
  6
Continuous
 62
     0
370
     0
100
AcDbLine
 10
0.0
 20
0.0
 30
0.0
 11
0.0
 21
-1.0
 31
0.0
  0
LINE
  5
298
330
292
100
AcDbEntity
  8
0
  6
Continuous
 62
     0
370
     0
100
AcDbLine
 10
0.0
 20
0.0
 30
0.0
 11
1.0
 21
0.0
 31
0.0
  0
LINE
  5
299
330
292
100
AcDbEntity
  8
0
  6
Continuous
 62
     0
370
     0
100
AcDbLine
 10
0.0
 20
2.0
 30
0.0
 11
0.0
 21
48.7153578723
 31
0.0
  0
LINE
  5
29A
330
292
100
AcDbEntity
  8
0
  6
Continuous
 62
     0
370
     0
100
AcDbLine
 10
-2.0
 20
0.0
 30
0.0
 11
-39.8580985711
 21
0.0
 31
0.0
  0
LINE
  5
29B
330
292
100
AcDbEntity
  8
0
  6
Continuous
 62
     0
370
     0
100
AcDbLine
 10
0.0
 20
-2.0
 30
0.0
 11
0.0
 21
-40.05242507
 31
0.0
  0
LINE
  5
29C
330
292
100
AcDbEntity
  8
0
  6
Continuous
 62
     0
370
     0
100
AcDbLine
 10
2.0
 20
0.0
 30
0.0
 11
39.4165535469
 21
0.0
 31
0.0
  0
ENDBLK
  5
294
330
292
100
AcDbEntity
  8
0
100
AcDbBlockEnd
  0
BLOCK
  5
29F
330
29E
100
AcDbEntity
  8
0
100
AcDbBlockBegin
  2
SW_CENTERMARKSYMBOL_8
 70
     0
 10
0.0
 20
0.0
 30
0.0
  3
SW_CENTERMARKSYMBOL_8
  1

  0
ARC
  5
2A1
330
29E
100
AcDbEntity
  8
0
  6
Continuous
 62
     0
370
     0
100
AcDbCircle
 10
-6.6531741062
 20
-31.3007232235
 30
0.0
 40
32.00000000000001
100
AcDbArc
 50
78.0
 51
81.5809862196
  0
ARC
  5
2A2
330
29E
100
AcDbEntity
  8
0
  6
Continuous
 62
     0
370
     0
100
AcDbCircle
 10
-6.6531741062
 20
-31.3007232235
 30
0.0
 40
32.00000000000001
100
AcDbArc
 50
74.4190137804
 51
78.0
  0
LINE
  5
2A3
330
29E
100
AcDbEntity
  8
0
  6
Continuous
 62
     0
370
     0
100
AcDbLine
 10
0.0
 20
0.0
 30
0.0
 11
0.4158233816
 21
1.9562952015
 31
0.0
  0
LINE
  5
2A4
330
29E
100
AcDbEntity
  8
0
  6
Continuous
 62
     0
370
     0
100
AcDbLine
 10
0.0
 20
0.0
 30
0.0
 11
-0.4158233816
 21
-1.9562952015
 31
0.0
  0
ENDBLK
  5
2A0
330
29E
100
AcDbEntity
  8
0
100
AcDbBlockEnd
  0
BLOCK
  5
2A7
330
2A6
100
AcDbEntity
  8
0
100
AcDbBlockBegin
  2
SW_CENTERMARKSYMBOL_9
 70
     0
 10
0.0
 20
0.0
 30
0.0
  3
SW_CENTERMARKSYMBOL_9
  1

  0
ARC
  5
2A9
330
2A6
100
AcDbEntity
  8
0
  6
Continuous
 62
     0
370
     0
100
AcDbCircle
 10
-22.627416998
 20
-22.627416998
 30
0.0
 40
32.0
100
AcDbArc
 50
45.0
 51
46.7904931098
  0
ARC
  5
2AA
330
2A6
100
AcDbEntity
  8
0
  6
Continuous
 62
     0
370
     0
100
AcDbCircle
 10
-22.627416998
 20
-22.627416998
 30
0.0
 40
32.0
100
AcDbArc
 50
43.2095068902
 51
45.0
  0
ARC
  5
2AB
330
2A6
100
AcDbEntity
  8
0
  6
Continuous
 62
     0
370
     0
100
AcDbCircle
 10
-22.627416998
 20
-22.627416998
 30
0.0
 40
32.00000000000001
100
AcDbArc
 50
225.0
 51
226.7904931098
  0
ARC
  5
2AC
330
2A6
100
AcDbEntity
  8
0
  6
Continuous
 62
     0
370
     0
100
AcDbCircle
 10
-22.627416998
 20
-22.627416998
 30
0.0
 40
32.00000000000001
100
AcDbArc
 50
223.2095068902
 51
225.0
  0
ARC
  5
2AD
330
2A6
100
AcDbEntity
  8
0
  6
Continuous
 62
     0
370
     0
100
AcDbCircle
 10
-22.627416998
 20
-22.627416998
 30
0.0
 40
32.0
100
AcDbArc
 50
315.0
 51
316.7904931098
  0
ARC
  5
2AE
330
2A6
100
AcDbEntity
  8
0
  6
Continuous
 62
     0
370
     0
100
AcDbCircle
 10
-22.627416998
 20
-22.627416998
 30
0.0
 40
32.0
100
AcDbArc
 50
313.2095068902
 51
315.0
  0
ARC
  5
2AF
330
2A6
100
AcDbEntity
  8
0
  6
Continuous
 62
     0
370
     0
100
AcDbCircle
 10
-22.627416998
 20
-22.627416998
 30
0.0
 40
32.0
100
AcDbArc
 50
135.0
 51
136.7904931098
  0
ARC
  5
2B0
330
2A6
100
AcDbEntity
  8
0
  6
Continuous
 62
     0
370
     0
100
AcDbCircle
 10
-22.627416998
 20
-22.627416998
 30
0.0
 40
32.00000000000001
100
AcDbArc
 50
133.2095068902
 51
135.0
  0
ARC
  5
2B1
330
2A6
100
AcDbEntity
  8
0
  6
CENTERX2
 62
     0
370
     0
100
AcDbCircle
 10
-22.627416998
 20
-22.627416998
 30
0.0
 40
32.00000000000001
100
AcDbArc
 50
48.5809862196
 51
131.4190137804
  0
ARC
  5
2B2
330
2A6
100
AcDbEntity
  8
0
  6
CENTERX2
 62
     0
370
     0
100
AcDbCircle
 10
-22.627416998
 20
-22.627416998
 30
0.0
 40
32.0
100
AcDbArc
 50
138.5809862196
 51
221.4190137804
  0
ARC
  5
2B3
330
2A6
100
AcDbEntity
  8
0
  6
CENTERX2
 62
     0
370
     0
100
AcDbCircle
 10
-22.627416998
 20
-22.627416998
 30
0.0
 40
32.0
100
AcDbArc
 50
228.5809862196
 51
311.4190137804
  0
ARC
  5
2B4
330
2A6
100
AcDbEntity
  8
0
  6
CENTERX2
 62
     0
370
     0
100
AcDbCircle
 10
-22.627416998
 20
-22.627416998
 30
0.0
 40
32.00000000000002
100
AcDbArc
 50
318.5809862196
 51
41.4190137804
  0
LINE
  5
2B5
330
2A6
100
AcDbEntity
  8
0
  6
Continuous
 62
     0
370
     0
100
AcDbLine
 10
0.0
 20
0.0
 30
0.0
 11
0.7071067812
 21
0.7071067812
 31
0.0
  0
LINE
  5
2B6
330
2A6
100
AcDbEntity
  8
0
  6
Continuous
 62
     0
370
     0
100
AcDbLine
 10
0.0
 20
0.0
 30
0.0
 11
-0.7071067812
 21
-0.7071067812
 31
0.0
  0
LINE
  5
2B7
330
2A6
100
AcDbEntity
  8
0
  6
Continuous
 62
     0
370
     0
100
AcDbLine
 10
1.4142135624
 20
1.4142135624
 30
0.0
 11
1.9091883092
 21
1.9091883092
 31
0.0
  0
LINE
  5
2B8
330
2A6
100
AcDbEntity
  8
0
  6
Continuous
 62
     0
370
     0
100
AcDbLine
 10
-1.4142135624
 20
-1.4142135624
 30
0.0
 11
-1.9091883092
 21
-1.9091883092
 31
0.0
  0
LINE
  5
2B9
330
2A6
100
AcDbEntity
  8
0
  6
Continuous
 62
     0
370
     0
100
AcDbLine
 10
-45.2548339959
 20
-45.2548339959
 30
0.0
 11
-45.9619407771
 21
-45.9619407771
 31
0.0
  0
LINE
  5
2BA
330
2A6
100
AcDbEntity
  8
0
  6
Continuous
 62
     0
370
     0
100
AcDbLine
 10
-45.2548339959
 20
-45.2548339959
 30
0.0
 11
-44.5477272148
 21
-44.5477272148
 31
0.0
  0
LINE
  5
2BB
330
2A6
100
AcDbEntity
  8
0
  6
Continuous
 62
     0
370
     0
100
AcDbLine
 10
-46.6690475583
 20
-46.6690475583
 30
0.0
 11
-47.1640223051
 21
-47.1640223051
 31
0.0
  0
LINE
  5
2BC
330
2A6
100
AcDbEntity
  8
0
  6
Continuous
 62
     0
370
     0
100
AcDbLine
 10
-43.8406204336
 20
-43.8406204336
 30
0.0
 11
-43.3456456867
 21
-43.3456456867
 31
0.0
  0
LINE
  5
2BD
330
2A6
100
AcDbEntity
  8
0
  6
Continuous
 62
     0
370
     0
100
AcDbLine
 10
0.0
 20
-45.2548339959
 30
0.0
 11
0.7071067812
 21
-45.9619407771
 31
0.0
  0
LINE
  5
2BE
330
2A6
100
AcDbEntity
  8
0
  6
Continuous
 62
     0
370
     0
100
AcDbLine
 10
0.0
 20
-45.2548339959
 30
0.0
 11
-0.7071067812
 21
-44.5477272148
 31
0.0
  0
LINE
  5
2BF
330
2A6
100
AcDbEntity
  8
0
  6
Continuous
 62
     0
370
     0
100
AcDbLine
 10
1.4142135624
 20
-46.6690475583
 30
0.0
 11
1.9091883092
 21
-47.1640223051
 31
0.0
  0
LINE
  5
2C0
330
2A6
100
AcDbEntity
  8
0
  6
Continuous
 62
     0
370
     0
100
AcDbLine
 10
-1.4142135624
 20
-43.8406204336
 30
0.0
 11
-1.9091883092
 21
-43.3456456867
 31
0.0
  0
LINE
  5
2C1
330
2A6
100
AcDbEntity
  8
0
  6
Continuous
 62
     0
370
     0
100
AcDbLine
 10
-45.2548339959
 20
0.0
 30
0.0
 11
-45.9619407771
 21
0.7071067812
 31
0.0
  0
LINE
  5
2C2
330
2A6
100
AcDbEntity
  8
0
  6
Continuous
 62
     0
370
     0
100
AcDbLine
 10
-45.2548339959
 20
0.0
 30
0.0
 11
-44.5477272148
 21
-0.7071067812
 31
0.0
  0
LINE
  5
2C3
330
2A6
100
AcDbEntity
  8
0
  6
Continuous
 62
     0
370
     0
100
AcDbLine
 10
-46.6690475583
 20
1.4142135624
 30
0.0
 11
-47.1640223051
 21
1.9091883092
 31
0.0
  0
LINE
  5
2C4
330
2A6
100
AcDbEntity
  8
0
  6
Continuous
 62
     0
370
     0
100
AcDbLine
 10
-43.8406204336
 20
-1.4142135624
 30
0.0
 11
-43.3456456867
 21
-1.9091883092
 31
0.0
  0
ENDBLK
  5
2A8
330
2A6
100
AcDbEntity
  8
0
100
AcDbBlockEnd
  0
ENDSEC
  0
SECTION
  2
ENTITIES
  0
MTEXT
  5
79
330
1F
100
AcDbEntity
  8
注記
100
AcDbMText
 10
76.63950071
 20
98.8807594924
 30
0.0
 40
5.2916666667
 41
0.0
 71
     2
 72
     1
  1
FLA-11A-xxFB-H-xx
  7
SLDTEXTSTYLE0
 73
     1
 44
1.0
  0
LINE
  5
7A
330
1F
100
AcDbEntity
  8
0
  6
Continuous
 62
     7
370
    30
100
AcDbLine
 10
76.4705503829
 20
200.6403416636
 30
0.0
 11
76.4705503829
 21
205.6403416636
 31
0.0
  0
LINE
  5
7B
330
1F
100
AcDbEntity
  8
0
  6
Continuous
 62
     7
370
    30
100
AcDbLine
 10
77.7305503829
 20
200.6403416636
 30
0.0
 11
77.7305503829
 21
196.1326281495
 31
0.0
  0
LINE
  5
7C
330
1F
100
AcDbEntity
  8
0
  6
Continuous
 62
     7
370
    30
100
AcDbLine
 10
79.2105503829
 20
196.1326281495
 30
0.0
 11
79.2105503829
 21
200.6403416636
 31
0.0
  0
LINE
  5
7D
330
1F
100
AcDbEntity
  8
0
  6
Continuous
 62
     7
370
    30
100
AcDbLine
 10
78.8705503829
 20
200.6403416636
 30
0.0
 11
78.8705503829
 21
205.6403416636
 31
0.0
  0
LINE
  5
7E
330
1F
100
AcDbEntity
  8
0
  6
Continuous
 62
     7
370
    30
100
AcDbLine
 10
78.0705503829
 20
205.6403416636
 30
0.0
 11
78.0705503829
 21
200.6403416636
 31
0.0
  0
LINE
  5
7F
330
1F
100
AcDbEntity
  8
0
  6
Continuous
 62
     7
370
    30
100
AcDbLine
 10
73.8655503829
 20
200.6403416636
 30
0.0
 11
73.8655503829
 21
195.8403981265
 31
0.0
  0
LINE
  5
80
330
1F
100
AcDbEntity
  8
0
  6
Continuous
 62
     7
370
    30
100
AcDbLine
 10
74.6755503829
 20
195.9369133809
 30
0.0
 11
74.6755503829
 21
200.6403416636
 31
0.0
  0
LINE
  5
81
330
1F
100
AcDbEntity
  8
0
  6
Continuous
 62
     7
370
    30
100
AcDbLine
 10
74.4705503829
 20
200.6403416636
 30
0.0
 11
74.4705503829
 21
205.6403416636
 31
0.0
  0
LINE
  5
82
330
1F
100
AcDbEntity
  8
0
  6
Continuous
 62
     7
370
    30
100
AcDbLine
 10
74.0705503829
 20
205.6403416636
 30
0.0
 11
74.0705503829
 21
200.6403416636
 31
0.0
  0
LINE
  5
83
330
1F
100
AcDbEntity
  8
0
  6
Continuous
 62
     7
370
    30
100
AcDbLine
 10
80.4705503829
 20
205.6403416636
 30
0.0
 11
80.4705503829
 21
200.6403416636
 31
0.0
  0
LINE
  5
84
330
1F
100
AcDbEntity
  8
0
  6
Continuous
 62
     7
370
    30
100
AcDbLine
 10
75.2655503829
 20
200.6403416636
 30
0.0
 11
75.2655503829
 21
195.9953692409
 31
0.0
  0
LINE
  5
85
330
1F
100
AcDbEntity
  8
0
  6
Continuous
 62
     7
370
    30
100
AcDbLine
 10
76.0755503829
 20
196.0594604414
 30
0.0
 11
76.0755503829
 21
200.6403416636
 31
0.0
  0
LINE
  5
86
330
1F
100
AcDbEntity
  8
0
  6
Continuous
 62
     7
370
    30
100
AcDbLine
 10
75.8705503829
 20
200.6403416636
 30
0.0
 11
75.8705503829
 21
205.6403416636
 31
0.0
  0
LINE
  5
87
330
1F
100
AcDbEntity
  8
0
  6
Continuous
 62
     7
370
    30
100
AcDbLine
 10
75.4705503829
 20
205.6403416636
 30
0.0
 11
75.4705503829
 21
200.6403416636
 31
0.0
  0
LINE
  5
88
330
1F
100
AcDbEntity
  8
0
  6
Continuous
 62
     7
370
    30
100
AcDbLine
 10
79.4655503829
 20
200.6403416636
 30
0.0
 11
79.4655503829
 21
196.1263949099
 31
0.0
  0
LINE
  5
89
330
1F
100
AcDbEntity
  8
0
  6
Continuous
 62
     7
370
    30
100
AcDbLine
 10
80.2755503829
 20
196.0944242917
 30
0.0
 11
80.2755503829
 21
200.6403416636
 31
0.0
  0
LINE
  5
8A
330
1F
100
AcDbEntity
  8
0
  6
Continuous
 62
     7
370
    30
100
AcDbLine
 10
80.0705503829
 20
200.6403416636
 30
0.0
 11
80.0705503829
 21
205.6403416636
 31
0.0
  0
LINE
  5
8B
330
1F
100
AcDbEntity
  8
0
  6
Continuous
 62
     7
370
    30
100
AcDbLine
 10
79.6705503829
 20
205.6403416636
 30
0.0
 11
79.6705503829
 21
200.6403416636
 31
0.0
  0
LINE
  5
8C
330
1F
100
AcDbEntity
  8
0
  6
Continuous
 62
     7
370
    30
100
AcDbLine
 10
80.8655503829
 20
200.6403416636
 30
0.0
 11
80.8655503829
 21
196.0594604414
 31
0.0
  0
LINE
  5
8D
330
1F
100
AcDbEntity
  8
0
  6
Continuous
 62
     7
370
    30
100
AcDbLine
 10
81.6755503829
 20
195.9953692409
 30
0.0
 11
81.6755503829
 21
200.6403416636
 31
0.0
  0
LINE
  5
8E
330
1F
100
AcDbEntity
  8
0
  6
Continuous
 62
     7
370
    30
100
AcDbLine
 10
81.4705503829
 20
200.6403416636
 30
0.0
 11
81.4705503829
 21
205.6403416636
 31
0.0
  0
LINE
  5
8F
330
1F
100
AcDbEntity
  8
0
  6
Continuous
 62
     7
370
    30
100
AcDbLine
 10
81.0705503829
 20
205.6403416636
 30
0.0
 11
81.0705503829
 21
200.6403416636
 31
0.0
  0
LINE
  5
90
330
1F
100
AcDbEntity
  8
0
  6
Continuous
 62
     7
370
    30
100
AcDbLine
 10
76.6655503829
 20
200.6403416636
 30
0.0
 11
76.6655503829
 21
196.0944242917
 31
0.0
  0
LINE
  5
91
330
1F
100
AcDbEntity
  8
0
  6
Continuous
 62
     7
370
    30
100
AcDbLine
 10
77.4755503829
 20
196.1263949099
 30
0.0
 11
77.4755503829
 21
200.6403416636
 31
0.0
  0
LINE
  5
92
330
1F
100
AcDbEntity
  8
0
  6
Continuous
 62
     7
370
    30
100
AcDbLine
 10
77.2705503829
 20
200.6403416636
 30
0.0
 11
77.2705503829
 21
205.6403416636
 31
0.0
  0
LINE
  5
93
330
1F
100
AcDbEntity
  8
0
  6
Continuous
 62
     7
370
    30
100
AcDbLine
 10
76.8705503829
 20
205.6403416636
 30
0.0
 11
76.8705503829
 21
200.6403416636
 31
0.0
  0
LINE
  5
94
330
1F
100
AcDbEntity
  8
0
  6
Continuous
 62
     7
370
    30
100
AcDbLine
 10
82.2655503829
 20
200.6403416636
 30
0.0
 11
82.2655503829
 21
195.9369133809
 31
0.0
  0
LINE
  5
95
330
1F
100
AcDbEntity
  8
0
  6
Continuous
 62
     7
370
    30
100
AcDbLine
 10
83.0755503829
 20
195.8403981265
 30
0.0
 11
83.0755503829
 21
200.6403416636
 31
0.0
  0
LINE
  5
96
330
1F
100
AcDbEntity
  8
0
  6
Continuous
 62
     7
370
    30
100
AcDbLine
 10
82.8705503829
 20
200.6403416636
 30
0.0
 11
82.8705503829
 21
205.6403416636
 31
0.0
  0
LINE
  5
97
330
1F
100
AcDbEntity
  8
0
  6
Continuous
 62
     7
370
    30
100
AcDbLine
 10
82.4705503829
 20
205.6403416636
 30
0.0
 11
82.4705503829
 21
200.6403416636
 31
0.0
  0
CIRCLE
  5
98
330
1F
100
AcDbEntity
  8
0
  6
Continuous
 62
     7
370
    30
100
AcDbCircle
 10
78.4705503829
 20
160.6403416636
 30
0.0
 40
13.07735026918964
  0
CIRCLE
  5
99
330
1F
100
AcDbEntity
  8
0
  6
Continuous
 62
     7
370
    30
100
AcDbCircle
 10
78.4705503829
 20
178.1403416636
 30
0.0
 40
1.249999999999986
  0
CIRCLE
  5
9A
330
1F
100
AcDbEntity
  8
0
  6
Continuous
 62
     7
370
    30
100
AcDbCircle
 10
60.9705503829
 20
160.6403416636
 30
0.0
 40
1.249999999999986
  0
CIRCLE
  5
9B
330
1F
100
AcDbEntity
  8
0
  6
Continuous
 62
     7
370
    30
100
AcDbCircle
 10
78.4705503829
 20
143.1403416636
 30
0.0
 40
1.249999999999986
  0
CIRCLE
  5
9C
330
1F
100
AcDbEntity
  8
0
  6
Continuous
 62
     7
370
    30
100
AcDbCircle
 10
95.9705503829
 20
160.6403416636
 30
0.0
 40
1.249999999999986
  0
CIRCLE
  5
9D
330
1F
100
AcDbEntity
  8
0
  6
Continuous
 62
     7
370
    30
100
AcDbCircle
 10
71.7735903165
 20
176.8082334825
 30
0.0
 40
1.5
  0
CIRCLE
  5
9E
330
1F
100
AcDbEntity
  8
0
  6
Continuous
 62
     7
370
    30
100
AcDbCircle
 10
78.4705503829
 20
160.6403416636
 30
0.0
 40
21.5
  0
CIRCLE
  5
9F
330
1F
100
AcDbEntity
  8
0
  6
Continuous
 62
     7
370
    30
100
AcDbCircle
 10
78.4705503829
 20
160.6403416636
 30
0.0
 40
12.5
  0
CIRCLE
  5
A0
330
1F
100
AcDbEntity
  8
0
  6
Continuous
 62
     7
370
    30
100
AcDbCircle
 10
78.4705503829
 20
160.6403416636
 30
0.0
 40
28.0389072727513
  0
CIRCLE
  5
A1
330
1F
100
AcDbEntity
  8
0
  6
Continuous
 62
     7
370
    30
100
AcDbCircle
 10
78.4705503829
 20
160.6403416636
 30
0.0
 40
28.43890727275132
  0
CIRCLE
  5
A2
330
1F
100
AcDbEntity
  8
0
  6
Continuous
 62
     7
370
    30
100
AcDbCircle
 10
78.4705503829
 20
160.6403416636
 30
0.0
 40
26.60000000000007
  0
CIRCLE
  5
A3
330
1F
100
AcDbEntity
  8
0
  6
Continuous
 62
     7
370
    30
100
AcDbCircle
 10
78.4705503829
 20
160.6403416636
 30
0.0
 40
28.50000000000005
  0
CIRCLE
  5
A4
330
1F
100
AcDbEntity
  8
0
  6
Continuous
 62
     7
370
    30
100
AcDbCircle
 10
78.4705503829
 20
160.6403416636
 30
0.0
 40
28.70000000000008
  0
CIRCLE
  5
A5
330
1F
100
AcDbEntity
  8
0
  6
Continuous
 62
     7
370
    30
100
AcDbCircle
 10
78.4705503829
 20
160.6403416636
 30
0.0
 40
29.00000000000006
  0
CIRCLE
  5
A6
330
1F
100
AcDbEntity
  8
0
  6
Continuous
 62
     7
370
    30
100
AcDbCircle
 10
70.1883409396
 20
129.7307152223
 30
0.0
 40
1.799999999999996
  0
CIRCLE
  5
A7
330
1F
100
AcDbEntity
  8
0
  6
Continuous
 62
     7
370
    30
100
AcDbCircle
 10
70.1883409396
 20
129.7307152223
 30
0.0
 40
1.25000000000002
  0
CIRCLE
  5
A8
330
1F
100
AcDbEntity
  8
0
  6
Continuous
 62
     7
370
    30
100
AcDbCircle
 10
101.0979673808
 20
183.2677586615
 30
0.0
 40
2.049999999999998
  0
CIRCLE
  5
A9
330
1F
100
AcDbEntity
  8
0
  6
Continuous
 62
     7
370
    30
100
AcDbCircle
 10
101.0979673808
 20
138.0129246656
 30
0.0
 40
2.049999999999998
  0
CIRCLE
  5
AA
330
1F
100
AcDbEntity
  8
0
  6
Continuous
 62
     7
370
    30
100
AcDbCircle
 10
55.8431333849
 20
138.0129246656
 30
0.0
 40
2.050000000000004
  0
CIRCLE
  5
AB
330
1F
100
AcDbEntity
  8
0
  6
Continuous
 62
     7
370
    30
100
AcDbCircle
 10
55.8431333849
 20
183.2677586615
 30
0.0
 40
2.049999999999998
  0
CIRCLE
  5
AC
330
1F
100
AcDbEntity
  8
0
  6
Continuous
 62
     7
370
    30
100
AcDbCircle
 10
86.7527598261
 20
191.5499681048
 30
0.0
 40
1.799999999999986
  0
CIRCLE
  5
AD
330
1F
100
AcDbEntity
  8
0
  6
Continuous
 62
     7
370
    30
100
AcDbCircle
 10
109.3801768241
 20
152.3581322203
 30
0.0
 40
1.800000000000006
  0
CIRCLE
  5
AE
330
1F
100
AcDbEntity
  8
0
  6
Continuous
 62
     7
370
    30
100
AcDbCircle
 10
47.5609239416
 20
168.9225511068
 30
0.0
 40
1.800000000000006
  0
CIRCLE
  5
AF
330
1F
100
AcDbEntity
  8
0
  6
Continuous
 62
     7
370
    30
100
AcDbCircle
 10
78.4705503829
 20
160.6403416636
 30
0.0
 40
35.20000000000007
  0
CIRCLE
  5
B0
330
1F
100
AcDbEntity
  8
0
  6
Continuous
 62
     7
370
    30
100
AcDbCircle
 10
78.4705503829
 20
160.6403416636
 30
0.0
 40
35.50000000000006
  0
CIRCLE
  5
B1
330
1F
100
AcDbEntity
  8
0
  6
Continuous
 62
     7
370
    30
100
AcDbCircle
 10
109.3801768241
 20
152.3581322203
 30
0.0
 40
1.25000000000001
  0
CIRCLE
  5
B2
330
1F
100
AcDbEntity
  8
0
  6
Continuous
 62
     7
370
    30
100
AcDbCircle
 10
55.8431333849
 20
183.2677586615
 30
0.0
 40
1.749999999999999
  0
CIRCLE
  5
B3
330
1F
100
AcDbEntity
  8
0
  6
Continuous
 62
     7
370
    30
100
AcDbCircle
 10
101.0979673808
 20
183.2677586615
 30
0.0
 40
1.750000000000004
  0
CIRCLE
  5
B4
330
1F
100
AcDbEntity
  8
0
  6
Continuous
 62
     7
370
    30
100
AcDbCircle
 10
101.0979673808
 20
138.0129246656
 30
0.0
 40
1.750000000000004
  0
CIRCLE
  5
B5
330
1F
100
AcDbEntity
  8
0
  6
Continuous
 62
     7
370
    30
100
AcDbCircle
 10
86.7527598261
 20
191.5499681048
 30
0.0
 40
1.24999999999999
  0
CIRCLE
  5
B6
330
1F
100
AcDbEntity
  8
0
  6
Continuous
 62
     7
370
    30
100
AcDbCircle
 10
47.5609239416
 20
168.9225511068
 30
0.0
 40
1.25000000000001
  0
CIRCLE
  5
B7
330
1F
100
AcDbEntity
  8
0
  6
Continuous
 62
     7
370
    30
100
AcDbCircle
 10
55.8431333849
 20
138.0129246656
 30
0.0
 40
1.750000000000009
  0
CIRCLE
  5
B8
330
1F
100
AcDbEntity
  8
0
  6
Continuous
 62
     7
370
    30
100
AcDbCircle
 10
70.1883409396
 20
129.7307152223
 30
0.0
 40
1.229499999999994
  0
CIRCLE
  5
B9
330
1F
100
AcDbEntity
  8
0
  6
Continuous
 62
     7
370
    30
100
AcDbCircle
 10
109.3801768241
 20
152.3581322203
 30
0.0
 40
1.229499999999994
  0
CIRCLE
  5
BA
330
1F
100
AcDbEntity
  8
0
  6
Continuous
 62
     7
370
    30
100
AcDbCircle
 10
86.7527598261
 20
191.5499681048
 30
0.0
 40
1.229500000000022
  0
CIRCLE
  5
BB
330
1F
100
AcDbEntity
  8
0
  6
Continuous
 62
     7
370
    30
100
AcDbCircle
 10
47.5609239416
 20
168.9225511068
 30
0.0
 40
1.229499999999967
  0
CIRCLE
  5
BC
330
1F
100
AcDbEntity
  8
0
  6
Continuous
 62
     7
370
    30
100
AcDbCircle
 10
78.4705503829
 20
160.6403416636
 30
0.0
 40
25.70000000000002
  0
CIRCLE
  5
BD
330
1F
100
AcDbEntity
  8
0
  6
Continuous
 62
     7
370
    30
100
AcDbCircle
 10
78.4705503829
 20
160.6403416636
 30
0.0
 40
25.45017662390524
  0
CIRCLE
  5
BE
330
1F
100
AcDbEntity
  8
0
  6
Continuous
 62
     7
370
    30
100
AcDbCircle
 10
78.4705503829
 20
160.6403416636
 30
0.0
 40
26.09999999999999
  0
CIRCLE
  5
BF
330
1F
100
AcDbEntity
  8
0
  6
Continuous
 62
     7
370
    30
100
AcDbCircle
 10
78.4705503829
 20
160.6403416636
 30
0.0
 40
22.15167225423458
  0
CIRCLE
  5
C0
330
1F
100
AcDbEntity
  8
0
  6
Continuous
 62
     7
370
    30
100
AcDbCircle
 10
78.4705503829
 20
160.6403416636
 30
0.0
 40
23.9168432905719
  0
CIRCLE
  5
C1
330
1F
100
AcDbEntity
  8
0
  6
Continuous
 62
     7
370
    30
100
AcDbCircle
 10
78.4705503829
 20
160.6403416636
 30
0.0
 40
21.61666666666667
  0
CIRCLE
  5
C2
330
1F
100
AcDbEntity
  8
0
  6
Continuous
 62
     7
370
    30
100
AcDbCircle
 10
101.0979673808
 20
138.0129246656
 30
0.0
 40
1.700000000000003
  0
CIRCLE
  5
C3
330
1F
100
AcDbEntity
  8
0
  6
Continuous
 62
     7
370
    30
100
AcDbCircle
 10
55.8431333849
 20
138.0129246656
 30
0.0
 40
1.699999999999989
  0
CIRCLE
  5
C4
330
1F
100
AcDbEntity
  8
0
  6
Continuous
 62
     7
370
    30
100
AcDbCircle
 10
55.8431333849
 20
183.2677586615
 30
0.0
 40
1.699999999999989
  0
CIRCLE
  5
C5
330
1F
100
AcDbEntity
  8
0
  6
Continuous
 62
     7
370
    30
100
AcDbCircle
 10
101.0979673808
 20
183.2677586615
 30
0.0
 40
1.699999999999974
  0
LINE
  5
C6
330
1F
100
AcDbEntity
  8
0
  6
Continuous
 62
     7
370
    30
100
AcDbLine
 10
76.0705503829
 20
200.6403416636
 30
0.0
 11
76.6655503829
 21
200.6403416636
 31
0.0
  0
LINE
  5
C7
330
1F
100
AcDbEntity
  8
0
  6
Continuous
 62
     7
370
    30
100
AcDbLine
 10
76.0705503829
 20
205.6403416636
 30
0.0
 11
76.4705503829
 21
205.6403416636
 31
0.0
  0
LINE
  5
C8
330
1F
100
AcDbEntity
  8
0
  6
Continuous
 62
     7
370
    30
100
AcDbLine
 10
75.8705503829
 20
205.6403416636
 30
0.0
 11
76.0705503829
 21
205.6403416636
 31
0.0
  0
LINE
  5
C9
330
1F
100
AcDbEntity
  8
0
  6
Continuous
 62
     7
370
    30
100
AcDbLine
 10
78.4705503829
 20
200.6403416636
 30
0.0
 11
79.2105503829
 21
200.6403416636
 31
0.0
  0
LINE
  5
CA
330
1F
100
AcDbEntity
  8
0
  6
Continuous
 62
     7
370
    30
100
AcDbLine
 10
77.7305503829
 20
200.6403416636
 30
0.0
 11
78.4705503829
 21
200.6403416636
 31
0.0
  0
LINE
  5
CB
330
1F
100
AcDbEntity
  8
0
  6
Continuous
 62
     7
370
    30
100
AcDbLine
 10
78.4705503829
 20
205.6403416636
 30
0.0
 11
78.8705503829
 21
205.6403416636
 31
0.0
  0
LINE
  5
CC
330
1F
100
AcDbEntity
  8
0
  6
Continuous
 62
     7
370
    30
100
AcDbLine
 10
78.0705503829
 20
205.6403416636
 30
0.0
 11
78.4705503829
 21
205.6403416636
 31
0.0
  0
LINE
  5
CD
330
1F
100
AcDbEntity
  8
0
  6
Continuous
 62
     7
370
    30
100
AcDbLine
 10
74.2705503829
 20
200.6403416636
 30
0.0
 11
74.6755503829
 21
200.6403416636
 31
0.0
  0
LINE
  5
CE
330
1F
100
AcDbEntity
  8
0
  6
Continuous
 62
     7
370
    30
100
AcDbLine
 10
73.8655503829
 20
200.6403416636
 30
0.0
 11
74.2705503829
 21
200.6403416636
 31
0.0
  0
LINE
  5
CF
330
1F
100
AcDbEntity
  8
0
  6
Continuous
 62
     7
370
    30
100
AcDbLine
 10
74.2705503829
 20
205.6403416636
 30
0.0
 11
74.4705503829
 21
205.6403416636
 31
0.0
  0
LINE
  5
D0
330
1F
100
AcDbEntity
  8
0
  6
Continuous
 62
     7
370
    30
100
AcDbLine
 10
74.0705503829
 20
205.6403416636
 30
0.0
 11
74.2705503829
 21
205.6403416636
 31
0.0
  0
LINE
  5
D1
330
1F
100
AcDbEntity
  8
0
  6
Continuous
 62
     7
370
    30
100
AcDbLine
 10
80.2755503829
 20
200.6403416636
 30
0.0
 11
80.8705503829
 21
200.6403416636
 31
0.0
  0
LINE
  5
D2
330
1F
100
AcDbEntity
  8
0
  6
Continuous
 62
     7
370
    30
100
AcDbLine
 10
80.8705503829
 20
205.6403416636
 30
0.0
 11
81.0705503829
 21
205.6403416636
 31
0.0
  0
LINE
  5
D3
330
1F
100
AcDbEntity
  8
0
  6
Continuous
 62
     7
370
    30
100
AcDbLine
 10
80.4705503829
 20
205.6403416636
 30
0.0
 11
80.8705503829
 21
205.6403416636
 31
0.0
  0
LINE
  5
D4
330
1F
100
AcDbEntity
  8
0
  6
Continuous
 62
     7
370
    30
100
AcDbLine
 10
75.6705503829
 20
200.6403416636
 30
0.0
 11
76.0755503829
 21
200.6403416636
 31
0.0
  0
LINE
  5
D5
330
1F
100
AcDbEntity
  8
0
  6
Continuous
 62
     7
370
    30
100
AcDbLine
 10
75.2655503829
 20
200.6403416636
 30
0.0
 11
75.6705503829
 21
200.6403416636
 31
0.0
  0
LINE
  5
D6
330
1F
100
AcDbEntity
  8
0
  6
Continuous
 62
     7
370
    30
100
AcDbLine
 10
75.6705503829
 20
205.6403416636
 30
0.0
 11
75.8705503829
 21
205.6403416636
 31
0.0
  0
LINE
  5
D7
330
1F
100
AcDbEntity
  8
0
  6
Continuous
 62
     7
370
    30
100
AcDbLine
 10
75.4705503829
 20
205.6403416636
 30
0.0
 11
75.6705503829
 21
205.6403416636
 31
0.0
  0
LINE
  5
D8
330
1F
100
AcDbEntity
  8
0
  6
Continuous
 62
     7
370
    30
100
AcDbLine
 10
79.8705503829
 20
200.6403416636
 30
0.0
 11
80.2755503829
 21
200.6403416636
 31
0.0
  0
LINE
  5
D9
330
1F
100
AcDbEntity
  8
0
  6
Continuous
 62
     7
370
    30
100
AcDbLine
 10
79.4655503829
 20
200.6403416636
 30
0.0
 11
79.8705503829
 21
200.6403416636
 31
0.0
  0
LINE
  5
DA
330
1F
100
AcDbEntity
  8
0
  6
Continuous
 62
     7
370
    30
100
AcDbLine
 10
79.8705503829
 20
205.6403416636
 30
0.0
 11
80.0705503829
 21
205.6403416636
 31
0.0
  0
LINE
  5
DB
330
1F
100
AcDbEntity
  8
0
  6
Continuous
 62
     7
370
    30
100
AcDbLine
 10
79.6705503829
 20
205.6403416636
 30
0.0
 11
79.8705503829
 21
205.6403416636
 31
0.0
  0
LINE
  5
DC
330
1F
100
AcDbEntity
  8
0
  6
Continuous
 62
     7
370
    30
100
AcDbLine
 10
81.2705503829
 20
200.6403416636
 30
0.0
 11
81.6755503829
 21
200.6403416636
 31
0.0
  0
LINE
  5
DD
330
1F
100
AcDbEntity
  8
0
  6
Continuous
 62
     7
370
    30
100
AcDbLine
 10
80.8655503829
 20
200.6403416636
 30
0.0
 11
81.2705503829
 21
200.6403416636
 31
0.0
  0
LINE
  5
DE
330
1F
100
AcDbEntity
  8
0
  6
Continuous
 62
     7
370
    30
100
AcDbLine
 10
81.2705503829
 20
205.6403416636
 30
0.0
 11
81.4705503829
 21
205.6403416636
 31
0.0
  0
LINE
  5
DF
330
1F
100
AcDbEntity
  8
0
  6
Continuous
 62
     7
370
    30
100
AcDbLine
 10
81.0705503829
 20
205.6403416636
 30
0.0
 11
81.2705503829
 21
205.6403416636
 31
0.0
  0
LINE
  5
E0
330
1F
100
AcDbEntity
  8
0
  6
Continuous
 62
     7
370
    30
100
AcDbLine
 10
77.0705503829
 20
200.6403416636
 30
0.0
 11
77.4755503829
 21
200.6403416636
 31
0.0
  0
LINE
  5
E1
330
1F
100
AcDbEntity
  8
0
  6
Continuous
 62
     7
370
    30
100
AcDbLine
 10
76.6655503829
 20
200.6403416636
 30
0.0
 11
77.0705503829
 21
200.6403416636
 31
0.0
  0
LINE
  5
E2
330
1F
100
AcDbEntity
  8
0
  6
Continuous
 62
     7
370
    30
100
AcDbLine
 10
77.0705503829
 20
205.6403416636
 30
0.0
 11
77.2705503829
 21
205.6403416636
 31
0.0
  0
LINE
  5
E3
330
1F
100
AcDbEntity
  8
0
  6
Continuous
 62
     7
370
    30
100
AcDbLine
 10
76.8705503829
 20
205.6403416636
 30
0.0
 11
77.0705503829
 21
205.6403416636
 31
0.0
  0
LINE
  5
E4
330
1F
100
AcDbEntity
  8
0
  6
Continuous
 62
     7
370
    30
100
AcDbLine
 10
82.6705503829
 20
200.6403416636
 30
0.0
 11
83.0755503829
 21
200.6403416636
 31
0.0
  0
LINE
  5
E5
330
1F
100
AcDbEntity
  8
0
  6
Continuous
 62
     7
370
    30
100
AcDbLine
 10
82.2655503829
 20
200.6403416636
 30
0.0
 11
82.6705503829
 21
200.6403416636
 31
0.0
  0
LINE
  5
E6
330
1F
100
AcDbEntity
  8
0
  6
Continuous
 62
     7
370
    30
100
AcDbLine
 10
82.6705503829
 20
205.6403416636
 30
0.0
 11
82.8705503829
 21
205.6403416636
 31
0.0
  0
LINE
  5
E7
330
1F
100
AcDbEntity
  8
0
  6
Continuous
 62
     7
370
    30
100
AcDbLine
 10
82.4705503829
 20
205.6403416636
 30
0.0
 11
82.6705503829
 21
205.6403416636
 31
0.0
  0
SPLINE
  5
E8
330
1F
100
AcDbEntity
  8
0
  6
Continuous
 62
     1
370
    15
100
AcDbSpline
210
0.0
220
0.0
230
1.0
 70
     8
 71
     3
 72
     8
 73
     4
 74
     0
 42
0.000000001
 43
0.00000001
 40
0.0
 40
0.0
 40
0.0
 40
0.0
 40
1.0
 40
1.0
 40
1.0
 40
1.0
 10
72.58344156987218
 20
199.1456516540714
 30
0.0
 10
76.32546060494487
 20
195.9776158233237
 30
0.0
 10
80.64330603386362
 20
201.3269877738634
 30
0.0
 10
84.61357099153823
 20
198.054070912597
 30
0.0
  0
SPLINE
  5
E9
330
1F
100
AcDbEntity
  8
0
  6
Continuous
 62
     1
370
    15
100
AcDbSpline
210
0.0
220
0.0
230
1.0
 70
     8
 71
     3
 72
    17
 73
    13
 74
     0
 42
0.000000001
 43
0.00000001
 40
0.0
 40
0.0
 40
0.0
 40
0.0
 40
0.0625
 40
0.125
 40
0.25
 40
0.375
 40
0.5
 40
0.625
 40
0.75
 40
0.875
 40
0.9375
 40
1.0
 40
1.0
 40
1.0
 40
1.0
 10
72.26036871611687
 20
198.7640446164445
 30
0.0
 10
72.50413901978654
 20
198.5576659077155
 30
0.0
 10
73.04544457187977
 20
198.1766238738113
 30
0.0
 10
74.11753724868014
 20
197.7039983256646
 30
0.0
 10
75.49516409656712
 20
197.5258531359769
 30
0.0
 10
77.09298165575922
 20
197.7499818919532
 30
0.0
 10
78.6465841408221
 20
198.1588586727796
 30
0.0
 10
80.1542848635081
 20
198.5465826515478
 30
0.0
 10
81.59375114399502
 20
198.7226611734578
 30
0.0
 10
82.73000581098735
 20
198.5556047698249
 30
0.0
 10
83.61174099408628
 20
198.168523210287
 30
0.0
 10
84.08420566384497
 20
197.8424669288714
 30
0.0
 10
84.29552707947188
 20
197.6682625793569
 30
0.0
  0
INSERT
  5
109
330
1F
100
AcDbEntity
  8
0
  6
Continuous
 62
     7
370
     0
100
AcDbBlockReference
  2
SW_CENTERMARKSYMBOL_0
 10
101.0979673808
 20
183.2677586615
 30
0.0
  0
INSERT
  5
12D
330
1F
100
AcDbEntity
  8
0
  6
Continuous
 62
     7
370
     0
100
AcDbBlockReference
  2
SW_CENTERMARKSYMBOL_1
 10
86.7527598261
 20
191.5499681048
 30
0.0
  0
INSERT
  5
14D
330
1F
100
AcDbEntity
  8
0
  6
Continuous
 62
     7
370
     0
100
AcDbBlockReference
  2
SW_CENTERMARKSYMBOL_2
 10
78.4705503829
 20
178.1403416636
 30
0.0
  0
INSERT
  5
159
330
1F
100
AcDbEntity
  8
0
  6
Continuous
 62
     7
370
     0
100
AcDbBlockReference
  2
SW_CENTERMARKSYMBOL_3
 10
78.4705503829
 20
160.6403416636
 30
0.0
  0
INSERT
  5
165
330
1F
100
AcDbEntity
  8
0
  6
Continuous
 62
     7
370
     0
100
AcDbBlockReference
  2
SW_CENTERMARKSYMBOL_4
 10
71.7735903165
 20
176.8082334825
 30
0.0
  0
CIRCLE
  5
166
330
1F
100
AcDbEntity
  8
0
  6
Continuous
 62
     7
370
     0
100
AcDbCircle
 10
86.7527598261
 20
191.5499681048
 30
0.0
 40
1.229500437755775
  0
CIRCLE
  5
167
330
1F
100
AcDbEntity
  8
0
  6
Continuous
 62
     7
370
     0
100
AcDbCircle
 10
109.3801768241
 20
152.3581322203
 30
0.0
 40
1.229500437755689
  0
CIRCLE
  5
168
330
1F
100
AcDbEntity
  8
0
  6
Continuous
 62
     7
370
     0
100
AcDbCircle
 10
70.1883409396
 20
129.7307152223
 30
0.0
 40
1.229500437755576
  0
CIRCLE
  5
169
330
1F
100
AcDbEntity
  8
0
  6
Continuous
 62
     7
370
     0
100
AcDbCircle
 10
47.5609239416
 20
168.9225511068
 30
0.0
 40
1.229500437755455
  0
CIRCLE
  5
16A
330
1F
100
AcDbEntity
  8
0
  6
Continuous
 62
     7
370
     0
100
AcDbCircle
 10
86.7527598261
 20
191.5499681048
 30
0.0
 40
1.499999617805415
  0
CIRCLE
  5
16B
330
1F
100
AcDbEntity
  8
0
  6
Continuous
 62
     7
370
     0
100
AcDbCircle
 10
109.3801768241
 20
152.3581322203
 30
0.0
 40
1.500000549306662
  0
CIRCLE
  5
16C
330
1F
100
AcDbEntity
  8
0
  6
Continuous
 62
     7
370
     0
100
AcDbCircle
 10
70.1883409396
 20
129.7307152223
 30
0.0
 40
1.499999942610586
  0
CIRCLE
  5
16D
330
1F
100
AcDbEntity
  8
0
  6
Continuous
 62
     7
370
     0
100
AcDbCircle
 10
47.5609239416
 20
168.9225511068
 30
0.0
 40
1.499999942431664
  0
CIRCLE
  5
16E
330
1F
100
AcDbEntity
  8
0
  6
Continuous
 62
     7
370
     0
100
AcDbCircle
 10
78.4705503829
 20
178.1403416636
 30
0.0
 40
1.500000013038516
  0
CIRCLE
  5
16F
330
1F
100
AcDbEntity
  8
0
  6
Continuous
 62
     7
370
     0
100
AcDbCircle
 10
60.9705503829
 20
160.6403416636
 30
0.0
 40
1.500000013038573
  0
CIRCLE
  5
170
330
1F
100
AcDbEntity
  8
0
  6
Continuous
 62
     7
370
     0
100
AcDbCircle
 10
78.4705503829
 20
143.1403416636
 30
0.0
 40
1.500000013038516
  0
CIRCLE
  5
171
330
1F
100
AcDbEntity
  8
0
  6
Continuous
 62
     7
370
     0
100
AcDbCircle
 10
95.9705503829
 20
160.6403416636
 30
0.0
 40
1.500000013038715
  0
INSERT
  5
178
330
1F
100
AcDbEntity
  8
0
  6
Continuous
 62
     7
370
     0
100
AcDbBlockReference
  2
SW_DOWELSYMBOL_0
 10
71.7735903165
 20
176.8082334825
 30
0.0
  0
CIRCLE
  5
179
330
1F
100
AcDbEntity
  8
0
  6
Continuous
 62
     7
100
AcDbCircle
 10
353.6809405789
 20
190.8048693785
 30
0.0
 40
2.000000000000049
  0
LINE
  5
17A
330
1F
100
AcDbEntity
  8
0
  6
Continuous
 62
     7
370
    30
100
AcDbLine
 10
344.6591210835
 20
200.6403416636
 30
0.0
 11
344.6591210835
 21
187.2979201315
 31
0.0
  0
LINE
  5
17B
330
1F
100
AcDbEntity
  8
0
  6
Continuous
 62
     7
370
    30
100
AcDbLine
 10
346.1391210835
 20
187.1884452362
 30
0.0
 11
346.1391210835
 21
200.6403416636
 31
0.0
  0
LINE
  5
17C
330
1F
100
AcDbEntity
  8
0
  6
Continuous
 62
     7
370
    30
100
AcDbLine
 10
345.7991210835
 20
200.6403416636
 30
0.0
 11
345.7991210835
 21
205.6403416636
 31
0.0
  0
LINE
  5
17D
330
1F
100
AcDbEntity
  8
0
  6
Continuous
 62
     7
370
    30
100
AcDbLine
 10
344.9991210835
 20
205.6403416636
 30
0.0
 11
344.9991210835
 21
200.6403416636
 31
0.0
  0
LINE
  5
17E
330
1F
100
AcDbEntity
  8
0
  6
Continuous
 62
     7
370
    30
100
AcDbLine
 10
342.2591210835
 20
200.6403416636
 30
0.0
 11
342.2591210835
 21
187.3321294226
 31
0.0
  0
LINE
  5
17F
330
1F
100
AcDbEntity
  8
0
  6
Continuous
 62
     7
370
    30
100
AcDbLine
 10
343.7391210835
 20
187.3319433216
 30
0.0
 11
343.7391210835
 21
200.6403416636
 31
0.0
  0
LINE
  5
180
330
1F
100
AcDbEntity
  8
0
  6
Continuous
 62
     7
370
    30
100
AcDbLine
 10
343.3991210835
 20
200.6403416636
 30
0.0
 11
343.3991210835
 21
205.6403416636
 31
0.0
  0
LINE
  5
181
330
1F
100
AcDbEntity
  8
0
  6
Continuous
 62
     7
370
    30
100
AcDbLine
 10
342.5991210835
 20
205.6403416636
 30
0.0
 11
342.5991210835
 21
200.6403416636
 31
0.0
  0
LINE
  5
182
330
1F
100
AcDbEntity
  8
0
  6
Continuous
 62
     7
370
    30
100
AcDbLine
 10
346.7941210835
 20
200.6403416636
 30
0.0
 11
346.7941210835
 21
187.1180115764
 31
0.0
  0
LINE
  5
183
330
1F
100
AcDbEntity
  8
0
  6
Continuous
 62
     7
370
    30
100
AcDbLine
 10
347.6041210835
 20
187.0126046924
 30
0.0
 11
347.6041210835
 21
200.6403416636
 31
0.0
  0
LINE
  5
184
330
1F
100
AcDbEntity
  8
0
  6
Continuous
 62
     7
370
    30
100
AcDbLine
 10
347.3991210835
 20
200.6403416636
 30
0.0
 11
347.3991210835
 21
205.6403416636
 31
0.0
  0
LINE
  5
185
330
1F
100
AcDbEntity
  8
0
  6
Continuous
 62
     7
370
    30
100
AcDbLine
 10
346.9991210835
 20
205.6403416636
 30
0.0
 11
346.9991210835
 21
200.6403416636
 31
0.0
  0
LINE
  5
186
330
1F
100
AcDbEntity
  8
0
  6
Continuous
 62
     7
370
    30
100
AcDbLine
 10
339.8591210835
 20
200.6403416636
 30
0.0
 11
339.8591210835
 21
187.1892242514
 31
0.0
  0
LINE
  5
187
330
1F
100
AcDbEntity
  8
0
  6
Continuous
 62
     7
370
    30
100
AcDbLine
 10
341.3391210835
 20
187.2979201315
 30
0.0
 11
341.3391210835
 21
200.6403416636
 31
0.0
  0
LINE
  5
188
330
1F
100
AcDbEntity
  8
0
  6
Continuous
 62
     7
370
    30
100
AcDbLine
 10
340.9991210835
 20
200.6403416636
 30
0.0
 11
340.9991210835
 21
205.6403416636
 31
0.0
  0
LINE
  5
189
330
1F
100
AcDbEntity
  8
0
  6
Continuous
 62
     7
370
    30
100
AcDbLine
 10
340.1991210835
 20
205.6403416636
 30
0.0
 11
340.1991210835
 21
200.6403416636
 31
0.0
  0
LINE
  5
18A
330
1F
100
AcDbEntity
  8
0
  6
Continuous
 62
     7
370
    30
100
AcDbLine
 10
346.2041210835
 20
187.182012875
 30
0.0
 11
346.2041210835
 21
200.6403416636
 31
0.0
  0
LINE
  5
18B
330
1F
100
AcDbEntity
  8
0
  6
Continuous
 62
     7
370
    30
100
AcDbLine
 10
345.9991210835
 20
200.6403416636
 30
0.0
 11
345.9991210835
 21
205.6403416636
 31
0.0
  0
LINE
  5
18C
330
1F
100
AcDbEntity
  8
0
  6
Continuous
 62
     7
370
    30
100
AcDbLine
 10
342.0041210835
 20
187.325106939
 30
0.0
 11
342.0041210835
 21
200.6403416636
 31
0.0
  0
LINE
  5
18D
330
1F
100
AcDbEntity
  8
0
  6
Continuous
 62
     7
370
    30
100
AcDbLine
 10
341.7991210835
 20
200.6403416636
 30
0.0
 11
341.7991210835
 21
205.6403416636
 31
0.0
  0
LINE
  5
18E
330
1F
100
AcDbEntity
  8
0
  6
Continuous
 62
     7
370
    30
100
AcDbLine
 10
341.3991210835
 20
205.6403416636
 30
0.0
 11
341.3991210835
 21
200.6403416636
 31
0.0
  0
LINE
  5
18F
330
1F
100
AcDbEntity
  8
0
  6
Continuous
 62
     7
370
    30
100
AcDbLine
 10
339.7941210835
 20
200.6403416636
 30
0.0
 11
339.7941210835
 21
187.1824423272
 31
0.0
  0
LINE
  5
190
330
1F
100
AcDbEntity
  8
0
  6
Continuous
 62
     7
370
    30
100
AcDbLine
 10
339.9991210835
 20
205.6403416636
 30
0.0
 11
339.9991210835
 21
200.6403416636
 31
0.0
  0
LINE
  5
191
330
1F
100
AcDbEntity
  8
0
  6
Continuous
 62
     7
370
    30
100
AcDbLine
 10
343.9941210835
 20
200.6403416636
 30
0.0
 11
343.9941210835
 21
187.325106939
 31
0.0
  0
LINE
  5
192
330
1F
100
AcDbEntity
  8
0
  6
Continuous
 62
     7
370
    30
100
AcDbLine
 10
344.5991210835
 20
200.6403416636
 30
0.0
 11
344.5991210835
 21
205.6403416636
 31
0.0
  0
LINE
  5
193
330
1F
100
AcDbEntity
  8
0
  6
Continuous
 62
     7
370
    30
100
AcDbLine
 10
344.1991210835
 20
205.6403416636
 30
0.0
 11
344.1991210835
 21
200.6403416636
 31
0.0
  0
LINE
  5
194
330
1F
100
AcDbEntity
  8
0
  6
Continuous
 62
     7
370
    30
100
AcDbLine
 10
338.3941210835
 20
200.6403416636
 30
0.0
 11
338.3941210835
 21
187.0131968453
 31
0.0
  0
LINE
  5
195
330
1F
100
AcDbEntity
  8
0
  6
Continuous
 62
     7
370
    30
100
AcDbLine
 10
339.2041210835
 20
187.1180115764
 30
0.0
 11
339.2041210835
 21
200.6403416636
 31
0.0
  0
LINE
  5
196
330
1F
100
AcDbEntity
  8
0
  6
Continuous
 62
     7
370
    30
100
AcDbLine
 10
338.9991210835
 20
200.6403416636
 30
0.0
 11
338.9991210835
 21
205.6403416636
 31
0.0
  0
LINE
  5
197
330
1F
100
AcDbEntity
  8
0
  6
Continuous
 62
     7
370
    30
100
AcDbLine
 10
338.5991210835
 20
205.6403416636
 30
0.0
 11
338.5991210835
 21
200.6403416636
 31
0.0
  0
ARC
  5
198
330
1F
100
AcDbEntity
  8
0
  6
Continuous
 62
     7
370
    30
100
AcDbCircle
 10
359.4991210835
 20
149.1403416636
 30
0.0
 40
1.0
100
AcDbArc
 50
270.0
 51
0.0
  0
LINE
  5
199
330
1F
100
AcDbEntity
  8
0
  6
Continuous
 62
     7
370
    30
100
AcDbLine
 10
326.4991210835
 20
148.1403416636
 30
0.0
 11
359.4991210835
 21
148.1403416636
 31
0.0
  0
ARC
  5
19A
330
1F
100
AcDbEntity
  8
0
  6
Continuous
 62
     7
370
    30
100
AcDbCircle
 10
326.4991210835
 20
149.1403416636
 30
0.0
 40
1.0
100
AcDbArc
 50
180.0
 51
270.0
  0
LINE
  5
19B
330
1F
100
AcDbEntity
  8
0
  6
Continuous
 62
     7
370
    30
100
AcDbLine
 10
325.4991210835
 20
172.1403416636
 30
0.0
 11
325.4991210835
 21
149.1403416636
 31
0.0
  0
ARC
  5
19C
330
1F
100
AcDbEntity
  8
0
  6
Continuous
 62
     7
370
    30
100
AcDbCircle
 10
326.4991210835
 20
172.1403416636
 30
0.0
 40
1.000000000000028
100
AcDbArc
 50
90.0
 51
180.0
  0
LINE
  5
19D
330
1F
100
AcDbEntity
  8
0
  6
Continuous
 62
     7
370
    30
100
AcDbLine
 10
359.4991210835
 20
173.1403416636
 30
0.0
 11
326.4991210835
 21
173.1403416636
 31
0.0
  0
LINE
  5
19E
330
1F
100
AcDbEntity
  8
0
  6
Continuous
 62
     7
370
    30
100
AcDbLine
 10
360.4991210835
 20
149.1403416636
 30
0.0
 11
360.4991210835
 21
172.1403416636
 31
0.0
  0
ARC
  5
19F
330
1F
100
AcDbEntity
  8
0
  6
Continuous
 62
     7
370
    30
100
AcDbCircle
 10
359.4991210835
 20
172.1403416636
 30
0.0
 40
1.000000000000028
100
AcDbArc
 50
0.0
 51
90.0
  0
CIRCLE
  5
1A0
330
1F
100
AcDbEntity
  8
0
  6
Continuous
 62
     7
370
    30
100
AcDbCircle
 10
351.2813305267
 20
129.7307152223
 30
0.0
 40
2.839999999999995
  0
LINE
  5
1A1
330
1F
100
AcDbEntity
  8
0
  6
Continuous
 62
     7
370
    30
100
AcDbLine
 10
350.8987916586
 20
131.158369714
 30
0.0
 11
349.853676035
 21
130.1132540904
 31
0.0
  0
LINE
  5
1A2
330
1F
100
AcDbEntity
  8
0
  6
Continuous
 62
     7
370
    30
100
AcDbLine
 10
349.853676035
 20
130.1132540904
 30
0.0
 11
350.2362149032
 21
128.6855995987
 31
0.0
  0
LINE
  5
1A3
330
1F
100
AcDbEntity
  8
0
  6
Continuous
 62
     7
370
    30
100
AcDbLine
 10
350.2362149032
 20
128.6855995987
 30
0.0
 11
351.6638693949
 21
128.3030607306
 31
0.0
  0
LINE
  5
1A4
330
1F
100
AcDbEntity
  8
0
  6
Continuous
 62
     7
370
    30
100
AcDbLine
 10
351.6638693949
 20
128.3030607306
 30
0.0
 11
352.7089850185
 21
129.3481763542
 31
0.0
  0
LINE
  5
1A5
330
1F
100
AcDbEntity
  8
0
  6
Continuous
 62
     7
370
    30
100
AcDbLine
 10
352.7089850185
 20
129.3481763542
 30
0.0
 11
352.3264461503
 21
130.7758308459
 31
0.0
  0
LINE
  5
1A6
330
1F
100
AcDbEntity
  8
0
  6
Continuous
 62
     7
370
    30
100
AcDbLine
 10
352.3264461503
 20
130.7758308459
 30
0.0
 11
350.8987916586
 21
131.158369714
 31
0.0
  0
LINE
  5
1A7
330
1F
100
AcDbEntity
  8
0
  6
Continuous
 62
     7
370
    30
100
AcDbLine
 10
313.5171491339
 20
152.7406710884
 30
0.0
 11
312.4720335103
 21
153.785786712
 31
0.0
  0
LINE
  5
1A8
330
1F
100
AcDbEntity
  8
0
  6
Continuous
 62
     7
370
    30
100
AcDbLine
 10
311.0443790186
 20
153.4032478439
 30
0.0
 11
310.6618401505
 21
151.9755933521
 31
0.0
  0
LINE
  5
1A9
330
1F
100
AcDbEntity
  8
0
  6
Continuous
 62
     7
370
    30
100
AcDbLine
 10
310.6618401505
 20
151.9755933521
 30
0.0
 11
311.7069557741
 21
150.9304777286
 31
0.0
  0
LINE
  5
1AA
330
1F
100
AcDbEntity
  8
0
  6
Continuous
 62
     7
370
    30
100
AcDbLine
 10
311.7069557741
 20
150.9304777286
 30
0.0
 11
313.1346102658
 21
151.3130165967
 31
0.0
  0
LINE
  5
1AB
330
1F
100
AcDbEntity
  8
0
  6
Continuous
 62
     7
370
    30
100
AcDbLine
 10
313.1346102658
 20
151.3130165967
 30
0.0
 11
313.5171491339
 21
152.7406710884
 31
0.0
  0
LINE
  5
1AC
330
1F
100
AcDbEntity
  8
0
  6
Continuous
 62
     7
370
    30
100
AcDbLine
 10
312.4720335103
 20
153.785786712
 30
0.0
 11
311.0443790186
 21
153.4032478439
 31
0.0
  0
CIRCLE
  5
1AD
330
1F
100
AcDbEntity
  8
0
  6
Continuous
 62
     7
370
    30
100
AcDbCircle
 10
312.0894946422
 20
152.3581322203
 30
0.0
 40
2.840000000000015
  0
LINE
  5
1AE
330
1F
100
AcDbEntity
  8
0
  6
Continuous
 62
     7
370
    30
100
AcDbLine
 10
335.0994505083
 20
190.1223136131
 30
0.0
 11
336.1445661319
 21
191.1674292367
 31
0.0
  0
LINE
  5
1AF
330
1F
100
AcDbEntity
  8
0
  6
Continuous
 62
     7
370
    30
100
AcDbLine
 10
336.1445661319
 20
191.1674292367
 30
0.0
 11
335.7620272638
 21
192.5950837284
 31
0.0
  0
LINE
  5
1B0
330
1F
100
AcDbEntity
  8
0
  6
Continuous
 62
     7
370
    30
100
AcDbLine
 10
335.7620272638
 20
192.5950837284
 30
0.0
 11
334.3343727721
 21
192.9776225965
 31
0.0
  0
LINE
  5
1B1
330
1F
100
AcDbEntity
  8
0
  6
Continuous
 62
     7
370
    30
100
AcDbLine
 10
334.3343727721
 20
192.9776225965
 30
0.0
 11
333.2892571485
 21
191.9325069729
 31
0.0
  0
LINE
  5
1B2
330
1F
100
AcDbEntity
  8
0
  6
Continuous
 62
     7
370
    30
100
AcDbLine
 10
333.2892571485
 20
191.9325069729
 30
0.0
 11
333.6717960166
 21
190.5048524812
 31
0.0
  0
LINE
  5
1B3
330
1F
100
AcDbEntity
  8
0
  6
Continuous
 62
     7
370
    30
100
AcDbLine
 10
333.6717960166
 20
190.5048524812
 30
0.0
 11
335.0994505083
 21
190.1223136131
 31
0.0
  0
CIRCLE
  5
1B4
330
1F
100
AcDbEntity
  8
0
  6
Continuous
 62
     7
370
    30
100
AcDbCircle
 10
334.7169116402
 20
191.5499681048
 30
0.0
 40
2.839999999999988
  0
CIRCLE
  5
1B5
330
1F
100
AcDbEntity
  8
0
  6
Continuous
 62
     7
370
    30
100
AcDbCircle
 10
373.9087475247
 20
168.9225511068
 30
0.0
 40
2.840000000000003
  0
LINE
  5
1B6
330
1F
100
AcDbEntity
  8
0
  6
Continuous
 62
     7
370
    30
100
AcDbLine
 10
373.5262086566
 20
167.4948966151
 30
0.0
 11
374.9538631483
 21
167.8774354832
 31
0.0
  0
LINE
  5
1B7
330
1F
100
AcDbEntity
  8
0
  6
Continuous
 62
     7
370
    30
100
AcDbLine
 10
374.9538631483
 20
167.8774354832
 30
0.0
 11
375.3364020164
 21
169.305089975
 31
0.0
  0
LINE
  5
1B8
330
1F
100
AcDbEntity
  8
0
  6
Continuous
 62
     7
370
    30
100
AcDbLine
 10
375.3364020164
 20
169.305089975
 30
0.0
 11
374.2912863928
 21
170.3502055985
 31
0.0
  0
LINE
  5
1B9
330
1F
100
AcDbEntity
  8
0
  6
Continuous
 62
     7
370
    30
100
AcDbLine
 10
374.2912863928
 20
170.3502055985
 30
0.0
 11
372.8636319011
 21
169.9676667304
 31
0.0
  0
LINE
  5
1BA
330
1F
100
AcDbEntity
  8
0
  6
Continuous
 62
     7
370
    30
100
AcDbLine
 10
372.8636319011
 20
169.9676667304
 30
0.0
 11
372.481093033
 21
168.5400122387
 31
0.0
  0
LINE
  5
1BB
330
1F
100
AcDbEntity
  8
0
  6
Continuous
 62
     7
370
    30
100
AcDbLine
 10
372.481093033
 20
168.5400122387
 30
0.0
 11
373.5262086566
 21
167.4948966151
 31
0.0
  0
ARC
  5
1BC
330
1F
100
AcDbEntity
  8
0
  6
Continuous
 62
     7
370
    30
100
AcDbCircle
 10
337.4991210835
 20
175.1403416636
 30
0.0
 40
1.5
100
AcDbArc
 50
180.0
 51
270.0
  0
ARC
  5
1BD
330
1F
100
AcDbEntity
  8
0
  6
Continuous
 62
     7
370
    30
100
AcDbCircle
 10
348.4991210835
 20
175.1403416636
 30
0.0
 40
1.5
100
AcDbArc
 50
270.0
 51
0.0
  0
LINE
  5
1BE
330
1F
100
AcDbEntity
  8
0
  6
Continuous
 62
     7
370
    30
100
AcDbLine
 10
337.4991210835
 20
173.6403416636
 30
0.0
 11
348.4991210835
 21
173.6403416636
 31
0.0
  0
LINE
  5
1BF
330
1F
100
AcDbEntity
  8
0
  6
Continuous
 62
     7
370
    30
100
AcDbLine
 10
349.9991210835
 20
184.379813014
 30
0.0
 11
349.9991210835
 21
175.1403416636
 31
0.0
  0
ARC
  5
1C0
330
1F
100
AcDbEntity
  8
0
  6
Continuous
 62
     7
370
    30
100
AcDbCircle
 10
342.9991210835
 20
160.6403416636
 30
0.0
 40
24.74999999999999
100
AcDbArc
 50
73.5709217633
 51
106.4290782367
  0
LINE
  5
1C1
330
1F
100
AcDbEntity
  8
0
  6
Continuous
 62
     7
370
    30
100
AcDbLine
 10
335.9991210835
 20
184.379813014
 30
0.0
 11
335.9991210835
 21
175.1403416636
 31
0.0
  0
ARC
  5
1C2
330
1F
100
AcDbEntity
  8
0
  6
Continuous
 62
     7
370
    30
100
AcDbCircle
 10
342.9991210835
 20
154.8403416636
 30
0.0
 40
32.49999999999999
100
AcDbArc
 50
80.2569026232
 51
99.7430973768
  0
LINE
  5
1C3
330
1F
100
AcDbEntity
  8
0
  6
Continuous
 62
     7
370
    30
100
AcDbLine
 10
348.4991210835
 20
184.7714937289
 30
0.0
 11
348.4991210835
 21
186.8715764196
 31
0.0
  0
LINE
  5
1C4
330
1F
100
AcDbEntity
  8
0
  6
Continuous
 62
     7
370
    30
100
AcDbLine
 10
337.4991210835
 20
186.8715764196
 30
0.0
 11
337.4991210835
 21
184.7714937289
 31
0.0
  0
ARC
  5
1C5
330
1F
100
AcDbEntity
  8
0
  6
Continuous
 62
     7
370
    30
100
AcDbCircle
 10
342.9991210835
 20
160.6403416636
 30
0.0
 40
24.74999999999999
100
AcDbArc
 50
106.4290782367
 51
73.5709217633
  0
CIRCLE
  5
1C6
330
1F
100
AcDbEntity
  8
0
  6
Continuous
 62
     7
370
    30
100
AcDbCircle
 10
319.0841647718
 20
175.5840649149
 30
0.0
 40
2.340000000000032
  0
LINE
  5
1C7
330
1F
100
AcDbEntity
  8
0
  6
Continuous
 62
     7
370
    30
100
AcDbLine
 10
356.7599972807
 20
184.5966039045
 30
0.0
 11
357.3156488236
 21
183.5515753421
 31
0.0
  0
LINE
  5
1C8
330
1F
100
AcDbEntity
  8
0
  6
Continuous
 62
     7
370
    30
100
AcDbLine
 10
357.3156488236
 20
183.5515753421
 30
0.0
 11
358.4984958778
 21
183.5102694128
 31
0.0
  0
LINE
  5
1C9
330
1F
100
AcDbEntity
  8
0
  6
Continuous
 62
     7
370
    30
100
AcDbLine
 10
358.4984958778
 20
183.5102694128
 30
0.0
 11
359.125691389
 21
184.5139920458
 31
0.0
  0
LINE
  5
1CA
330
1F
100
AcDbEntity
  8
0
  6
Continuous
 62
     7
370
    30
100
AcDbLine
 10
359.125691389
 20
184.5139920458
 30
0.0
 11
358.570039846
 21
185.5590206082
 31
0.0
  0
LINE
  5
1CB
330
1F
100
AcDbEntity
  8
0
  6
Continuous
 62
     7
370
    30
100
AcDbLine
 10
358.570039846
 20
185.5590206082
 30
0.0
 11
357.3871927919
 21
185.6003265375
 31
0.0
  0
LINE
  5
1CC
330
1F
100
AcDbEntity
  8
0
  6
Continuous
 62
     7
370
    30
100
AcDbLine
 10
357.3871927919
 20
185.6003265375
 30
0.0
 11
356.7599972807
 21
184.5966039045
 31
0.0
  0
CIRCLE
  5
1CD
330
1F
100
AcDbEntity
  8
0
  6
Continuous
 62
     7
370
    30
100
AcDbCircle
 10
357.9428443348
 20
184.5552979752
 30
0.0
 40
2.339999999999975
  0
CIRCLE
  5
1CE
330
1F
100
AcDbEntity
  8
0
  6
Continuous
 62
     7
370
    30
100
AcDbCircle
 10
328.0553978321
 20
136.7253853519
 30
0.0
 40
2.340000000000032
  0
LINE
  5
1CF
330
1F
100
AcDbEntity
  8
0
  6
Continuous
 62
     7
370
    30
100
AcDbLine
 10
366.9553833244
 20
146.8794654663
 30
0.0
 11
365.910354762
 21
146.3238139234
 31
0.0
  0
LINE
  5
1D0
330
1F
100
AcDbEntity
  8
0
  6
Continuous
 62
     7
370
    30
100
AcDbLine
 10
365.910354762
 20
146.3238139234
 30
0.0
 11
365.8690488327
 21
145.1409668692
 31
0.0
  0
LINE
  5
1D1
330
1F
100
AcDbEntity
  8
0
  6
Continuous
 62
     7
370
    30
100
AcDbLine
 10
365.8690488327
 20
145.1409668692
 30
0.0
 11
366.8727714657
 21
144.513771358
 31
0.0
  0
LINE
  5
1D2
330
1F
100
AcDbEntity
  8
0
  6
Continuous
 62
     7
370
    30
100
AcDbLine
 10
366.8727714657
 20
144.513771358
 30
0.0
 11
367.9178000281
 21
145.069422901
 31
0.0
  0
LINE
  5
1D3
330
1F
100
AcDbEntity
  8
0
  6
Continuous
 62
     7
370
    30
100
AcDbLine
 10
367.9178000281
 20
145.069422901
 30
0.0
 11
367.9591059574
 21
146.2522699551
 31
0.0
  0
LINE
  5
1D4
330
1F
100
AcDbEntity
  8
0
  6
Continuous
 62
     7
370
    30
100
AcDbLine
 10
367.9591059574
 20
146.2522699551
 30
0.0
 11
366.9553833244
 21
146.8794654663
 31
0.0
  0
LINE
  5
1D5
330
1F
100
AcDbEntity
  8
0
  6
Continuous
 62
     7
370
    30
100
AcDbLine
 10
327.4282023209
 20
135.7216627189
 30
0.0
 11
328.611049375
 21
135.6803567896
 31
0.0
  0
LINE
  5
1D6
330
1F
100
AcDbEntity
  8
0
  6
Continuous
 62
     7
370
    30
100
AcDbLine
 10
328.611049375
 20
135.6803567896
 30
0.0
 11
329.2382448862
 21
136.6840794226
 31
0.0
  0
LINE
  5
1D7
330
1F
100
AcDbEntity
  8
0
  6
Continuous
 62
     7
370
    30
100
AcDbLine
 10
329.2382448862
 20
136.6840794226
 30
0.0
 11
328.6825933433
 21
137.729107985
 31
0.0
  0
LINE
  5
1D8
330
1F
100
AcDbEntity
  8
0
  6
Continuous
 62
     7
370
    30
100
AcDbLine
 10
328.6825933433
 20
137.729107985
 30
0.0
 11
327.4997462891
 21
137.7704139143
 31
0.0
  0
LINE
  5
1D9
330
1F
100
AcDbEntity
  8
0
  6
Continuous
 62
     7
370
    30
100
AcDbLine
 10
326.8725507779
 20
136.7666912813
 30
0.0
 11
327.4282023209
 21
135.7216627189
 31
0.0
  0
LINE
  5
1DA
330
1F
100
AcDbEntity
  8
0
  6
Continuous
 62
     7
370
    30
100
AcDbLine
 10
327.4997462891
 20
137.7704139143
 30
0.0
 11
326.8725507779
 21
136.7666912813
 31
0.0
  0
CIRCLE
  5
1DB
330
1F
100
AcDbEntity
  8
0
  6
Continuous
 62
     7
370
    30
100
AcDbCircle
 10
366.9140773951
 20
145.6966184122
 30
0.0
 40
2.339999999999975
  0
LINE
  5
1DC
330
1F
100
AcDbEntity
  8
0
  6
Continuous
 62
     7
370
    30
100
AcDbLine
 10
320.1291933342
 20
176.1397164579
 30
0.0
 11
319.1254707012
 21
176.7669119691
 31
0.0
  0
LINE
  5
1DD
330
1F
100
AcDbEntity
  8
0
  6
Continuous
 62
     7
370
    30
100
AcDbLine
 10
318.0391362095
 20
175.028413372
 30
0.0
 11
319.0428588425
 21
174.4012178608
 31
0.0
  0
LINE
  5
1DE
330
1F
100
AcDbEntity
  8
0
  6
Continuous
 62
     7
370
    30
100
AcDbLine
 10
319.0428588425
 20
174.4012178608
 30
0.0
 11
320.0878874049
 21
174.9568694037
 31
0.0
  0
LINE
  5
1DF
330
1F
100
AcDbEntity
  8
0
  6
Continuous
 62
     7
370
    30
100
AcDbLine
 10
320.0878874049
 20
174.9568694037
 30
0.0
 11
320.1291933342
 21
176.1397164579
 31
0.0
  0
LINE
  5
1E0
330
1F
100
AcDbEntity
  8
0
  6
Continuous
 62
     7
370
    30
100
AcDbLine
 10
318.0804421388
 20
176.2112604261
 30
0.0
 11
318.0391362095
 21
175.028413372
 31
0.0
  0
LINE
  5
1E1
330
1F
100
AcDbEntity
  8
0
  6
Continuous
 62
     7
370
    30
100
AcDbLine
 10
319.1254707012
 20
176.7669119691
 30
0.0
 11
318.0804421388
 21
176.2112604261
 31
0.0
  0
CIRCLE
  5
1E2
330
1F
100
AcDbEntity
  8
0
  6
Continuous
 62
     7
370
    30
100
AcDbCircle
 10
328.0553978321
 20
136.7253853519
 30
0.0
 40
2.60000000000008
  0
CIRCLE
  5
1E3
330
1F
100
AcDbEntity
  8
0
  6
Continuous
 62
     7
370
    30
100
AcDbCircle
 10
319.0841647718
 20
175.5840649149
 30
0.0
 40
2.599999999999994
  0
CIRCLE
  5
1E4
330
1F
100
AcDbEntity
  8
0
  6
Continuous
 62
     7
370
    30
100
AcDbCircle
 10
357.9428443348
 20
184.5552979752
 30
0.0
 40
2.600000000000023
  0
CIRCLE
  5
1E5
330
1F
100
AcDbEntity
  8
0
  6
Continuous
 62
     7
370
    30
100
AcDbCircle
 10
366.9140773951
 20
145.6966184122
 30
0.0
 40
2.599999999999994
  0
CIRCLE
  5
1E6
330
1F
100
AcDbEntity
  8
0
  6
Continuous
 62
     7
370
    30
100
AcDbCircle
 10
366.9140773951
 20
145.6966184122
 30
0.0
 40
3.25
  0
CIRCLE
  5
1E7
330
1F
100
AcDbEntity
  8
0
  6
Continuous
 62
     7
370
    30
100
AcDbCircle
 10
357.9428443348
 20
184.5552979752
 30
0.0
 40
3.25
  0
CIRCLE
  5
1E8
330
1F
100
AcDbEntity
  8
0
  6
Continuous
 62
     7
370
    30
100
AcDbCircle
 10
328.0553978321
 20
136.7253853519
 30
0.0
 40
3.250000000000057
  0
CIRCLE
  5
1E9
330
1F
100
AcDbEntity
  8
0
  6
Continuous
 62
     7
370
    30
100
AcDbCircle
 10
319.0841647718
 20
175.5840649149
 30
0.0
 40
3.250000000000028
  0
ARC
  5
1EA
330
1F
100
AcDbEntity
  8
0
  6
Continuous
 62
     7
370
    30
100
AcDbCircle
 10
371.7485783872
 20
152.9897727474
 30
0.0
 40
4.999999999999989
100
AcDbArc
 50
165.0982695026
 51
236.4603171566
  0
ARC
  5
1EB
330
1F
100
AcDbEntity
  8
0
  6
Continuous
 62
     7
370
    30
100
AcDbCircle
 10
366.9140773951
 20
145.6966184122
 30
0.0
 40
3.750000000000035
100
AcDbArc
 50
347.9881071624
 51
56.4603171566
  0
ARC
  5
1EC
330
1F
100
AcDbEntity
  8
0
  6
Continuous
 62
     7
370
    30
100
AcDbCircle
 10
342.9991210835
 20
160.6403416636
 30
0.0
 40
31.75000000000001
100
AcDbArc
 50
325.6861662404
 51
330.3138337596
  0
ARC
  5
1ED
330
1F
100
AcDbEntity
  8
0
  6
Continuous
 62
     7
370
    30
100
AcDbCircle
 10
366.9140773951
 20
145.6966184122
 30
0.0
 40
3.750000000000039
100
AcDbArc
 50
239.5396828434
 51
308.0118928376
  0
ARC
  5
1EE
330
1F
100
AcDbEntity
  8
0
  6
Continuous
 62
     7
370
    30
100
AcDbCircle
 10
362.4783394439
 20
138.154289274
 30
0.0
 40
5.000000000000015
100
AcDbArc
 50
59.5396828434
 51
130.9017304974
  0
ARC
  5
1EF
330
1F
100
AcDbEntity
  8
0
  6
Continuous
 62
     7
370
    30
100
AcDbCircle
 10
314.2496637797
 20
168.2909105797
 30
0.0
 40
4.999999999999994
100
AcDbArc
 50
345.0982695026
 51
56.4603171566
  0
ARC
  5
1F0
330
1F
100
AcDbEntity
  8
0
  6
Continuous
 62
     7
370
    30
100
AcDbCircle
 10
319.0841647718
 20
175.5840649149
 30
0.0
 40
3.750000000000028
100
AcDbArc
 50
167.9881071624
 51
236.4603171566
  0
ARC
  5
1F1
330
1F
100
AcDbEntity
  8
0
  6
Continuous
 62
     7
370
    30
100
AcDbCircle
 10
342.9991210835
 20
160.6403416636
 30
0.0
 40
31.75000000000001
100
AcDbArc
 50
145.6861662404
 51
150.3138337596
  0
ARC
  5
1F2
330
1F
100
AcDbEntity
  8
0
  6
Continuous
 62
     7
370
    30
100
AcDbCircle
 10
319.0841647718
 20
175.5840649149
 30
0.0
 40
3.750000000000039
100
AcDbArc
 50
59.5396828434
 51
128.0118928376
  0
ARC
  5
1F3
330
1F
100
AcDbEntity
  8
0
  6
Continuous
 62
     7
370
    30
100
AcDbCircle
 10
323.519902723
 20
183.1263940531
 30
0.0
 40
5.000000000000009
100
AcDbArc
 50
239.5396828434
 51
310.9017304974
  0
ARC
  5
1F4
330
1F
100
AcDbEntity
  8
0
  6
Continuous
 62
     7
370
    30
100
AcDbCircle
 10
351.1146607073
 20
188.2211414455
 30
0.0
 40
3.999999999999999
100
AcDbArc
 50
253.6036920787
 51
331.770005774
  0
ARC
  5
1F5
330
1F
100
AcDbEntity
  8
0
  6
Continuous
 62
     7
370
    30
100
AcDbCircle
 10
357.9428443348
 20
184.5552979752
 30
0.0
 40
3.750000000000002
100
AcDbArc
 50
77.9881071624
 51
151.770005774
  0
ARC
  5
1F6
330
1F
100
AcDbEntity
  8
0
  6
Continuous
 62
     7
370
    30
100
AcDbCircle
 10
342.9991210835
 20
160.6403416636
 30
0.0
 40
31.75000000000001
100
AcDbArc
 50
55.6861662404
 51
60.3138337596
  0
ARC
  5
1F7
330
1F
100
AcDbEntity
  8
0
  6
Continuous
 62
     7
370
    30
100
AcDbCircle
 10
357.9428443348
 20
184.5552979752
 30
0.0
 40
3.749999999999996
100
AcDbArc
 50
329.5396828434
 51
38.0118928376
  0
ARC
  5
1F8
330
1F
100
AcDbEntity
  8
0
  6
Continuous
 62
     7
370
    30
100
AcDbCircle
 10
365.485173473
 20
180.119560024
 30
0.0
 40
5.000000000000037
100
AcDbArc
 50
149.5396828434
 51
220.9017304974
  0
ARC
  5
1F9
330
1F
100
AcDbEntity
  8
0
  6
Continuous
 62
     7
370
    30
100
AcDbCircle
 10
335.3485521673
 20
131.8908843598
 30
0.0
 40
5.000000000000036
100
AcDbArc
 50
75.0982695026
 51
146.4603171566
  0
ARC
  5
1FA
330
1F
100
AcDbEntity
  8
0
  6
Continuous
 62
     7
370
    30
100
AcDbCircle
 10
328.0553978321
 20
136.7253853519
 30
0.0
 40
3.750000000000032
100
AcDbArc
 50
149.5396828434
 51
218.0118928376
  0
ARC
  5
1FB
330
1F
100
AcDbEntity
  8
0
  6
Continuous
 62
     7
370
    30
100
AcDbCircle
 10
320.5130686939
 20
141.1611233031
 30
0.0
 40
4.999999999999988
100
AcDbArc
 50
329.5396828434
 51
40.9017304974
  0
ARC
  5
1FC
330
1F
100
AcDbEntity
  8
0
  6
Continuous
 62
     7
370
    30
100
AcDbCircle
 10
342.9991210835
 20
160.6403416636
 30
0.0
 40
31.74999999999999
100
AcDbArc
 50
235.6861662404
 51
240.3138337596
  0
ARC
  5
1FD
330
1F
100
AcDbEntity
  8
0
  6
Continuous
 62
     7
370
    30
100
AcDbCircle
 10
328.0553978321
 20
136.7253853519
 30
0.0
 40
3.749999999999962
100
AcDbArc
 50
257.9881071624
 51
326.4603171566
  0
SPLINE
  5
1FE
330
1F
100
AcDbEntity
  8
0
  6
Continuous
 62
     7
370
    30
100
AcDbSpline
210
0.0
220
0.0
230
1.0
 70
     8
 71
     3
 72
    11
 73
     7
 74
     0
 42
0.000000001
 43
0.00000001
 40
0.0
 40
0.0
 40
0.0
 40
0.0
 40
0.2540690857151912
 40
0.5143002597682619
 40
0.7536045550238945
 40
1.0
 40
1.0
 40
1.0
 40
1.0
 10
328.7262772043802
 20
192.8168226334045
 30
0.0
 10
328.6230169223837
 20
192.8194723095193
 30
0.0
 10
328.4139919254814
 20
192.8248359259165
 30
0.0
 10
328.0954433030028
 20
192.7810107015233
 30
0.0
 10
327.7796084559859
 20
192.7005098363388
 30
0.0
 10
327.582794385186
 20
192.6138765825351
 30
0.0
 10
327.4829506205401
 20
192.5699275388101
 30
0.0
  0
ARC
  5
1FF
330
1F
100
AcDbEntity
  8
0
  6
Continuous
 62
     7
370
    30
100
AcDbCircle
 10
342.9991210835
 20
160.6403416636
 30
0.0
 40
35.19999999999997
100
AcDbArc
 50
113.9211170954
 51
186.0788829046
  0
ARC
  5
200
330
1F
100
AcDbEntity
  8
0
  6
Continuous
 62
     7
370
    30
100
AcDbCircle
 10
342.9991210835
 20
160.6403416636
 30
0.0
 40
35.49999999999999
100
AcDbArc
 50
115.9174173158
 51
184.0825826842
  0
SPLINE
  5
201
330
1F
100
AcDbEntity
  8
0
  6
Continuous
 62
     7
370
    30
100
AcDbSpline
210
0.0
220
0.0
230
1.0
 70
     8
 71
     3
 72
    11
 73
     7
 74
     0
 42
0.000000001
 43
0.00000001
 40
0.0
 40
0.0
 40
0.0
 40
0.0
 40
0.2517477024516517
 40
0.5120039459642436
 40
0.7532167126696967
 40
1.0
 40
1.0
 40
1.0
 40
1.0
 10
307.5892033517086
 20
158.1129465162591
 30
0.0
 10
307.6014282163209
 20
158.0021579867573
 30
0.0
 10
307.6262911201704
 20
157.776836509262
 30
0.0
 10
307.7182179269533
 20
157.4609085773257
 30
0.0
 10
307.8408884383096
 20
157.1672737485612
 30
0.0
 10
307.9446009963447
 20
156.9982321661186
 30
0.0
 10
307.9970492196401
 20
156.9127465621559
 30
0.0
  0
SPLINE
  5
202
330
1F
100
AcDbEntity
  8
0
  6
Continuous
 62
     7
370
    30
100
AcDbSpline
210
0.0
220
0.0
230
1.0
 70
     8
 71
     3
 72
    11
 73
     7
 74
     0
 42
0.000000001
 43
0.00000001
 40
0.0
 40
0.0
 40
0.0
 40
0.0
 40
0.2540690857151887
 40
0.5143002597682579
 40
0.7536045550238921
 40
1.0
 40
1.0
 40
1.0
 40
1.0
 10
310.8226401136064
 20
146.3674977844697
 30
0.0
 10
310.8199904374916
 20
146.2642375024732
 30
0.0
 10
310.8146268210945
 20
146.055212505571
 30
0.0
 10
310.8584520454877
 20
145.7366638830923
 30
0.0
 10
310.9389529106721
 20
145.4208290360754
 30
0.0
 10
311.0255861644758
 20
145.2240149652755
 30
0.0
 10
311.0695352082009
 20
145.1241712006296
 30
0.0
  0
ARC
  5
203
330
1F
100
AcDbEntity
  8
0
  6
Continuous
 62
     7
370
    30
100
AcDbCircle
 10
342.9991210835
 20
160.6403416636
 30
0.0
 40
35.20000000000001
100
AcDbArc
 50
203.9211170954
 51
276.0788829046
  0
SPLINE
  5
204
330
1F
100
AcDbEntity
  8
0
  6
Continuous
 62
     7
370
    30
100
AcDbSpline
210
0.0
220
0.0
230
1.0
 70
     8
 71
     3
 72
    11
 73
     7
 74
     0
 42
0.000000001
 43
0.00000001
 40
0.0
 40
0.0
 40
0.0
 40
0.0
 40
0.2517477024516483
 40
0.5120039459642355
 40
0.7532167126696941
 40
1.0
 40
1.0
 40
1.0
 40
1.0
 10
345.5265162307517
 20
125.2304239317982
 30
0.0
 10
345.6373047602535
 20
125.2426487964105
 30
0.0
 10
345.8626262377488
 20
125.26751170026
 30
0.0
 10
346.1785541696851
 20
125.3594385070429
 30
0.0
 10
346.4721889984496
 20
125.4821090183992
 30
0.0
 10
346.6412305808921
 20
125.5858215764343
 30
0.0
 10
346.7267161848549
 20
125.6382697997296
 30
0.0
  0
ARC
  5
205
330
1F
100
AcDbEntity
  8
0
  6
Continuous
 62
     7
370
    30
100
AcDbCircle
 10
342.9991210835
 20
160.6403416636
 30
0.0
 40
35.49999999999999
100
AcDbArc
 50
205.9174173158
 51
274.0825826842
  0
SPLINE
  5
206
330
1F
100
AcDbEntity
  8
0
  6
Continuous
 62
     7
370
    30
100
AcDbSpline
210
0.0
220
0.0
230
1.0
 70
     8
 71
     3
 72
     9
 73
     5
 74
     0
 42
0.000000001
 43
0.00000001
 40
0.0
 40
0.0
 40
0.0
 40
0.0
 40
0.4747215855952311
 40
0.9999999999999999
 40
0.9999999999999999
 40
0.9999999999999999
 40
0.9999999999999999
 10
339.7941210834607
 20
195.9042490775764
 30
0.0
 10
339.7054693742683
 20
195.8694679604854
 30
0.0
 10
339.5187247393446
 20
195.7962016120691
 30
0.0
 10
339.3566567818204
 20
195.6953753738913
 30
0.0
 10
339.2715259820664
 20
195.6424135273708
 30
0.0
  0
LINE
  5
207
330
1F
100
AcDbEntity
  8
0
  6
Continuous
 62
     7
370
    30
100
AcDbLine
 10
342.0041210835
 20
196.1263949099
 30
0.0
 11
342.2591210835
 21
196.1326281495
 31
0.0
  0
LINE
  5
208
330
1F
100
AcDbEntity
  8
0
  6
Continuous
 62
     7
370
    30
100
AcDbLine
 10
343.7391210835
 20
196.1326281495
 30
0.0
 11
343.9941210835
 21
196.1263949099
 31
0.0
  0
LWPOLYLINE
  5
209
330
1F
100
AcDbEntity
  8
0
  6
Continuous
 62
     7
370
    30
100
AcDbPolyline
 90
        3
 70
   128
 43
0.0
 10
346.2041210835
 20
195.995369241
 10
346.6739591965
 20
195.9496260636
 10
346.7941210835
 20
195.9369133809
  0
ARC
  5
20A
330
1F
100
AcDbEntity
  8
0
  6
Continuous
 62
     7
370
    30
100
AcDbCircle
 10
342.9991210835
 20
160.6403416636
 30
0.0
 40
35.50000000000002
100
AcDbArc
 50
25.9174173158
 51
82.5466851703
  0
SPLINE
  5
20B
330
1F
100
AcDbEntity
  8
0
  6
Continuous
 62
     7
370
    30
100
AcDbSpline
210
0.0
220
0.0
230
1.0
 70
     8
 71
     3
 72
    11
 73
     7
 74
     0
 42
0.000000001
 43
0.00000001
 40
0.0
 40
0.0
 40
0.0
 40
0.0
 40
0.2540690857151883
 40
0.5143002597682608
 40
0.7536045550238925
 40
0.9999999999999999
 40
0.9999999999999999
 40
0.9999999999999999
 40
0.9999999999999999
 10
375.1756020533148
 20
174.913185542631
 30
0.0
 10
375.1782517294296
 20
175.0164458246276
 30
0.0
 10
375.1836153458268
 20
175.2254708215298
 30
0.0
 10
375.1397901214335
 20
175.5440194440084
 30
0.0
 10
375.0592892562491
 20
175.8598542910253
 30
0.0
 10
374.9726560024454
 20
176.0566683618252
 30
0.0
 10
374.9287069587203
 20
176.1565121264711
 30
0.0
  0
ARC
  5
20C
330
1F
100
AcDbEntity
  8
0
  6
Continuous
 62
     7
370
    30
100
AcDbCircle
 10
342.9991210835
 20
160.6403416636
 30
0.0
 40
35.2
100
AcDbArc
 50
23.9211170954
 51
82.4827971743
  0
LWPOLYLINE
  5
20D
330
1F
100
AcDbEntity
  8
0
  6
Continuous
 62
     7
370
    30
100
AcDbPolyline
 90
        3
 70
   128
 43
0.0
 10
346.7941210835
 20
195.6351694957
 10
346.646390314
 20
195.6508747523
 10
346.2041210835
 20
195.6941285488
  0
LINE
  5
20E
330
1F
100
AcDbEntity
  8
0
  6
Continuous
 62
     7
370
    30
100
AcDbLine
 10
343.9941210835
 20
195.8262759982
 30
0.0
 11
343.7391210835
 21
195.8325623948
 31
0.0
  0
LINE
  5
20F
330
1F
100
AcDbEntity
  8
0
  6
Continuous
 62
     7
370
    30
100
AcDbLine
 10
342.2591210835
 20
195.8325623948
 30
0.0
 11
342.0041210835
 21
195.8262759982
 31
0.0
  0
LINE
  5
210
330
1F
100
AcDbEntity
  8
0
  6
Continuous
 62
     7
370
    30
100
AcDbLine
 10
339.7941210835
 20
195.6941285488
 30
0.0
 11
339.2715259821
 21
195.6424135274
 31
0.0
  0
SPLINE
  5
211
330
1F
100
AcDbEntity
  8
0
  6
Continuous
 62
     7
370
    30
100
AcDbSpline
210
0.0
220
0.0
230
1.0
 70
     8
 71
     3
 72
    11
 73
     7
 74
     0
 42
0.000000001
 43
0.00000001
 40
0.0
 40
0.0
 40
0.0
 40
0.0
 40
0.2540690857151912
 40
0.5143002597682619
 40
0.7536045550238945
 40
1.0
 40
1.0
 40
1.0
 40
1.0
 10
357.2719649625411
 20
128.4638606936959
 30
0.0
 10
357.3752252445376
 20
128.4612110175811
 30
0.0
 10
357.5842502414399
 20
128.455847401184
 30
0.0
 10
357.9027988639185
 20
128.4996726255772
 30
0.0
 10
358.2186337109354
 20
128.5801734907616
 30
0.0
 10
358.4154477817352
 20
128.6668067445653
 30
0.0
 10
358.5152915463811
 20
128.7107557882904
 30
0.0
  0
ARC
  5
212
330
1F
100
AcDbEntity
  8
0
  6
Continuous
 62
     7
370
    30
100
AcDbCircle
 10
342.9991210835
 20
160.6403416636
 30
0.0
 40
35.2
100
AcDbArc
 50
293.9211170954
 51
6.0788829046
  0
SPLINE
  5
213
330
1F
100
AcDbEntity
  8
0
  6
Continuous
 62
     7
370
    30
100
AcDbSpline
210
0.0
220
0.0
230
1.0
 70
     8
 71
     3
 72
    11
 73
     7
 74
     0
 42
0.000000001
 43
0.00000001
 40
0.0
 40
0.0
 40
0.0
 40
0.0
 40
0.2517477024516506
 40
0.5120039459642383
 40
0.7532167126696949
 40
1.0
 40
1.0
 40
1.0
 40
1.0
 10
378.4090388152127
 20
163.1677368108416
 30
0.0
 10
378.3968139506003
 20
163.2785253403434
 30
0.0
 10
378.3719510467508
 20
163.5038468178388
 30
0.0
 10
378.280024239968
 20
163.819774749775
 30
0.0
 10
378.1573537286117
 20
164.1134095785395
 30
0.0
 10
378.0536411705766
 20
164.2824511609821
 30
0.0
 10
378.0011929472812
 20
164.3679367649449
 30
0.0
  0
ARC
  5
214
330
1F
100
AcDbEntity
  8
0
  6
Continuous
 62
     7
370
    30
100
AcDbCircle
 10
342.9991210835
 20
160.6403416636
 30
0.0
 40
35.5
100
AcDbArc
 50
295.9174173158
 51
4.0825826842
  0
ARC
  5
215
330
1F
100
AcDbEntity
  8
0
  6
Continuous
 62
     7
370
    30
100
AcDbCircle
 10
373.9087475247
 20
168.9225511068
 30
0.0
 40
3.749999999999997
100
AcDbArc
 50
105.0
 51
285.0
  0
LINE
  5
216
330
1F
100
AcDbEntity
  8
0
  6
Continuous
 62
     7
370
    30
100
AcDbLine
 10
374.8793189438
 20
165.3003292582
 30
0.0
 11
375.2683350242
 21
165.4045658028
 31
0.0
  0
LINE
  5
217
330
1F
100
AcDbEntity
  8
0
  6
Continuous
 62
     7
370
    30
100
AcDbLine
 10
355.0077889199
 20
130.3122705611
 30
0.0
 11
354.9035523753
 21
130.7012866414
 31
0.0
  0
ARC
  5
218
330
1F
100
AcDbEntity
  8
0
  6
Continuous
 62
     7
370
    30
100
AcDbCircle
 10
351.2813305267
 20
129.7307152223
 30
0.0
 40
3.750000000000045
100
AcDbArc
 50
15.0
 51
195.0
  0
LINE
  5
219
330
1F
100
AcDbEntity
  8
0
  6
Continuous
 62
     7
370
    30
100
AcDbLine
 10
347.6591086782
 20
128.7601438032
 30
0.0
 11
347.7633452227
 21
128.3711277228
 31
0.0
  0
LINE
  5
21A
330
1F
100
AcDbEntity
  8
0
  6
Continuous
 62
     7
370
    30
100
AcDbLine
 10
312.671049981
 20
148.6316738271
 30
0.0
 11
313.0600660613
 21
148.7359103717
 31
0.0
  0
ARC
  5
21B
330
1F
100
AcDbEntity
  8
0
  6
Continuous
 62
     7
370
    30
100
AcDbCircle
 10
312.0894946422
 20
152.3581322203
 30
0.0
 40
3.750000000000025
100
AcDbArc
 50
285.0
 51
105.0
  0
LINE
  5
21C
330
1F
100
AcDbEntity
  8
0
  6
Continuous
 62
     7
370
    30
100
AcDbLine
 10
311.1189232231
 20
155.9803540689
 30
0.0
 11
310.7299071428
 21
155.8761175243
 31
0.0
  0
LINE
  5
21D
330
1F
100
AcDbEntity
  8
0
  6
Continuous
 62
     7
370
    30
100
AcDbLine
 10
330.990453247
 20
190.968412766
 30
0.0
 11
331.0946897916
 21
190.5793966857
 31
0.0
  0
ARC
  5
21E
330
1F
100
AcDbEntity
  8
0
  6
Continuous
 62
     7
370
    30
100
AcDbCircle
 10
334.7169116402
 20
191.5499681048
 30
0.0
 40
3.750000000000043
100
AcDbArc
 50
195.0
 51
348.6925537733
  0
LINE
  5
21F
330
1F
100
AcDbEntity
  8
0
  6
Continuous
 62
     7
370
    30
100
AcDbLine
 10
338.3941210835
 20
192.2852440464
 30
0.0
 11
338.3391334888
 21
192.5205395239
 31
0.0
  0
LINE
  5
220
330
1F
100
AcDbEntity
  8
0
  6
Continuous
 62
     7
370
    30
100
AcDbLine
 10
338.3391334888
 20
192.5205395239
 30
0.0
 11
338.2348969442
 21
192.9095556043
 31
0.0
  0
LINE
  5
221
330
1F
100
AcDbEntity
  8
0
  6
Continuous
 62
     7
370
    30
100
AcDbLine
 10
373.3271921859
 20
172.6490095
 30
0.0
 11
372.9381761056
 21
172.5447729554
 31
0.0
  0
CIRCLE
  5
222
330
1F
100
AcDbEntity
  8
0
  6
Continuous
 62
     7
370
    30
100
AcDbCircle
 10
320.3717040855
 20
138.0129246656
 30
0.0
 40
1.700000000000045
  0
CIRCLE
  5
223
330
1F
100
AcDbEntity
  8
0
  6
Continuous
 62
     7
370
    30
100
AcDbCircle
 10
365.6265380814
 20
138.0129246656
 30
0.0
 40
1.699999999999932
  0
CIRCLE
  5
224
330
1F
100
AcDbEntity
  8
0
  6
Continuous
 62
     7
370
    30
100
AcDbCircle
 10
365.6265380814
 20
183.2677586615
 30
0.0
 40
1.699999999999932
  0
CIRCLE
  5
225
330
1F
100
AcDbEntity
  8
0
  6
Continuous
 62
     7
370
    30
100
AcDbCircle
 10
320.3717040855
 20
183.2677586615
 30
0.0
 40
1.699999999999989
  0
CIRCLE
  5
226
330
1F
100
AcDbEntity
  8
0
  6
Continuous
 62
     7
370
    30
100
AcDbCircle
 10
349.6522951896
 20
191.941064887
 30
0.0
 40
1.250000000000057
  0
ARC
  5
227
330
1F
100
AcDbEntity
  8
0
  6
Continuous
 62
     7
370
    30
100
AcDbCircle
 10
357.4226034856
 20
130.9593181739
 30
0.0
 40
2.5
100
AcDbArc
 50
195.0
 51
266.5455268364
  0
ARC
  5
228
330
1F
100
AcDbEntity
  8
0
  6
Continuous
 62
     7
370
    30
100
AcDbCircle
 10
328.5756386813
 20
190.3213651532
 30
0.0
 40
2.500000000000004
100
AcDbArc
 50
15.0
 51
86.5455268364
  0
ARC
  5
229
330
1F
100
AcDbEntity
  8
0
  6
Continuous
 62
     7
370
    30
100
AcDbCircle
 10
313.3180975938
 20
146.2168592614
 30
0.0
 40
2.500000000000057
100
AcDbArc
 50
105.0
 51
176.5455268364
  0
ARC
  5
22A
330
1F
100
AcDbEntity
  8
0
  6
Continuous
 62
     7
370
    30
100
AcDbCircle
 10
372.6801445731
 20
175.0638240657
 30
0.0
 40
2.500000000000021
100
AcDbArc
 50
285.0
 51
356.5455268364
  0
ARC
  5
22B
330
1F
100
AcDbEntity
  8
0
  6
Continuous
 62
     7
370
    30
100
AcDbCircle
 10
375.9153826369
 20
162.9897512371
 30
0.0
 40
2.499999999999991
100
AcDbArc
 50
33.4544731636
 51
105.0
  0
LINE
  5
22C
330
1F
100
AcDbEntity
  8
0
  6
Continuous
 62
     7
370
    30
100
AcDbLine
 10
339.2715259821
 20
195.6424135274
 30
0.0
 11
339.2041210835
 21
195.5962767985
 31
0.0
  0
ARC
  5
22D
330
1F
100
AcDbEntity
  8
0
  6
Continuous
 62
     7
370
    30
100
AcDbCircle
 10
340.6497115099
 20
193.556603217
 30
0.0
 40
2.500000000000016
100
AcDbArc
 50
154.4535766379
 51
195.0
  0
ARC
  5
22E
330
1F
100
AcDbEntity
  8
0
  6
Continuous
 62
     7
370
    30
100
AcDbCircle
 10
345.348530657
 20
127.7240801101
 30
0.0
 40
2.500000000000007
100
AcDbArc
 50
303.4544731636
 51
15.0
  0
ARC
  5
22F
330
1F
100
AcDbEntity
  8
0
  6
Continuous
 62
     7
370
    30
100
AcDbCircle
 10
310.08285953
 20
158.29093209
 30
0.0
 40
2.500000000000007
100
AcDbArc
 50
213.4544731636
 51
285.0
  0
LINE
  5
230
330
1F
100
AcDbEntity
  8
0
  6
Continuous
 62
     7
370
    30
100
AcDbLine
 10
339.7941210835
 20
195.995369241
 30
0.0
 11
339.2041210835
 21
195.9369133809
 31
0.0
  0
ARC
  5
231
330
1F
100
AcDbEntity
  8
0
  6
Continuous
 62
     7
370
    30
100
AcDbCircle
 10
342.9991210835
 20
160.6403416636
 30
0.0
 40
35.49999999999999
100
AcDbArc
 50
97.4533148297
 51
115.9174173158
  0
ARC
  5
232
330
1F
100
AcDbEntity
  8
0
  6
Continuous
 62
     7
370
    30
100
AcDbCircle
 10
342.9991210835
 20
160.6403416636
 30
0.0
 40
35.49999999999999
100
AcDbArc
 50
274.0825826842
 51
295.9174173158
  0
ARC
  5
233
330
1F
100
AcDbEntity
  8
0
  6
Continuous
 62
     7
370
    30
100
AcDbCircle
 10
342.9991210835
 20
160.6403416636
 30
0.0
 40
35.49999999999999
100
AcDbArc
 50
184.0825826842
 51
205.9174173158
  0
ARC
  5
234
330
1F
100
AcDbEntity
  8
0
  6
Continuous
 62
     7
370
    30
100
AcDbCircle
 10
342.9991210835
 20
160.6403416636
 30
0.0
 40
35.50000000000002
100
AcDbArc
 50
4.0825826842
 51
25.9174173158
  0
LINE
  5
235
330
1F
100
AcDbEntity
  8
0
  6
Continuous
 62
     7
370
    30
100
AcDbLine
 10
344.6591210835
 20
200.6403416636
 30
0.0
 11
346.1391210835
 21
200.6403416636
 31
0.0
  0
LINE
  5
236
330
1F
100
AcDbEntity
  8
0
  6
Continuous
 62
     7
370
    30
100
AcDbLine
 10
344.9991210835
 20
205.6403416636
 30
0.0
 11
345.7991210835
 21
205.6403416636
 31
0.0
  0
LINE
  5
237
330
1F
100
AcDbEntity
  8
0
  6
Continuous
 62
     7
370
    30
100
AcDbLine
 10
342.2591210835
 20
200.6403416636
 30
0.0
 11
343.7391210835
 21
200.6403416636
 31
0.0
  0
LINE
  5
238
330
1F
100
AcDbEntity
  8
0
  6
Continuous
 62
     7
370
    30
100
AcDbLine
 10
342.5991210835
 20
205.6403416636
 30
0.0
 11
343.3991210835
 21
205.6403416636
 31
0.0
  0
LINE
  5
239
330
1F
100
AcDbEntity
  8
0
  6
Continuous
 62
     7
370
    30
100
AcDbLine
 10
346.7941210835
 20
200.6403416636
 30
0.0
 11
347.6041210835
 21
200.6403416636
 31
0.0
  0
LINE
  5
23A
330
1F
100
AcDbEntity
  8
0
  6
Continuous
 62
     7
370
    30
100
AcDbLine
 10
346.9991210835
 20
205.6403416636
 30
0.0
 11
347.3991210835
 21
205.6403416636
 31
0.0
  0
LINE
  5
23B
330
1F
100
AcDbEntity
  8
0
  6
Continuous
 62
     7
370
    30
100
AcDbLine
 10
339.8591210835
 20
200.6403416636
 30
0.0
 11
341.3391210835
 21
200.6403416636
 31
0.0
  0
LINE
  5
23C
330
1F
100
AcDbEntity
  8
0
  6
Continuous
 62
     7
370
    30
100
AcDbLine
 10
340.1991210835
 20
205.6403416636
 30
0.0
 11
340.9991210835
 21
205.6403416636
 31
0.0
  0
LINE
  5
23D
330
1F
100
AcDbEntity
  8
0
  6
Continuous
 62
     7
370
    30
100
AcDbLine
 10
346.1391210835
 20
200.6403416636
 30
0.0
 11
346.2041210835
 21
200.6403416636
 31
0.0
  0
LINE
  5
23E
330
1F
100
AcDbEntity
  8
0
  6
Continuous
 62
     7
370
    30
100
AcDbLine
 10
345.7991210835
 20
205.6403416636
 30
0.0
 11
345.9991210835
 21
205.6403416636
 31
0.0
  0
LINE
  5
23F
330
1F
100
AcDbEntity
  8
0
  6
Continuous
 62
     7
370
    30
100
AcDbLine
 10
341.3391210835
 20
200.6403416636
 30
0.0
 11
342.0041210835
 21
200.6403416636
 31
0.0
  0
LINE
  5
240
330
1F
100
AcDbEntity
  8
0
  6
Continuous
 62
     7
370
    30
100
AcDbLine
 10
341.3991210835
 20
205.6403416636
 30
0.0
 11
341.7991210835
 21
205.6403416636
 31
0.0
  0
LINE
  5
241
330
1F
100
AcDbEntity
  8
0
  6
Continuous
 62
     7
370
    30
100
AcDbLine
 10
339.7941210835
 20
200.6403416636
 30
0.0
 11
339.8591210835
 21
200.6403416636
 31
0.0
  0
LINE
  5
242
330
1F
100
AcDbEntity
  8
0
  6
Continuous
 62
     7
370
    30
100
AcDbLine
 10
339.9991210835
 20
205.6403416636
 30
0.0
 11
340.1991210835
 21
205.6403416636
 31
0.0
  0
LINE
  5
243
330
1F
100
AcDbEntity
  8
0
  6
Continuous
 62
     7
370
    30
100
AcDbLine
 10
343.9941210835
 20
200.6403416636
 30
0.0
 11
344.6591210835
 21
200.6403416636
 31
0.0
  0
LINE
  5
244
330
1F
100
AcDbEntity
  8
0
  6
Continuous
 62
     7
370
    30
100
AcDbLine
 10
344.1991210835
 20
205.6403416636
 30
0.0
 11
344.5991210835
 21
205.6403416636
 31
0.0
  0
LINE
  5
245
330
1F
100
AcDbEntity
  8
0
  6
Continuous
 62
     7
370
    30
100
AcDbLine
 10
338.3941210835
 20
200.6403416636
 30
0.0
 11
339.2041210835
 21
200.6403416636
 31
0.0
  0
LINE
  5
246
330
1F
100
AcDbEntity
  8
0
  6
Continuous
 62
     7
370
    30
100
AcDbLine
 10
338.5991210835
 20
205.6403416636
 30
0.0
 11
338.9991210835
 21
205.6403416636
 31
0.0
  0
CIRCLE
  5
247
330
1F
100
AcDbEntity
  8
0
  6
HIDDEN
 62
     7
370
     0
100
AcDbCircle
 10
349.6522951896
 20
191.941064887
 30
0.0
 40
1.250000000000057
  0
SPLINE
  5
248
330
1F
100
AcDbEntity
  8
0
  6
Continuous
 62
     1
370
    15
100
AcDbSpline
210
0.0
220
0.0
230
1.0
 70
     8
 71
     3
 72
     8
 73
     4
 74
     0
 42
0.000000001
 43
0.00000001
 40
0.0
 40
0.0
 40
0.0
 40
0.0
 40
1.0
 40
1.0
 40
1.0
 40
1.0
 10
337.0507287172808
 20
197.406297378407
 30
0.0
 10
340.9118945181008
 20
201.0355073207894
 30
0.0
 10
344.6722670173999
 20
194.16363294379
 30
0.0
 10
348.6376616094128
 20
198.1787595712159
 30
0.0
  0
SPLINE
  5
249
330
1F
100
AcDbEntity
  8
0
  6
Continuous
 62
     1
370
    15
100
AcDbSpline
210
0.0
220
0.0
230
1.0
 70
     8
 71
     3
 72
    21
 73
    17
 74
     0
 42
0.000000001
 43
0.00000001
 40
0.0
 40
0.0
 40
0.0
 40
0.0
 40
0.03125
 40
0.0625
 40
0.125
 40
0.1875
 40
0.25
 40
0.375
 40
0.5
 40
0.625
 40
0.75
 40
0.8125
 40
0.875
 40
0.9375
 40
0.96875
 40
1.0
 40
1.0
 40
1.0
 40
1.0
 10
337.3931693990424
 20
197.0419700812214
 30
0.0
 10
337.4974615623356
 20
197.1399969921237
 30
0.0
 10
337.7227537632213
 20
197.3332724874026
 30
0.0
 10
338.1440952633174
 20
197.6257650046985
 30
0.0
 10
338.6611171815292
 20
197.8713720498394
 30
0.0
 10
339.2690913568031
 20
198.0056036925567
 30
0.0
 10
340.0984962870103
 20
198.0156331297449
 30
0.0
 10
341.1995665282553
 20
197.753507660081
 30
0.0
 10
342.6086945364532
 20
197.1850370468318
 30
0.0
 10
344.0883294360415
 20
196.6053043829384
 30
0.0
 10
345.4041097289186
 20
196.3327710857012
 30
0.0
 10
346.5113819640207
 20
196.4039841132109
 30
0.0
 10
347.3526046058469
 20
196.6436825322622
 30
0.0
 10
348.0477279073827
 20
197.02442392647
 30
0.0
 10
348.5888118337014
 20
197.4402458806869
 30
0.0
 10
348.8644128373085
 20
197.6967999115641
 30
0.0
 10
348.9934113232642
 20
197.8274162333045
 30
0.0
  0
INSERT
  5
26D
330
1F
100
AcDbEntity
  8
0
  6
Continuous
 62
     7
370
     0
100
AcDbBlockReference
  2
SW_CENTERMARKSYMBOL_5
 10
334.7169116402
 20
191.5499681048
 30
0.0
  0
INSERT
  5
291
330
1F
100
AcDbEntity
  8
0
  6
Continuous
 62
     7
370
     0
100
AcDbBlockReference
  2
SW_CENTERMARKSYMBOL_6
 10
357.9428443348
 20
184.5552979752
 30
0.0
  0
INSERT
  5
29D
330
1F
100
AcDbEntity
  8
0
  6
Continuous
 62
     7
370
     0
100
AcDbBlockReference
  2
SW_CENTERMARKSYMBOL_7
 10
342.9991210835
 20
160.6403416636
 30
0.0
  0
INSERT
  5
2A5
330
1F
100
AcDbEntity
  8
0
  6
Continuous
 62
     7
370
     0
100
AcDbBlockReference
  2
SW_CENTERMARKSYMBOL_8
 10
349.6522951896
 20
191.941064887
 30
0.0
  0
INSERT
  5
2C5
330
1F
100
AcDbEntity
  8
0
  6
Continuous
 62
     7
370
     0
100
AcDbBlockReference
  2
SW_CENTERMARKSYMBOL_9
 10
365.6265380814
 20
183.2677586615
 30
0.0
  0
CIRCLE
  5
2C6
330
1F
100
AcDbEntity
  8
0
  6
Continuous
 62
     7
370
     0
100
AcDbCircle
 10
349.6522951896
 20
191.941064887
 30
0.0
 40
1.500000059741353
  0
LINE
  5
2C7
330
1F
100
AcDbEntity
  8
0
  6
Continuous
 62
     7
370
    30
100
AcDbLine
 10
217.9265728954
 20
125.1403416636
 30
0.0
 11
225.3265728954
 21
125.1403416636
 31
0.0
  0
LINE
  5
2C8
330
1F
100
AcDbEntity
  8
0
  6
Continuous
 62
     7
370
    30
100
AcDbLine
 10
225.3265728954
 20
196.1403416636
 30
0.0
 11
217.9265728954
 21
196.1403416636
 31
0.0
  0
LINE
  5
2C9
330
1F
100
AcDbEntity
  8
0
  6
Continuous
 62
     7
370
    30
100
AcDbLine
 10
217.9265728954
 20
196.1403416636
 30
0.0
 11
217.6265728954
 21
195.8403416636
 31
0.0
  0
LINE
  5
2CA
330
1F
100
AcDbEntity
  8
0
  6
Continuous
 62
     7
370
    30
100
AcDbLine
 10
217.6265728954
 20
125.4403416636
 30
0.0
 11
217.9265728954
 21
125.1403416636
 31
0.0
  0
LINE
  5
2CB
330
1F
100
AcDbEntity
  8
0
  6
Continuous
 62
     7
370
    30
100
AcDbLine
 10
221.6265728954
 20
155.79093209
 30
0.0
 11
225.6265728954
 21
155.79093209
 31
0.0
  0
LINE
  5
2CC
330
1F
100
AcDbEntity
  8
0
  6
Continuous
 62
     7
370
    30
100
AcDbLine
 10
225.3265728954
 20
125.1403416636
 30
0.0
 11
225.6265728954
 21
125.4403416636
 31
0.0
  0
LINE
  5
2CD
330
1F
100
AcDbEntity
  8
0
  6
Continuous
 62
     7
370
    30
100
AcDbLine
 10
232.7765728954
 20
172.3340649149
 30
0.0
 11
233.2765728954
 21
172.3340649149
 31
0.0
  0
LINE
  5
2CE
330
1F
100
AcDbEntity
  8
0
  6
Continuous
 62
     7
370
    30
100
AcDbLine
 10
233.2765728954
 20
178.8340649149
 30
0.0
 11
232.7765728954
 21
178.8340649149
 31
0.0
  0
LINE
  5
2CF
330
1F
100
AcDbEntity
  8
0
  6
Continuous
 62
     7
370
    30
100
AcDbLine
 10
233.2765728954
 20
172.9840649149
 30
0.0
 11
233.8765728954
 21
172.9840649149
 31
0.0
  0
LINE
  5
2D0
330
1F
100
AcDbEntity
  8
0
  6
Continuous
 62
     7
370
    30
100
AcDbLine
 10
233.8765728954
 20
178.1840649149
 30
0.0
 11
233.2765728954
 21
178.1840649149
 31
0.0
  0
LINE
  5
2D1
330
1F
100
AcDbEntity
  8
0
  6
Continuous
 62
     7
370
    30
100
AcDbLine
 10
233.8765728954
 20
173.2440649149
 30
0.0
 11
236.2515728954
 21
173.2440649149
 31
0.0
  0
LINE
  5
2D2
330
1F
100
AcDbEntity
  8
0
  6
Continuous
 62
     7
370
    30
100
AcDbLine
 10
236.2515728954
 20
177.9240649149
 30
0.0
 11
233.8765728954
 21
177.9240649149
 31
0.0
  0
ARC
  5
2D3
330
1F
100
AcDbEntity
  8
0
  6
Continuous
 62
     7
370
    30
100
AcDbCircle
 10
236.2515728954
 20
173.3690649149
 30
0.0
 40
0.1250000000000284
100
AcDbArc
 50
270.0
 51
0.0
  0
ARC
  5
2D4
330
1F
100
AcDbEntity
  8
0
  6
Continuous
 62
     7
370
    30
100
AcDbCircle
 10
236.2515728954
 20
177.7990649149
 30
0.0
 40
0.125
100
AcDbArc
 50
0.0
 51
90.0
  0
LINE
  5
2D5
330
1F
100
AcDbEntity
  8
0
  6
Continuous
 62
     7
370
    30
100
AcDbLine
 10
232.7765728954
 20
179.3340649149
 30
0.0
 11
225.6265728954
 21
179.3340649149
 31
0.0
  0
LINE
  5
2D6
330
1F
100
AcDbEntity
  8
0
  6
Continuous
 62
     7
370
    30
100
AcDbLine
 10
236.3765728954
 20
135.8903416636
 30
0.0
 11
238.8765728954
 21
135.8903416636
 31
0.0
  0
LINE
  5
2D7
330
1F
100
AcDbEntity
  8
0
  6
Continuous
 62
     7
370
    30
100
AcDbLine
 10
233.5265728954
 20
185.3903416636
 30
0.0
 11
225.6265728954
 21
185.3903416636
 31
0.0
  0
LINE
  5
2D8
330
1F
100
AcDbEntity
  8
0
  6
Continuous
 62
     7
370
    30
100
AcDbLine
 10
239.9265728954
 20
185.3903416636
 30
0.0
 11
239.4265728954
 21
185.3903416636
 31
0.0
  0
LINE
  5
2D9
330
1F
100
AcDbEntity
  8
0
  6
Continuous
 62
     7
370
    30
100
AcDbLine
 10
232.7765728954
 20
133.4753853519
 30
0.0
 11
233.2765728954
 21
133.4753853519
 31
0.0
  0
LINE
  5
2DA
330
1F
100
AcDbEntity
  8
0
  6
Continuous
 62
     7
370
    30
100
AcDbLine
 10
233.2765728954
 20
139.9753853519
 30
0.0
 11
232.7765728954
 21
139.9753853519
 31
0.0
  0
LINE
  5
2DB
330
1F
100
AcDbEntity
  8
0
  6
Continuous
 62
     7
370
    30
100
AcDbLine
 10
233.2765728954
 20
134.1253853519
 30
0.0
 11
233.8765728954
 21
134.1253853519
 31
0.0
  0
LINE
  5
2DC
330
1F
100
AcDbEntity
  8
0
  6
Continuous
 62
     7
370
    30
100
AcDbLine
 10
233.8765728954
 20
139.3253853519
 30
0.0
 11
233.2765728954
 21
139.3253853519
 31
0.0
  0
ARC
  5
2DD
330
1F
100
AcDbEntity
  8
0
  6
Continuous
 62
     7
370
    30
100
AcDbCircle
 10
236.2515728954
 20
134.5103853519
 30
0.0
 40
0.125
100
AcDbArc
 50
270.0
 51
0.0
  0
ARC
  5
2DE
330
1F
100
AcDbEntity
  8
0
  6
Continuous
 62
     7
370
    30
100
AcDbCircle
 10
236.2515728954
 20
138.9403853519
 30
0.0
 40
0.1250000000000284
100
AcDbArc
 50
0.0
 51
90.0
  0
LINE
  5
2DF
330
1F
100
AcDbEntity
  8
0
  6
Continuous
 62
     7
370
    30
100
AcDbLine
 10
233.8765728954
 20
134.3853853519
 30
0.0
 11
236.2515728954
 21
134.3853853519
 31
0.0
  0
LINE
  5
2E0
330
1F
100
AcDbEntity
  8
0
  6
Continuous
 62
     7
370
    30
100
AcDbLine
 10
236.2515728954
 20
139.0653853519
 30
0.0
 11
233.8765728954
 21
139.0653853519
 31
0.0
  0
LINE
  5
2E1
330
1F
100
AcDbEntity
  8
0
  6
Continuous
 62
     7
370
    30
100
AcDbLine
 10
225.6265728954
 20
132.9753853519
 30
0.0
 11
232.7765728954
 21
132.9753853519
 31
0.0
  0
LINE
  5
2E2
330
1F
100
AcDbEntity
  8
0
  6
Continuous
 62
     7
370
    30
100
AcDbLine
 10
225.5652308355
 20
192.8213651532
 30
0.0
 11
221.6265728954
 21
192.8213651532
 31
0.0
  0
LINE
  5
2E3
330
1F
100
AcDbEntity
  8
0
  6
Continuous
 62
     7
370
    30
100
AcDbLine
 10
239.4265728954
 20
187.3403416636
 30
0.0
 11
238.7165728954
 21
187.3403416636
 31
0.0
  0
LINE
  5
2E4
330
1F
100
AcDbEntity
  8
0
  6
Continuous
 62
     7
370
    30
100
AcDbLine
 10
237.2365728954
 20
187.3403416636
 30
0.0
 11
235.8315728954
 21
187.3403416636
 31
0.0
  0
LINE
  5
2E5
330
1F
100
AcDbEntity
  8
0
  6
Continuous
 62
     7
370
    30
100
AcDbLine
 10
235.0215728954
 20
187.3403416636
 30
0.0
 11
233.5265728954
 21
187.3403416636
 31
0.0
  0
LINE
  5
2E6
330
1F
100
AcDbEntity
  8
0
  6
Continuous
 62
     7
370
    30
100
AcDbLine
 10
225.6265728954
 20
195.8403416636
 30
0.0
 11
225.3265728954
 21
196.1403416636
 31
0.0
  0
LINE
  5
2E7
330
1F
100
AcDbEntity
  8
0
  6
Continuous
 62
     7
370
    30
100
AcDbLine
 10
232.7765728954
 20
188.3052979752
 30
0.0
 11
225.6265728954
 21
188.3052979752
 31
0.0
  0
LINE
  5
2E8
330
1F
100
AcDbEntity
  8
0
  6
Continuous
 62
     7
370
    30
100
AcDbLine
 10
233.2765728954
 20
187.8052979752
 30
0.0
 11
232.7765728954
 21
187.8052979752
 31
0.0
  0
LINE
  5
2E9
330
1F
100
AcDbEntity
  8
0
  6
Continuous
 62
     7
370
    30
100
AcDbLine
 10
233.5265728954
 20
187.1552979752
 30
0.0
 11
233.2765728954
 21
187.1552979752
 31
0.0
  0
LINE
  5
2EA
330
1F
100
AcDbEntity
  8
0
  6
Continuous
 62
     7
370
    30
100
AcDbLine
 10
200.1265728954
 20
139.1403416636
 30
0.0
 11
202.6265728954
 21
139.1403416636
 31
0.0
  0
LINE
  5
2EB
330
1F
100
AcDbEntity
  8
0
  6
Continuous
 62
     7
370
    30
100
AcDbLine
 10
202.6265728954
 20
182.1403416636
 30
0.0
 11
200.1265728954
 21
182.1403416636
 31
0.0
  0
ARC
  5
2EC
330
1F
100
AcDbEntity
  8
0
  6
Continuous
 62
     7
370
    30
100
AcDbCircle
 10
200.1265728954
 20
181.6403416636
 30
0.0
 40
0.5
100
AcDbArc
 50
90.0
 51
180.0
  0
ARC
  5
2ED
330
1F
100
AcDbEntity
  8
0
  6
Continuous
 62
     7
370
    30
100
AcDbCircle
 10
200.1265728954
 20
139.6403416636
 30
0.0
 40
0.5
100
AcDbArc
 50
180.0
 51
270.0
  0
LINE
  5
2EE
330
1F
100
AcDbEntity
  8
0
  6
Continuous
 62
     7
370
    30
100
AcDbLine
 10
217.3265728954
 20
125.1403416636
 30
0.0
 11
217.6265728954
 21
125.4403416636
 31
0.0
  0
LINE
  5
2EF
330
1F
100
AcDbEntity
  8
0
  6
Continuous
 62
     7
370
    30
100
AcDbLine
 10
217.6265728954
 20
195.8403416636
 30
0.0
 11
217.3265728954
 21
196.1403416636
 31
0.0
  0
LINE
  5
2F0
330
1F
100
AcDbEntity
  8
0
  6
Continuous
 62
     7
370
    30
100
AcDbLine
 10
213.4265728954
 20
196.1403416636
 30
0.0
 11
213.1265728954
 21
195.8403416636
 31
0.0
  0
LINE
  5
2F1
330
1F
100
AcDbEntity
  8
0
  6
Continuous
 62
     7
370
    30
100
AcDbLine
 10
213.1265728954
 20
125.4403416636
 30
0.0
 11
213.4265728954
 21
125.1403416636
 31
0.0
  0
LINE
  5
2F2
330
1F
100
AcDbEntity
  8
0
  6
Continuous
 62
     7
370
    30
100
AcDbLine
 10
213.4265728954
 20
125.1403416636
 30
0.0
 11
217.3265728954
 21
125.1403416636
 31
0.0
  0
LINE
  5
2F3
330
1F
100
AcDbEntity
  8
0
  6
Continuous
 62
     7
370
    30
100
AcDbLine
 10
217.3265728954
 20
196.1403416636
 30
0.0
 11
213.4265728954
 21
196.1403416636
 31
0.0
  0
ARC
  5
2F4
330
1F
100
AcDbEntity
  8
0
  6
Continuous
 62
     7
370
    30
100
AcDbCircle
 10
212.7265728954
 20
131.2403416636
 30
0.0
 40
0.4000000000000057
100
AcDbArc
 50
360.0
 51
90.0
  0
ARC
  5
2F5
330
1F
100
AcDbEntity
  8
0
  6
Continuous
 62
     7
370
    30
100
AcDbCircle
 10
212.7265728954
 20
190.0403416636
 30
0.0
 40
0.4000000000000057
100
AcDbArc
 50
270.0
 51
0.0
  0
LINE
  5
2F6
330
1F
100
AcDbEntity
  8
0
  6
Continuous
 62
     7
370
    30
100
AcDbLine
 10
208.4265728954
 20
131.6403416636
 30
0.0
 11
212.7265728954
 21
131.6403416636
 31
0.0
  0
LINE
  5
2F7
330
1F
100
AcDbEntity
  8
0
  6
Continuous
 62
     7
370
    30
100
AcDbLine
 10
212.7265728954
 20
189.6403416636
 30
0.0
 11
208.4265728954
 21
189.6403416636
 31
0.0
  0
LINE
  5
2F8
330
1F
100
AcDbEntity
  8
0
  6
Continuous
 62
     7
370
    30
100
AcDbLine
 10
208.4265728954
 20
189.6403416636
 30
0.0
 11
208.1265728954
 21
189.3403416636
 31
0.0
  0
LINE
  5
2F9
330
1F
100
AcDbEntity
  8
0
  6
Continuous
 62
     7
370
    30
100
AcDbLine
 10
208.1265728954
 20
131.9403416636
 30
0.0
 11
208.4265728954
 21
131.6403416636
 31
0.0
  0
LINE
  5
2FA
330
1F
100
AcDbEntity
  8
0
  6
Continuous
 62
     7
370
    30
100
AcDbLine
 10
207.1265728954
 20
132.1403416636
 30
0.0
 11
208.1265728954
 21
132.1403416636
 31
0.0
  0
LINE
  5
2FB
330
1F
100
AcDbEntity
  8
0
  6
Continuous
 62
     7
370
    30
100
AcDbLine
 10
208.1265728954
 20
189.1403416636
 30
0.0
 11
207.1265728954
 21
189.1403416636
 31
0.0
  0
LINE
  5
2FC
330
1F
100
AcDbEntity
  8
0
  6
Continuous
 62
     7
370
    30
100
AcDbLine
 10
207.1265728954
 20
189.1403416636
 30
0.0
 11
203.6265728954
 21
189.0792489363
 31
0.0
  0
LINE
  5
2FD
330
1F
100
AcDbEntity
  8
0
  6
Continuous
 62
     7
370
    30
100
AcDbLine
 10
203.6265728954
 20
132.2014343908
 30
0.0
 11
207.1265728954
 21
132.1403416636
 31
0.0
  0
LINE
  5
2FE
330
1F
100
AcDbEntity
  8
0
  6
Continuous
 62
     7
370
    30
100
AcDbLine
 10
203.0265728954
 20
189.0792489363
 30
0.0
 11
202.6265728954
 21
188.6792489363
 31
0.0
  0
LINE
  5
2FF
330
1F
100
AcDbEntity
  8
0
  6
Continuous
 62
     7
370
    30
100
AcDbLine
 10
202.6265728954
 20
132.6014343908
 30
0.0
 11
203.0265728954
 21
132.2014343908
 31
0.0
  0
LINE
  5
300
330
1F
100
AcDbEntity
  8
0
  6
Continuous
 62
     7
370
    30
100
AcDbLine
 10
203.0265728954
 20
132.2014343908
 30
0.0
 11
203.6265728954
 21
132.2014343908
 31
0.0
  0
LINE
  5
301
330
1F
100
AcDbEntity
  8
0
  6
Continuous
 62
     7
370
    30
100
AcDbLine
 10
203.6265728954
 20
189.0792489363
 30
0.0
 11
203.0265728954
 21
189.0792489363
 31
0.0
  0
LINE
  5
302
330
1F
100
AcDbEntity
  8
0
  6
Continuous
 62
     7
370
    30
100
AcDbLine
 10
224.4765728954
 20
194.3899681048
 30
0.0
 11
221.6265728954
 21
194.3899681048
 31
0.0
  0
ARC
  5
303
330
1F
100
AcDbEntity
  8
0
  6
Continuous
 62
     7
370
    30
100
AcDbCircle
 10
224.4765728954
 20
194.2399681048
 30
0.0
 40
0.1500000000000057
100
AcDbArc
 50
0.0
 51
90.0
  0
LINE
  5
304
330
1F
100
AcDbEntity
  8
0
  6
Continuous
 62
     7
370
    30
100
AcDbLine
 10
221.6265728954
 20
149.5181322203
 30
0.0
 11
224.4765728954
 21
149.5181322203
 31
0.0
  0
LINE
  5
305
330
1F
100
AcDbEntity
  8
0
  6
Continuous
 62
     7
370
    30
100
AcDbLine
 10
224.4765728954
 20
155.1981322203
 30
0.0
 11
221.6265728954
 21
155.1981322203
 31
0.0
  0
ARC
  5
306
330
1F
100
AcDbEntity
  8
0
  6
Continuous
 62
     7
370
    30
100
AcDbCircle
 10
224.4765728954
 20
155.0481322203
 30
0.0
 40
0.1500000000000057
100
AcDbArc
 50
0.0
 51
90.0
  0
ARC
  5
307
330
1F
100
AcDbEntity
  8
0
  6
Continuous
 62
     7
370
    30
100
AcDbCircle
 10
224.4765728954
 20
149.6681322203
 30
0.0
 40
0.1500000000000057
100
AcDbArc
 50
270.0
 51
0.0
  0
LINE
  5
308
330
1F
100
AcDbEntity
  8
0
  6
Continuous
 62
     7
370
    30
100
AcDbLine
 10
237.2365728954
 20
200.6403416636
 30
0.0
 11
237.2365728954
 21
187.2516051378
 31
0.0
  0
LINE
  5
309
330
1F
100
AcDbEntity
  8
0
  6
Continuous
 62
     7
370
    30
100
AcDbLine
 10
238.7165728954
 20
187.2516051378
 30
0.0
 11
238.7165728954
 21
200.6403416636
 31
0.0
  0
LINE
  5
30A
330
1F
100
AcDbEntity
  8
0
  6
Continuous
 62
     7
370
    30
100
AcDbLine
 10
238.3765728954
 20
200.6403416636
 30
0.0
 11
238.3765728954
 21
205.6403416636
 31
0.0
  0
LINE
  5
30B
330
1F
100
AcDbEntity
  8
0
  6
Continuous
 62
     7
370
    30
100
AcDbLine
 10
237.5765728954
 20
205.6403416636
 30
0.0
 11
237.5765728954
 21
200.6403416636
 31
0.0
  0
LINE
  5
30C
330
1F
100
AcDbEntity
  8
0
  6
Continuous
 62
     7
370
    30
100
AcDbLine
 10
235.0215728954
 20
200.6403416636
 30
0.0
 11
235.0215728954
 21
187.0678144158
 31
0.0
  0
LINE
  5
30D
330
1F
100
AcDbEntity
  8
0
  6
Continuous
 62
     7
370
    30
100
AcDbLine
 10
235.8315728954
 20
187.0678144158
 30
0.0
 11
235.8315728954
 21
200.6403416636
 31
0.0
  0
LINE
  5
30E
330
1F
100
AcDbEntity
  8
0
  6
Continuous
 62
     7
370
    30
100
AcDbLine
 10
235.6265728954
 20
200.6403416636
 30
0.0
 11
235.6265728954
 21
205.6403416636
 31
0.0
  0
LINE
  5
30F
330
1F
100
AcDbEntity
  8
0
  6
Continuous
 62
     7
370
    30
100
AcDbLine
 10
235.2265728954
 20
205.6403416636
 30
0.0
 11
235.2265728954
 21
200.6403416636
 31
0.0
  0
LINE
  5
310
330
1F
100
AcDbEntity
  8
0
  6
Continuous
 62
     7
370
     0
100
AcDbLine
 10
207.1843790352
 20
141.566136241
 30
0.0
 11
207.1404122675
 21
141.5545042254
 31
0.0
  0
LINE
  5
311
330
1F
100
AcDbEntity
  8
0
  6
Continuous
 62
     7
370
     0
100
AcDbLine
 10
207.2765728954
 20
144.6555734478
 30
0.0
 11
207.5265728954
 21
144.58642872
 31
0.0
  0
LINE
  5
312
330
1F
100
AcDbEntity
  8
0
  6
Continuous
 62
     7
370
     0
100
AcDbLine
 10
207.5265728954
 20
141.6661602812
 30
0.0
 11
207.1843790352
 21
141.566136241
 31
0.0
  0
SPLINE
  5
313
330
1F
100
AcDbEntity
  8
0
  6
Continuous
 62
     7
370
     0
100
AcDbSpline
210
0.0
220
0.0
230
1.0
 70
     8
 71
     3
 72
    11
 73
     7
 74
     0
 42
0.000000001
 43
0.00000001
 40
0.0
 40
0.0
 40
0.0
 40
0.0
 40
0.3441378608668537
 40
0.6935203122793603
 40
0.8856232504408782
 40
1.0
 40
1.0
 40
1.0
 40
1.0
 10
207.5265728954137
 20
141.6661602811984
 30
0.0
 10
207.5339337196627
 20
141.668401989686
 30
0.0
 10
207.5487675456154
 20
141.6729195698398
 30
0.0
 10
207.6434627333475
 20
141.702371980748
 30
0.0
 10
207.7451835139389
 20
141.7351045618863
 30
0.0
 10
207.8044535880273
 20
141.7548221208203
 30
0.0
 10
207.8265728954137
 20
141.7621806192475
 30
0.0
  0
SPLINE
  5
314
330
1F
100
AcDbEntity
  8
0
  6
Continuous
 62
     7
370
     0
100
AcDbSpline
210
0.0
220
0.0
230
1.0
 70
     8
 71
     3
 72
    13
 73
     9
 74
     0
 42
0.000000001
 43
0.00000001
 40
0.0
 40
0.0
 40
0.0
 40
0.0
 40
0.156463898753852
 40
0.3135955039159842
 40
0.4606058068059548
 40
0.611544370577217
 40
0.8323537296376424
 40
1.0
 40
1.0
 40
1.0
 40
1.0
 10
207.8265728954137
 20
144.4904083819338
 30
0.0
 10
207.8013506262234
 20
144.4987989607337
 30
0.0
 10
207.7507984523375
 20
144.5156159249525
 30
0.0
 10
207.6762286473551
 20
144.5396761695613
 30
0.0
 10
207.6141779272764
 20
144.5593122377072
 30
0.0
 10
207.5622147373813
 20
144.5754922071619
 30
0.0
 10
207.5314030087349
 20
144.5849507624844
 30
0.0
 10
207.5280290143085
 20
144.5859831648384
 30
0.0
 10
207.5265728954137
 20
144.586428719983
 30
0.0
  0
LINE
  5
315
330
1F
100
AcDbEntity
  8
0
  6
Continuous
 62
     7
370
     0
100
AcDbLine
 10
208.0412787778
 20
141.8366860265
 30
0.0
 11
207.7839258366
 21
141.7514231539
 31
0.0
  0
LINE
  5
316
330
1F
100
AcDbEntity
  8
0
  6
Continuous
 62
     7
370
     0
100
AcDbLine
 10
207.7812154402
 20
144.502063821
 30
0.0
 11
208.0412787778
 21
144.4159029747
 31
0.0
  0
LINE
  5
317
330
1F
100
AcDbEntity
  8
0
  6
Continuous
 62
     7
370
    30
100
AcDbLine
 10
221.6265728954
 20
196.0502593953
 30
0.0
 11
221.6265728954
 21
192.5699275388
 31
0.0
  0
LINE
  5
318
330
1F
100
AcDbEntity
  8
0
  6
Continuous
 62
     7
370
    30
100
AcDbLine
 10
225.3265728954
 20
158.1129465163
 30
0.0
 11
225.3265728954
 21
192.5699275388
 31
0.0
  0
LINE
  5
319
330
1F
100
AcDbEntity
  8
0
  6
Continuous
 62
     7
370
    30
100
AcDbLine
 10
221.6265728954
 20
158.1129465163
 30
0.0
 11
221.6265728954
 21
145.1241712006
 31
0.0
  0
LINE
  5
31A
330
1F
100
AcDbEntity
  8
0
  6
Continuous
 62
     7
370
    30
100
AcDbLine
 10
225.3265728954
 20
125.1403416636
 30
0.0
 11
225.3265728954
 21
145.1241712006
 31
0.0
  0
LINE
  5
31B
330
1F
100
AcDbEntity
  8
0
  6
Continuous
 62
     7
370
    30
100
AcDbLine
 10
225.3265728954
 20
196.0502593953
 30
0.0
 11
225.3265728954
 21
196.1403416636
 31
0.0
  0
LINE
  5
31C
330
1F
100
AcDbEntity
  8
0
  6
Continuous
 62
     7
370
    30
100
AcDbLine
 10
217.9265728954
 20
196.1403416636
 30
0.0
 11
217.9265728954
 21
125.1403416636
 31
0.0
  0
SPLINE
  5
31D
330
1F
100
AcDbEntity
  8
0
  6
Continuous
 62
     7
370
    30
100
AcDbSpline
210
0.0
220
0.0
230
1.0
 70
     8
 71
     3
 72
    11
 73
     7
 74
     0
 42
0.000000001
 43
0.00000001
 40
0.0
 40
0.0
 40
0.0
 40
0.0
 40
0.2540690857151912
 40
0.5143002597682619
 40
0.7536045550238945
 40
1.0
 40
1.0
 40
1.0
 40
1.0
 10
225.6265728954137
 20
192.8168226334045
 30
0.0
 10
225.5820817564818
 20
192.8194723095193
 30
0.0
 10
225.4920204086179
 20
192.8248359259165
 30
0.0
 10
225.398996848652
 20
192.7810107015233
 30
0.0
 10
225.3379202176024
 20
192.7005098363388
 30
0.0
 10
225.3303919732556
 20
192.6138765825351
 30
0.0
 10
225.3265728954137
 20
192.5699275388101
 30
0.0
  0
LINE
  5
31E
330
1F
100
AcDbEntity
  8
0
  6
Continuous
 62
     7
370
    30
100
AcDbLine
 10
225.6265728954
 20
192.8168226334
 30
0.0
 11
225.6265728954
 21
156.9127465622
 31
0.0
  0
SPLINE
  5
31F
330
1F
100
AcDbEntity
  8
0
  6
Continuous
 62
     7
370
    30
100
AcDbSpline
210
0.0
220
0.0
230
1.0
 70
     8
 71
     3
 72
    11
 73
     7
 74
     0
 42
0.000000001
 43
0.00000001
 40
0.0
 40
0.0
 40
0.0
 40
0.0
 40
0.2517477024516517
 40
0.5120039459642436
 40
0.7532167126696967
 40
1.0
 40
1.0
 40
1.0
 40
1.0
 10
225.3265728954137
 20
158.1129465162591
 30
0.0
 10
225.3305740546549
 20
158.0021579867573
 30
0.0
 10
225.3387116038758
 20
157.776836509262
 30
0.0
 10
225.4031052628137
 20
157.4609085773257
 30
0.0
 10
225.4976855118163
 20
157.1672737485612
 30
0.0
 10
225.5832847265323
 20
156.9982321661186
 30
0.0
 10
225.6265728954137
 20
156.9127465621559
 30
0.0
  0
LINE
  5
320
330
1F
100
AcDbEntity
  8
0
  6
Continuous
 62
     7
370
    30
100
AcDbLine
 10
217.6265728954
 20
125.4403416636
 30
0.0
 11
217.6265728954
 21
195.8403416636
 31
0.0
  0
LINE
  5
321
330
1F
100
AcDbEntity
  8
0
  6
Continuous
 62
     7
370
    30
100
AcDbLine
 10
225.6265728954
 20
156.9127465622
 30
0.0
 11
225.6265728954
 21
155.79093209
 31
0.0
  0
SPLINE
  5
322
330
1F
100
AcDbEntity
  8
0
  6
Continuous
 62
     7
370
    30
100
AcDbSpline
210
0.0
220
0.0
230
1.0
 70
     8
 71
     3
 72
    11
 73
     7
 74
     0
 42
0.000000001
 43
0.00000001
 40
0.0
 40
0.0
 40
0.0
 40
0.0
 40
0.2540690857151887
 40
0.5143002597682579
 40
0.7536045550238921
 40
1.0
 40
1.0
 40
1.0
 40
1.0
 10
225.6265728954137
 20
146.3674977844697
 30
0.0
 10
225.5820817564818
 20
146.2642375024732
 30
0.0
 10
225.4920204086179
 20
146.055212505571
 30
0.0
 10
225.398996848652
 20
145.7366638830923
 30
0.0
 10
225.3379202176025
 20
145.4208290360754
 30
0.0
 10
225.3303919732556
 20
145.2240149652755
 30
0.0
 10
225.3265728954137
 20
145.1241712006296
 30
0.0
  0
LINE
  5
323
330
1F
100
AcDbEntity
  8
0
  6
Continuous
 62
     7
370
    30
100
AcDbLine
 10
225.6265728954
 20
148.6316738271
 30
0.0
 11
225.6265728954
 21
146.3674977845
 31
0.0
  0
LINE
  5
324
330
1F
100
AcDbEntity
  8
0
  6
Continuous
 62
     7
370
    30
100
AcDbLine
 10
225.6265728954
 20
146.3674977845
 30
0.0
 11
225.6265728954
 21
125.4403416636
 31
0.0
  0
LINE
  5
325
330
1F
100
AcDbEntity
  8
0
  6
Continuous
 62
     7
370
    30
100
AcDbLine
 10
225.6265728954
 20
148.7359103717
 30
0.0
 11
225.6265728954
 21
155.79093209
 31
0.0
  0
LINE
  5
326
330
1F
100
AcDbEntity
  8
0
  6
Continuous
 62
     7
370
    30
100
AcDbLine
 10
225.6265728954
 20
148.6316738271
 30
0.0
 11
225.6265728954
 21
148.7359103717
 31
0.0
  0
LINE
  5
327
330
1F
100
AcDbEntity
  8
0
  6
Continuous
 62
     7
370
    30
100
AcDbLine
 10
232.7765728954
 20
176.3644951135
 30
0.0
 11
225.6265728954
 21
176.3644951135
 31
0.0
  0
LINE
  5
328
330
1F
100
AcDbEntity
  8
0
  6
Continuous
 62
     7
370
    30
100
AcDbLine
 10
232.7765728954
 20
176.3644951135
 30
0.0
 11
232.7765728954
 21
172.4584273427
 31
0.0
  0
LINE
  5
329
330
1F
100
AcDbEntity
  8
0
  6
Continuous
 62
     7
370
    30
100
AcDbLine
 10
232.7765728954
 20
178.538625956
 30
0.0
 11
225.6265728954
 21
178.538625956
 31
0.0
  0
LINE
  5
32A
330
1F
100
AcDbEntity
  8
0
  6
Continuous
 62
     7
370
    30
100
AcDbLine
 10
232.7765728954
 20
178.538625956
 30
0.0
 11
232.7765728954
 21
176.3644951135
 31
0.0
  0
LINE
  5
32B
330
1F
100
AcDbEntity
  8
0
  6
Continuous
 62
     7
370
    30
100
AcDbLine
 10
233.2765728954
 20
172.3340649149
 30
0.0
 11
233.2765728954
 21
178.8340649149
 31
0.0
  0
LINE
  5
32C
330
1F
100
AcDbEntity
  8
0
  6
Continuous
 62
     7
370
    30
100
AcDbLine
 10
233.8765728954
 20
172.9840649149
 30
0.0
 11
233.8765728954
 21
178.1840649149
 31
0.0
  0
LINE
  5
32D
330
1F
100
AcDbEntity
  8
0
  6
Continuous
 62
     7
370
    30
100
AcDbLine
 10
236.3765728954
 20
175.5840649149
 30
0.0
 11
236.3765728954
 21
173.3690649149
 31
0.0
  0
LINE
  5
32E
330
1F
100
AcDbEntity
  8
0
  6
Continuous
 62
     7
370
    30
100
AcDbLine
 10
236.3765728954
 20
177.7990649149
 30
0.0
 11
236.3765728954
 21
175.5840649149
 31
0.0
  0
LINE
  5
32F
330
1F
100
AcDbEntity
  8
0
  6
Continuous
 62
     7
370
    30
100
AcDbLine
 10
232.7765728954
 20
179.3340649149
 30
0.0
 11
232.7765728954
 21
178.538625956
 31
0.0
  0
LINE
  5
330
330
1F
100
AcDbEntity
  8
0
  6
Continuous
 62
     7
370
    30
100
AcDbLine
 10
232.7765728954
 20
167.0051006778
 30
0.0
 11
232.7765728954
 21
172.4584273427
 31
0.0
  0
LINE
  5
331
330
1F
100
AcDbEntity
  8
0
  6
Continuous
 62
     7
370
    30
100
AcDbLine
 10
239.9265728954
 20
185.3903416636
 30
0.0
 11
239.9265728954
 21
184.379813014
 31
0.0
  0
LINE
  5
332
330
1F
100
AcDbEntity
  8
0
  6
Continuous
 62
     7
370
    30
100
AcDbLine
 10
239.9265728954
 20
184.379813014
 30
0.0
 11
238.8765728954
 21
184.379813014
 31
0.0
  0
LINE
  5
333
330
1F
100
AcDbEntity
  8
0
  6
Continuous
 62
     7
370
     0
100
AcDbLine
 10
233.5265728954
 20
184.7714937289
 30
0.0
 11
239.4265728954
 21
184.7714937289
 31
0.0
  0
LINE
  5
334
330
1F
100
AcDbEntity
  8
0
  6
Continuous
 62
     7
370
     0
100
AcDbLine
 10
238.8765728954
 20
135.8903416636
 30
0.0
 11
238.8765728954
 21
184.379813014
 31
0.0
  0
LINE
  5
335
330
1F
100
AcDbEntity
  8
0
  6
Continuous
 62
     7
370
    30
100
AcDbLine
 10
232.7765728954
 20
138.6264159024
 30
0.0
 11
232.7765728954
 21
144.4349415149
 31
0.0
  0
LINE
  5
336
330
1F
100
AcDbEntity
  8
0
  6
Continuous
 62
     7
370
    30
100
AcDbLine
 10
232.7765728954
 20
134.4160414939
 30
0.0
 11
225.6265728954
 21
134.4160414939
 31
0.0
  0
LINE
  5
337
330
1F
100
AcDbEntity
  8
0
  6
Continuous
 62
     7
370
    30
100
AcDbLine
 10
232.7765728954
 20
138.6264159024
 30
0.0
 11
232.7765728954
 21
134.4160414939
 31
0.0
  0
LINE
  5
338
330
1F
100
AcDbEntity
  8
0
  6
Continuous
 62
     7
370
    30
100
AcDbLine
 10
233.2765728954
 20
136.7253853519
 30
0.0
 11
233.2765728954
 21
139.9753853519
 31
0.0
  0
LINE
  5
339
330
1F
100
AcDbEntity
  8
0
  6
Continuous
 62
     7
370
    30
100
AcDbLine
 10
233.2765728954
 20
133.4753853519
 30
0.0
 11
233.2765728954
 21
136.7253853519
 31
0.0
  0
LINE
  5
33A
330
1F
100
AcDbEntity
  8
0
  6
Continuous
 62
     7
370
    30
100
AcDbLine
 10
232.7765728954
 20
133.0574937634
 30
0.0
 11
225.6265728954
 21
133.0574937634
 31
0.0
  0
LINE
  5
33B
330
1F
100
AcDbEntity
  8
0
  6
Continuous
 62
     7
370
    30
100
AcDbLine
 10
232.7765728954
 20
134.4160414939
 30
0.0
 11
232.7765728954
 21
133.0574937634
 31
0.0
  0
LINE
  5
33C
330
1F
100
AcDbEntity
  8
0
  6
Continuous
 62
     7
370
    30
100
AcDbLine
 10
233.8765728954
 20
136.7253853519
 30
0.0
 11
233.8765728954
 21
139.3253853519
 31
0.0
  0
LINE
  5
33D
330
1F
100
AcDbEntity
  8
0
  6
Continuous
 62
     7
370
    30
100
AcDbLine
 10
233.8765728954
 20
134.1253853519
 30
0.0
 11
233.8765728954
 21
136.7253853519
 31
0.0
  0
LINE
  5
33E
330
1F
100
AcDbEntity
  8
0
  6
Continuous
 62
     7
370
    30
100
AcDbLine
 10
236.3765728954
 20
136.7253853519
 30
0.0
 11
236.3765728954
 21
134.5103853519
 31
0.0
  0
LINE
  5
33F
330
1F
100
AcDbEntity
  8
0
  6
Continuous
 62
     7
370
    30
100
AcDbLine
 10
236.3765728954
 20
138.9403853519
 30
0.0
 11
236.3765728954
 21
136.7253853519
 31
0.0
  0
LINE
  5
340
330
1F
100
AcDbEntity
  8
0
  6
Continuous
 62
     7
370
    30
100
AcDbLine
 10
232.7765728954
 20
133.0574937634
 30
0.0
 11
232.7765728954
 21
132.9753853519
 31
0.0
  0
LINE
  5
341
330
1F
100
AcDbEntity
  8
0
  6
Continuous
 62
     7
370
    30
100
AcDbLine
 10
239.9265728954
 20
184.379813014
 30
0.0
 11
239.9265728954
 21
175.1403416636
 31
0.0
  0
LINE
  5
342
330
1F
100
AcDbEntity
  8
0
  6
Continuous
 62
     7
370
    30
100
AcDbLine
 10
239.9265728954
 20
173.6403416636
 30
0.0
 11
238.8765728954
 21
173.6403416636
 31
0.0
  0
LINE
  5
343
330
1F
100
AcDbEntity
  8
0
  6
Continuous
 62
     7
370
    30
100
AcDbLine
 10
239.9265728954
 20
175.1403416636
 30
0.0
 11
239.9265728954
 21
173.6403416636
 31
0.0
  0
LINE
  5
344
330
1F
100
AcDbEntity
  8
0
  6
Continuous
 62
     7
370
     0
100
AcDbLine
 10
233.5265728954
 20
186.8715764196
 30
0.0
 11
239.4265728954
 21
186.8715764196
 31
0.0
  0
LINE
  5
345
330
1F
100
AcDbEntity
  8
0
  6
Continuous
 62
     7
370
     0
100
AcDbLine
 10
233.5265728954
 20
186.8715764196
 30
0.0
 11
233.5265728954
 21
187.3403416636
 31
0.0
  0
LINE
  5
346
330
1F
100
AcDbEntity
  8
0
  6
Continuous
 62
     7
370
     0
100
AcDbLine
 10
239.4265728954
 20
186.8715764196
 30
0.0
 11
239.4265728954
 21
187.3403416636
 31
0.0
  0
LINE
  5
347
330
1F
100
AcDbEntity
  8
0
  6
Continuous
 62
     7
370
    30
100
AcDbLine
 10
233.5265728954
 20
186.8715764196
 30
0.0
 11
233.5265728954
 21
184.7714937289
 31
0.0
  0
LINE
  5
348
330
1F
100
AcDbEntity
  8
0
  6
Continuous
 62
     7
370
     0
100
AcDbLine
 10
239.4265728954
 20
186.8715764196
 30
0.0
 11
239.4265728954
 21
184.7714937289
 31
0.0
  0
SPLINE
  5
349
330
1F
100
AcDbEntity
  8
0
  6
Continuous
 62
     7
370
    30
100
AcDbSpline
210
0.0
220
0.0
230
1.0
 70
     8
 71
     3
 72
    11
 73
     7
 74
     0
 42
0.000000001
 43
0.00000001
 40
0.0
 40
0.0
 40
0.0
 40
0.0
 40
0.2517477024516483
 40
0.5120039459642355
 40
0.7532167126696941
 40
1.0
 40
1.0
 40
1.0
 40
1.0
 10
225.3265728954137
 20
196.0502593953023
 30
0.0
 10
225.3305740546549
 20
196.03803453069
 30
0.0
 10
225.3387116038758
 20
196.0131716268405
 30
0.0
 10
225.4031052628137
 20
195.9212448200576
 30
0.0
 10
225.4976855118163
 20
195.7985743087013
 30
0.0
 10
225.5832847265324
 20
195.6948617506662
 30
0.0
 10
225.6265728954137
 20
195.6424135273708
 30
0.0
  0
LINE
  5
34A
330
1F
100
AcDbEntity
  8
0
  6
Continuous
 62
     7
370
    30
100
AcDbLine
 10
225.6265728954
 20
195.6424135274
 30
0.0
 11
225.6265728954
 21
192.9095556043
 31
0.0
  0
LINE
  5
34B
330
1F
100
AcDbEntity
  8
0
  6
Continuous
 62
     7
370
    30
100
AcDbLine
 10
225.6265728954
 20
192.8168226334
 30
0.0
 11
225.6265728954
 21
192.9095556043
 31
0.0
  0
LINE
  5
34C
330
1F
100
AcDbEntity
  8
0
  6
Continuous
 62
     7
370
    30
100
AcDbLine
 10
225.6265728954
 20
195.8403416636
 30
0.0
 11
225.6265728954
 21
195.6424135274
 31
0.0
  0
LINE
  5
34D
330
1F
100
AcDbEntity
  8
0
  6
Continuous
 62
     7
370
    30
100
AcDbLine
 10
232.7765728954
 20
185.3903416636
 30
0.0
 11
232.7765728954
 21
186.3290932028
 31
0.0
  0
LINE
  5
34E
330
1F
100
AcDbEntity
  8
0
  6
Continuous
 62
     7
370
    30
100
AcDbLine
 10
232.7765728954
 20
188.3052979752
 30
0.0
 11
232.7765728954
 21
186.3290932028
 31
0.0
  0
LINE
  5
34F
330
1F
100
AcDbEntity
  8
0
  6
Continuous
 62
     7
370
    30
100
AcDbLine
 10
233.2765728954
 20
185.3903416636
 30
0.0
 11
233.2765728954
 21
187.8052979752
 31
0.0
  0
SPLINE
  5
350
330
1F
100
AcDbEntity
  8
0
  6
Continuous
 62
     7
370
     0
100
AcDbSpline
210
0.0
220
0.0
230
1.0
 70
     8
 71
     3
 72
     9
 73
     5
 74
     0
 42
0.000000001
 43
0.00000001
 40
0.0
 40
0.0
 40
0.0
 40
0.0
 40
0.8595107974093882
 40
1.0
 40
1.0
 40
1.0
 40
1.0
 10
200.1265728954137
 20
145.7621956564076
 30
0.0
 10
200.8454035734747
 20
145.7032622365734
 30
0.0
 10
201.6817289346308
 20
145.6346960009754
 30
0.0
 10
202.510183915736
 20
145.5307876933917
 30
0.0
 10
202.6265728954137
 20
145.5161896981167
 30
0.0
  0
SPLINE
  5
351
330
1F
100
AcDbEntity
  8
0
  6
Continuous
 62
     7
370
     0
100
AcDbSpline
210
0.0
220
0.0
230
1.0
 70
     8
 71
     3
 72
     9
 73
     5
 74
     0
 42
0.000000001
 43
0.00000001
 40
0.0
 40
0.0
 40
0.0
 40
0.0
 40
0.389577271227183
 40
0.9999999999999999
 40
0.9999999999999999
 40
0.9999999999999999
 40
0.9999999999999999
 10
202.6265728954137
 20
140.7389394408021
 30
0.0
 10
202.3058636227357
 20
140.70015300525
 30
0.0
 10
201.4826398456715
 20
140.6005926909895
 30
0.0
 10
200.6405833309258
 20
140.5321638590767
 30
0.0
 10
200.1265728954137
 20
140.4903933447738
 30
0.0
  0
SPLINE
  5
352
330
1F
100
AcDbEntity
  8
0
  6
Continuous
 62
     7
370
     0
100
AcDbSpline
210
0.0
220
0.0
230
1.0
 70
     8
 71
     3
 72
    12
 73
     8
 74
     0
 42
0.000000001
 43
0.00000001
 40
0.0
 40
0.0
 40
0.0
 40
0.0
 40
0.1377857623335106
 40
0.2752793732638453
 40
0.451712719288109
 40
0.6918099956716477
 40
0.9999999999999999
 40
0.9999999999999999
 40
0.9999999999999999
 40
0.9999999999999999
 10
200.1265728954137
 20
145.7621956564076
 30
0.0
 10
200.0837282722216
 20
145.7654835432566
 30
0.0
 10
199.9981298706139
 20
145.7720523455467
 30
0.0
 10
199.8708043224992
 20
145.7815205352262
 30
0.0
 10
199.7495142693711
 20
145.790341381271
 30
0.0
 10
199.6477593940673
 20
145.7975529794609
 30
0.0
 10
199.6341965267998
 20
145.7984991603077
 30
0.0
 10
199.6265728954137
 20
145.7990310046337
 30
0.0
  0
LINE
  5
353
330
1F
100
AcDbEntity
  8
0
  6
Continuous
 62
     7
370
    30
100
AcDbLine
 10
199.6265728954
 20
145.7990310046
 30
0.0
 11
199.6265728954
 21
181.6403416636
 31
0.0
  0
LINE
  5
354
330
1F
100
AcDbEntity
  8
0
  6
Continuous
 62
     7
370
    30
100
AcDbLine
 10
199.6265728954
 20
139.6403416636
 30
0.0
 11
199.6265728954
 21
140.4535579965
 31
0.0
  0
SPLINE
  5
355
330
1F
100
AcDbEntity
  8
0
  6
Continuous
 62
     7
370
     0
100
AcDbSpline
210
0.0
220
0.0
230
1.0
 70
     8
 71
     3
 72
    14
 73
    10
 74
     0
 42
0.000000001
 43
0.00000001
 40
0.0
 40
0.0
 40
0.0
 40
0.0
 40
0.2692889253895707
 40
0.5412064972620595
 40
0.6938878527889827
 40
0.859085427806901
 40
0.9221972178007541
 40
0.9733164769809393
 40
1.0
 40
1.0
 40
1.0
 40
1.0
 10
199.6265728954137
 20
140.4535579965477
 30
0.0
 10
199.6301973973966
 20
140.4538119386101
 30
0.0
 10
199.637481781705
 20
140.454322301574
 30
0.0
 10
199.6969448081304
 20
140.458506604879
 30
0.0
 10
199.7909650428811
 20
140.4652547592853
 30
0.0
 10
199.885414430009
 20
140.4721381680291
 30
0.0
 10
199.9937812551566
 20
140.4802445623721
 30
0.0
 10
200.0643578419211
 20
140.4855978436842
 30
0.0
 10
200.1106845279522
 20
140.4891686784078
 30
0.0
 10
200.1265728954137
 20
140.4903933447738
 30
0.0
  0
LINE
  5
356
330
1F
100
AcDbEntity
  8
0
  6
Continuous
 62
     7
370
    30
100
AcDbLine
 10
207.8776486692
 20
143.1403416636
 30
0.0
 11
207.1265728954
 21
141.8903416636
 31
0.0
  0
LINE
  5
357
330
1F
100
AcDbEntity
  8
0
  6
Continuous
 62
     7
370
    30
100
AcDbLine
 10
207.1265728954
 20
144.3903416636
 30
0.0
 11
207.1265728954
 21
141.8903416636
 31
0.0
  0
LINE
  5
358
330
1F
100
AcDbEntity
  8
0
  6
Continuous
 62
     7
370
    30
100
AcDbLine
 10
207.1265728954
 20
144.3903416636
 30
0.0
 11
207.8776486692
 21
143.1403416636
 31
0.0
  0
LINE
  5
359
330
1F
100
AcDbEntity
  8
0
  6
Continuous
 62
     7
370
    30
100
AcDbLine
 10
207.1265728954
 20
141.8903416636
 30
0.0
 11
199.6265728954
 21
141.8903416636
 31
0.0
  0
LINE
  5
35A
330
1F
100
AcDbEntity
  8
0
  6
Continuous
 62
     7
370
    30
100
AcDbLine
 10
199.6265728954
 20
144.3903416636
 30
0.0
 11
207.1265728954
 21
144.3903416636
 31
0.0
  0
LINE
  5
35B
330
1F
100
AcDbEntity
  8
0
  6
Continuous
 62
     7
370
    30
100
AcDbLine
 10
199.6265728954
 20
144.3903416636
 30
0.0
 11
199.6265728954
 21
141.8903416636
 31
0.0
  0
LINE
  5
35C
330
1F
100
AcDbEntity
  8
0
  6
Continuous
 62
     7
370
    30
100
AcDbLine
 10
199.6265728954
 20
141.8903416636
 30
0.0
 11
199.6265728954
 21
140.4535579965
 31
0.0
  0
LINE
  5
35D
330
1F
100
AcDbEntity
  8
0
  6
Continuous
 62
     7
370
    30
100
AcDbLine
 10
199.6265728954
 20
145.7990310046
 30
0.0
 11
199.6265728954
 21
144.3903416636
 31
0.0
  0
LINE
  5
35E
330
1F
100
AcDbEntity
  8
0
  6
Continuous
 62
     7
370
    30
100
AcDbLine
 10
217.3265728954
 20
125.1403416636
 30
0.0
 11
217.3265728954
 21
196.1403416636
 31
0.0
  0
LINE
  5
35F
330
1F
100
AcDbEntity
  8
0
  6
Continuous
 62
     7
370
    30
100
AcDbLine
 10
213.1265728954
 20
135.7501829658
 30
0.0
 11
213.1265728954
 21
195.8403416636
 31
0.0
  0
LINE
  5
360
330
1F
100
AcDbEntity
  8
0
  6
Continuous
 62
     7
370
    30
100
AcDbLine
 10
213.1265728954
 20
125.4403416636
 30
0.0
 11
213.1265728954
 21
135.7501829658
 31
0.0
  0
LINE
  5
361
330
1F
100
AcDbEntity
  8
0
  6
Continuous
 62
     7
370
    30
100
AcDbLine
 10
213.4265728954
 20
135.5380509314
 30
0.0
 11
213.4265728954
 21
125.1403416636
 31
0.0
  0
LINE
  5
362
330
1F
100
AcDbEntity
  8
0
  6
Continuous
 62
     7
370
    30
100
AcDbLine
 10
213.4265728954
 20
196.1403416636
 30
0.0
 11
213.4265728954
 21
135.5380509314
 31
0.0
  0
LINE
  5
363
330
1F
100
AcDbEntity
  8
0
  6
Continuous
 62
     7
370
    30
100
AcDbLine
 10
208.4265728954
 20
141.9858194564
 30
0.0
 11
208.4265728954
 21
131.6403416636
 31
0.0
  0
LINE
  5
364
330
1F
100
AcDbEntity
  8
0
  6
Continuous
 62
     7
370
    30
100
AcDbLine
 10
208.4265728954
 20
189.6403416636
 30
0.0
 11
208.4265728954
 21
144.2667695448
 31
0.0
  0
SPLINE
  5
365
330
1F
100
AcDbEntity
  8
0
  6
Continuous
 62
     7
370
     0
100
AcDbSpline
210
0.0
220
0.0
230
1.0
 70
     8
 71
     3
 72
    18
 73
    14
 74
     0
 42
0.000000001
 43
0.00000001
 40
0.0
 40
0.0
 40
0.0
 40
0.0
 40
0.1070946214792891
 40
0.2142722857484632
 40
0.3205036552939332
 40
0.4190551727092759
 40
0.4920681427727581
 40
0.5653689467177766
 40
0.6527154129973772
 40
0.7257674385671973
 40
0.7990186815634368
 40
0.8994536839306942
 40
1.0
 40
1.0
 40
1.0
 40
1.0
 10
208.4265728954137
 20
141.9858194563801
 30
0.0
 10
208.5525059559528
 20
142.0403510060717
 30
0.0
 10
208.8044697274318
 20
142.1494563900437
 30
0.0
 10
209.156024238217
 20
142.3462158510366
 30
0.0
 10
209.4585755436904
 20
142.5763660678798
 30
0.0
 10
209.6674227501276
 20
142.8264181680171
 30
0.0
 10
209.7493203440199
 20
143.0855786017042
 30
0.0
 10
209.7087834628683
 20
143.3414793842392
 30
0.0
 10
209.5568687887904
 20
143.5697067119264
 30
0.0
 10
209.3479513895465
 20
143.762638132029
 30
0.0
 10
209.0937199798153
 20
143.9390783907356
 30
0.0
 10
208.7866566357263
 20
144.1099004167253
 30
0.0
 10
208.5466451190565
 20
144.2144605318682
 30
0.0
 10
208.4265728954136
 20
144.2667695448013
 30
0.0
  0
LINE
  5
366
330
1F
100
AcDbEntity
  8
0
  6
Continuous
 62
     7
370
     0
100
AcDbLine
 10
208.4265728954
 20
144.2667695448
 30
0.0
 11
208.1265728954
 21
144.3847474439
 31
0.0
  0
LINE
  5
367
330
1F
100
AcDbEntity
  8
0
  6
Continuous
 62
     7
370
    30
100
AcDbLine
 10
208.1265728954
 20
144.3847474439
 30
0.0
 11
208.1265728954
 21
189.3403416636
 31
0.0
  0
LINE
  5
368
330
1F
100
AcDbEntity
  8
0
  6
Continuous
 62
     7
370
    30
100
AcDbLine
 10
208.1265728954
 20
131.9403416636
 30
0.0
 11
208.1265728954
 21
141.8678415573
 31
0.0
  0
LINE
  5
369
330
1F
100
AcDbEntity
  8
0
  6
Continuous
 62
     7
370
     0
100
AcDbLine
 10
208.1265728954
 20
141.8678415573
 30
0.0
 11
208.4265728954
 21
141.9858194564
 31
0.0
  0
LINE
  5
36A
330
1F
100
AcDbEntity
  8
0
  6
Continuous
 62
     7
370
     0
100
AcDbLine
 10
207.1265728954
 20
144.7024820229
 30
0.0
 11
208.1265728954
 21
144.3847474439
 31
0.0
  0
LINE
  5
36B
330
1F
100
AcDbEntity
  8
0
  6
Continuous
 62
     7
370
     0
100
AcDbLine
 10
208.1265728954
 20
141.8678415573
 30
0.0
 11
207.1265728954
 21
141.5501069783
 31
0.0
  0
SPLINE
  5
36C
330
1F
100
AcDbEntity
  8
0
  6
Continuous
 62
     7
370
     0
100
AcDbSpline
210
0.0
220
0.0
230
1.0
 70
     8
 71
     3
 72
    10
 73
     6
 74
     0
 42
0.000000001
 43
0.00000001
 40
0.0
 40
0.0
 40
0.0
 40
0.0
 40
0.2488285604273386
 40
0.4982943629329085
 40
1.0
 40
1.0
 40
1.0
 40
1.0
 10
207.1265728954137
 20
141.5501069782876
 30
0.0
 10
206.8427334629476
 20
141.4767449767577
 30
0.0
 10
206.2743276942005
 20
141.3298330959309
 30
0.0
 10
205.1097941274384
 20
141.0905063292635
 30
0.0
 10
204.2205181969912
 20
140.9545807894103
 30
0.0
 10
203.6265728954135
 20
140.8637964411602
 30
0.0
  0
SPLINE
  5
36D
330
1F
100
AcDbEntity
  8
0
  6
Continuous
 62
     7
370
     0
100
AcDbSpline
210
0.0
220
0.0
230
1.0
 70
     8
 71
     3
 72
    10
 73
     6
 74
     0
 42
0.000000001
 43
0.00000001
 40
0.0
 40
0.0
 40
0.0
 40
0.0
 40
0.4987096458366655
 40
0.749092809111696
 40
1.0
 40
1.0
 40
1.0
 40
1.0
 10
203.6265728954137
 20
145.3887925600212
 30
0.0
 10
204.2148769741689
 20
145.2989373446162
 30
0.0
 10
205.0985461765709
 20
145.1639692398625
 30
0.0
 10
206.2642936401885
 20
144.9251574155349
 30
0.0
 10
206.8389462378779
 20
144.7767588636188
 30
0.0
 10
207.1265728954137
 20
144.7024820228938
 30
0.0
  0
LINE
  5
36E
330
1F
100
AcDbEntity
  8
0
  6
Continuous
 62
     7
370
    30
100
AcDbLine
 10
203.0265728954
 20
140.7832927515
 30
0.0
 11
203.0265728954
 21
132.2014343908
 31
0.0
  0
LINE
  5
36F
330
1F
100
AcDbEntity
  8
0
  6
Continuous
 62
     7
370
    30
100
AcDbLine
 10
203.0265728954
 20
189.0792489363
 30
0.0
 11
203.0265728954
 21
145.4692962497
 31
0.0
  0
LINE
  5
370
330
1F
100
AcDbEntity
  8
0
  6
Continuous
 62
     7
370
     0
100
AcDbLine
 10
203.0265728954
 20
145.4692962497
 30
0.0
 11
202.6265728954
 21
145.5187158882
 31
0.0
  0
LINE
  5
371
330
1F
100
AcDbEntity
  8
0
  6
Continuous
 62
     7
370
    30
100
AcDbLine
 10
202.6265728954
 20
145.5187158882
 30
0.0
 11
202.6265728954
 21
188.6792489363
 31
0.0
  0
LINE
  5
372
330
1F
100
AcDbEntity
  8
0
  6
Continuous
 62
     7
370
    30
100
AcDbLine
 10
202.6265728954
 20
132.6014343908
 30
0.0
 11
202.6265728954
 21
140.733873113
 31
0.0
  0
LINE
  5
373
330
1F
100
AcDbEntity
  8
0
  6
Continuous
 62
     7
370
     0
100
AcDbLine
 10
202.6265728954
 20
140.733873113
 30
0.0
 11
203.0265728954
 21
140.7832927515
 31
0.0
  0
LINE
  5
374
330
1F
100
AcDbEntity
  8
0
  6
Continuous
 62
     7
370
     0
100
AcDbLine
 10
203.0265728954
 20
145.4692962497
 30
0.0
 11
203.6265728954
 21
145.38879256
 31
0.0
  0
LINE
  5
375
330
1F
100
AcDbEntity
  8
0
  6
Continuous
 62
     7
370
     0
100
AcDbLine
 10
203.6265728954
 20
140.8637964412
 30
0.0
 11
203.0265728954
 21
140.7832927515
 31
0.0
  0
LINE
  5
376
330
1F
100
AcDbEntity
  8
0
  6
Continuous
 62
     7
370
    30
100
AcDbLine
 10
239.0765728954
 20
148.1403416636
 30
0.0
 11
238.8765728954
 21
148.1403416636
 31
0.0
  0
LINE
  5
377
330
1F
100
AcDbEntity
  8
0
  6
Continuous
 62
     7
370
    30
100
AcDbLine
 10
239.0765728954
 20
149.1403416636
 30
0.0
 11
239.0765728954
 21
148.1403416636
 31
0.0
  0
LINE
  5
378
330
1F
100
AcDbEntity
  8
0
  6
Continuous
 62
     7
370
    30
100
AcDbLine
 10
239.0765728954
 20
172.1403416636
 30
0.0
 11
239.0765728954
 21
149.1403416636
 31
0.0
  0
LINE
  5
379
330
1F
100
AcDbEntity
  8
0
  6
Continuous
 62
     7
370
    30
100
AcDbLine
 10
238.8765728954
 20
173.1403416636
 30
0.0
 11
239.0765728954
 21
173.1403416636
 31
0.0
  0
LINE
  5
37A
330
1F
100
AcDbEntity
  8
0
  6
Continuous
 62
     7
370
    30
100
AcDbLine
 10
239.0765728954
 20
173.1403416636
 30
0.0
 11
239.0765728954
 21
172.1403416636
 31
0.0
  0
LINE
  5
37B
330
1F
100
AcDbEntity
  8
0
  6
Continuous
 62
     7
370
    30
100
AcDbLine
 10
224.6265728954
 20
194.2399681048
 30
0.0
 11
224.6265728954
 21
192.8213651532
 31
0.0
  0
LINE
  5
37C
330
1F
100
AcDbEntity
  8
0
  6
Continuous
 62
     7
370
    30
100
AcDbLine
 10
224.6265728954
 20
155.0481322203
 30
0.0
 11
224.6265728954
 21
149.6681322203
 31
0.0
  0
SPLINE
  5
37D
330
1F
100
AcDbEntity
  8
0
  6
Continuous
 62
     7
370
    30
100
AcDbSpline
210
0.0
220
0.0
230
1.0
 70
     8
 71
     3
 72
    17
 73
    13
 74
     0
 42
0.000000001
 43
0.00000001
 40
0.0
 40
0.0
 40
0.0
 40
0.0
 40
0.1078213810511239
 40
0.2156432757993682
 40
0.3234128278126147
 40
0.4308419996253312
 40
0.5378217483182038
 40
0.6445483667535647
 40
0.7514022298413707
 40
0.8586676099858355
 40
0.966341327809479
 40
1.0
 40
1.0
 40
1.0
 40
1.0
 10
237.2365728954137
 20
187.2516051378206
 30
0.0
 10
237.2448017210207
 20
187.2452319428361
 30
0.0
 10
237.2612594114396
 20
187.2324855225031
 30
0.0
 10
237.3894819009233
 20
187.2133508185199
 30
0.0
 10
237.578216637606
 20
187.1978876461924
 30
0.0
 10
237.8133456109925
 20
187.1886681097618
 30
0.0
 10
238.0659044830637
 20
187.187447711324
 30
0.0
 10
238.3075601742115
 20
187.1943696896686
 30
0.0
 10
238.5136902821856
 20
187.2081616070703
 30
0.0
 10
238.6540577370065
 20
187.2262057038194
 30
0.0
 10
238.7208247813938
 20
187.2416815360351
 30
0.0
 10
238.7100650547064
 20
187.2494955414334
 30
0.0
 10
238.7075025981217
 20
187.2513564669168
 30
0.0
  0
LINE
  5
37E
330
1F
100
AcDbEntity
  8
0
  6
Continuous
 62
     7
370
    30
100
AcDbLine
 10
237.2365728954
 20
200.6403416636
 30
0.0
 11
238.7165728954
 21
200.6403416636
 31
0.0
  0
LINE
  5
37F
330
1F
100
AcDbEntity
  8
0
  6
Continuous
 62
     7
370
    30
100
AcDbLine
 10
237.5765728954
 20
205.6403416636
 30
0.0
 11
238.3765728954
 21
205.6403416636
 31
0.0
  0
SPLINE
  5
380
330
1F
100
AcDbEntity
  8
0
  6
Continuous
 62
     7
370
    30
100
AcDbSpline
210
0.0
220
0.0
230
1.0
 70
     8
 71
     3
 72
    17
 73
    13
 74
     0
 42
0.000000001
 43
0.00000001
 40
0.0
 40
0.0
 40
0.0
 40
0.0
 40
0.1086015734762949
 40
0.2172140026377063
 40
0.3254720093608835
 40
0.4327923654380084
 40
0.5391419544026661
 40
0.6450050627899394
 40
0.7511227243040252
 40
0.8580887235848833
 40
0.9660500726952577
 40
1.0
 40
1.0
 40
1.0
 40
1.0
 10
235.0215728954137
 20
187.0678144158245
 30
0.0
 10
235.0261138074119
 20
187.0617771075388
 30
0.0
 10
235.0351960853126
 20
187.0497018874852
 30
0.0
 10
235.1060040918761
 20
187.0329837237909
 30
0.0
 10
235.2101127461904
 20
187.0200625657944
 30
0.0
 10
235.3392615197076
 20
187.0126722456554
 30
0.0
 10
235.4772307742171
 20
187.0117935360546
 30
0.0
 10
235.6087278444385
 20
187.0174274442429
 30
0.0
 10
235.7208038067226
 20
187.028773673363
 30
0.0
 10
235.7973350003262
 20
187.0442965705763
 30
0.0
 10
235.8338957938262
 20
187.0581715132155
 30
0.0
 10
235.8279772477464
 20
187.0658682213516
 30
0.0
 10
235.8265613334214
 20
187.0677095315584
 30
0.0
  0
LINE
  5
381
330
1F
100
AcDbEntity
  8
0
  6
Continuous
 62
     7
370
    30
100
AcDbLine
 10
235.0215728954
 20
200.6403416636
 30
0.0
 11
235.8315728954
 21
200.6403416636
 31
0.0
  0
LINE
  5
382
330
1F
100
AcDbEntity
  8
0
  6
Continuous
 62
     7
370
    30
100
AcDbLine
 10
235.2265728954
 20
205.6403416636
 30
0.0
 11
235.6265728954
 21
205.6403416636
 31
0.0
  0
LINE
  5
383
330
1F
100
AcDbEntity
  8
0
  6
PHANTOM
 62
     8
370
     0
100
AcDbLine
 10
221.6265728954
 20
196.0502593953
 30
0.0
 11
225.3265728954
 21
196.0502593953
 31
0.0
  0
LINE
  5
384
330
1F
100
AcDbEntity
  8
0
  6
PHANTOM
 62
     8
370
     0
100
AcDbLine
 10
225.3265728954
 20
192.5699275388
 30
0.0
 11
221.6265728954
 21
192.5699275388
 31
0.0
  0
LINE
  5
385
330
1F
100
AcDbEntity
  8
0
  6
PHANTOM
 62
     8
370
     0
100
AcDbLine
 10
221.6265728954
 20
158.1129465163
 30
0.0
 11
225.3265728954
 21
158.1129465163
 31
0.0
  0
LINE
  5
386
330
1F
100
AcDbEntity
  8
0
  6
PHANTOM
 62
     8
370
     0
100
AcDbLine
 10
225.3265728954
 20
145.1241712006
 30
0.0
 11
221.6265728954
 21
145.1241712006
 31
0.0
  0
LINE
  5
387
330
1F
100
AcDbEntity
  8
0
  6
PHANTOM
 62
     8
370
     0
100
AcDbLine
 10
221.6265728954
 20
148.6316738271
 30
0.0
 11
225.6265728954
 21
148.6316738271
 31
0.0
  0
LINE
  5
388
330
1F
100
AcDbEntity
  8
0
  6
PHANTOM
 62
     8
370
     0
100
AcDbLine
 10
221.6265728954
 20
148.7359103717
 30
0.0
 11
225.6265728954
 21
148.7359103717
 31
0.0
  0
LINE
  5
389
330
1F
100
AcDbEntity
  8
0
  6
PHANTOM
 62
     8
370
     0
100
AcDbLine
 10
232.7765728954
 20
172.4584273427
 30
0.0
 11
225.6265728954
 21
172.4584273427
 31
0.0
  0
LINE
  5
38A
330
1F
100
AcDbEntity
  8
0
  6
PHANTOM
 62
     8
370
     0
100
AcDbLine
 10
236.2515728954
 20
175.5840649149
 30
0.0
 11
236.2515728954
 21
177.9240649149
 31
0.0
  0
LINE
  5
38B
330
1F
100
AcDbEntity
  8
0
  6
PHANTOM
 62
     8
370
     0
100
AcDbLine
 10
236.2515728954
 20
173.2440649149
 30
0.0
 11
236.2515728954
 21
175.5840649149
 31
0.0
  0
LINE
  5
38C
330
1F
100
AcDbEntity
  8
0
  6
PHANTOM
 62
     8
370
     0
100
AcDbLine
 10
232.7765728954
 20
167.0051006778
 30
0.0
 11
225.6265728954
 21
167.0051006778
 31
0.0
  0
LINE
  5
38D
330
1F
100
AcDbEntity
  8
0
  6
PHANTOM
 62
     8
370
     0
100
AcDbLine
 10
232.7765728954
 20
144.4349415149
 30
0.0
 11
225.6265728954
 21
144.4349415149
 31
0.0
  0
LINE
  5
38E
330
1F
100
AcDbEntity
  8
0
  6
PHANTOM
 62
     8
370
     0
100
AcDbLine
 10
232.7765728954
 20
179.3472255843
 30
0.0
 11
225.6265728954
 21
179.3472255843
 31
0.0
  0
LINE
  5
38F
330
1F
100
AcDbEntity
  8
0
  6
PHANTOM
 62
     8
370
     0
100
AcDbLine
 10
232.7765728954
 20
138.6264159024
 30
0.0
 11
225.6265728954
 21
138.6264159024
 31
0.0
  0
LINE
  5
390
330
1F
100
AcDbEntity
  8
0
  6
PHANTOM
 62
     8
370
     0
100
AcDbLine
 10
236.2515728954
 20
136.7253853519
 30
0.0
 11
236.2515728954
 21
139.0653853519
 31
0.0
  0
LINE
  5
391
330
1F
100
AcDbEntity
  8
0
  6
PHANTOM
 62
     8
370
     0
100
AcDbLine
 10
236.2515728954
 20
134.3853853519
 30
0.0
 11
236.2515728954
 21
136.7253853519
 31
0.0
  0
LINE
  5
392
330
1F
100
AcDbEntity
  8
0
  6
PHANTOM
 62
     8
370
     0
100
AcDbLine
 10
238.8765728954
 20
175.1403416636
 30
0.0
 11
239.9265728954
 21
175.1403416636
 31
0.0
  0
LINE
  5
393
330
1F
100
AcDbEntity
  8
0
  6
PHANTOM
 62
     8
370
     0
100
AcDbLine
 10
225.6265728954
 20
192.9095556043
 30
0.0
 11
224.6265728954
 21
192.9095556043
 31
0.0
  0
LINE
  5
394
330
1F
100
AcDbEntity
  8
0
  6
PHANTOM
 62
     8
370
     0
100
AcDbLine
 10
232.7765728954
 20
186.3290932028
 30
0.0
 11
225.6265728954
 21
186.3290932028
 31
0.0
  0
LINE
  5
395
330
1F
100
AcDbEntity
  8
0
  6
PHANTOM
 62
     8
370
     0
100
AcDbLine
 10
200.1265728954
 20
140.4903933448
 30
0.0
 11
200.1265728954
 21
139.1403416636
 31
0.0
  0
LINE
  5
396
330
1F
100
AcDbEntity
  8
0
  6
PHANTOM
 62
     8
370
     0
100
AcDbLine
 10
200.1265728954
 20
182.1403416636
 30
0.0
 11
200.1265728954
 21
145.7621956564
 31
0.0
  0
LINE
  5
397
330
1F
100
AcDbEntity
  8
0
  6
PHANTOM
 62
     8
370
     0
100
AcDbLine
 10
207.1265728954
 20
144.7024820229
 30
0.0
 11
207.1265728954
 21
189.1403416636
 31
0.0
  0
LINE
  5
398
330
1F
100
AcDbEntity
  8
0
  6
PHANTOM
 62
     8
370
     0
100
AcDbLine
 10
207.1265728954
 20
132.1403416636
 30
0.0
 11
207.1265728954
 21
141.5501069783
 31
0.0
  0
LINE
  5
399
330
1F
100
AcDbEntity
  8
0
  6
PHANTOM
 62
     8
370
     0
100
AcDbLine
 10
203.6265728954
 20
145.38879256
 30
0.0
 11
203.6265728954
 21
189.0792489363
 31
0.0
  0
LINE
  5
39A
330
1F
100
AcDbEntity
  8
0
  6
PHANTOM
 62
     8
370
     0
100
AcDbLine
 10
203.6265728954
 20
132.2014343908
 30
0.0
 11
203.6265728954
 21
140.8637964412
 31
0.0
  0
LINE
  5
39B
330
1F
100
AcDbEntity
  8
0
  6
PHANTOM
 62
     8
370
     0
100
AcDbLine
 10
238.8765728954
 20
149.1403416636
 30
0.0
 11
239.0765728954
 21
149.1403416636
 31
0.0
  0
LINE
  5
39C
330
1F
100
AcDbEntity
  8
0
  6
PHANTOM
 62
     8
370
     0
100
AcDbLine
 10
239.0765728954
 20
172.1403416636
 30
0.0
 11
238.8765728954
 21
172.1403416636
 31
0.0
  0
LINE
  5
39D
330
1F
100
AcDbEntity
  8
0
  6
PHANTOM
 62
     8
370
     0
100
AcDbLine
 10
224.4765728954
 20
192.8213651532
 30
0.0
 11
224.4765728954
 21
194.3899681048
 31
0.0
  0
LINE
  5
39E
330
1F
100
AcDbEntity
  8
0
  6
PHANTOM
 62
     8
370
     0
100
AcDbLine
 10
224.4765728954
 20
149.5181322203
 30
0.0
 11
224.4765728954
 21
155.1981322203
 31
0.0
  0
SPLINE
  5
39F
330
1F
100
AcDbEntity
  8
0
  6
Continuous
 62
     1
370
    15
100
AcDbSpline
210
0.0
220
0.0
230
1.0
 70
     8
 71
     3
 72
     8
 73
     4
 74
     0
 42
0.000000001
 43
0.00000001
 40
0.0
 40
0.0
 40
0.0
 40
0.0
 40
1.0
 40
1.0
 40
1.0
 40
1.0
 10
232.4880991776173
 20
196.9706479542576
 30
0.0
 10
235.1499179883544
 20
201.286346001775
 30
0.0
 10
238.1605742222796
 20
193.4519212284335
 30
0.0
 10
240.5203486336229
 20
198.6076950494123
 30
0.0
  0
SPLINE
  5
3A0
330
1F
100
AcDbEntity
  8
0
  6
Continuous
 62
     1
370
    15
100
AcDbSpline
210
0.0
220
0.0
230
1.0
 70
     8
 71
     3
 72
    21
 73
    17
 74
     0
 42
0.000000001
 43
0.00000001
 40
0.0
 40
0.0
 40
0.0
 40
0.0
 40
0.03125
 40
0.0625
 40
0.125
 40
0.1875
 40
0.25
 40
0.375
 40
0.5
 40
0.625
 40
0.75
 40
0.8125
 40
0.875
 40
0.9375
 40
0.96875
 40
1.0
 40
1.0
 40
1.0
 40
1.0
 10
232.9136638310632
 20
196.7081699061516
 30
0.0
 10
232.9839232989191
 20
196.8220839888917
 30
0.0
 10
233.1425875621814
 20
197.0566112626517
 30
0.0
 10
233.4295939617526
 20
197.3978218264069
 30
0.0
 10
233.7697180091431
 20
197.6737003761445
 30
0.0
 10
234.1283793120692
 20
197.8145434707805
 30
0.0
 10
234.6128378630424
 20
197.8504857229779
 30
0.0
 10
235.348884984277
 20
197.6214607823837
 30
0.0
 10
236.36273994314
 20
197.0399163045409
 30
0.0
 10
237.4368813106226
 20
196.4475639355722
 30
0.0
 10
238.4611357632147
 20
196.1953678751713
 30
0.0
 10
239.3470122821789
 20
196.4157847729016
 30
0.0
 10
239.956872844765
 20
196.8270416894136
 30
0.0
 10
240.4056426238662
 20
197.3632533864422
 30
0.0
 10
240.7353534570487
 20
197.9058655917719
 30
0.0
 10
240.9007360929306
 20
198.2373712781463
 30
0.0
 10
240.9749908209384
 20
198.3996073719469
 30
0.0
  0
HATCH
  5
3A1
330
1F
100
AcDbEntity
  8
0
  6
Continuous
 62
     7
370
     0
100
AcDbHatch
 10
0.0
 20
0.0
 30
0.0
210
0.0
220
0.0
230
1.0
  2
ANSI31
 70
     0
 71
     0
 91
        1
 92
        0
 93
       30
 72
     4
 94
        3
 73
     1
 74
     0
 95
        8
 96
        4
 40
0.0000000000000002
 40
0.0000000000000002
 40
0.0000000000000002
 40
0.0000000000000002
 40
0.0005904989381954
 40
0.0005904989381954
 40
0.0005904989381954
 40
0.0005904989381954
 10
208.1265728954138
 20
141.8678415572716
 42
1.0
 10
208.2270679449329
 20
141.9051159110571
 42
1.0
 10
208.3271696273327
 20
141.9442764224059
 42
1.0
 10
208.4265728954138
 20
141.9858194563802
 42
1.0
 72
     4
 94
        3
 73
     1
 74
     0
 95
       26
 96
       22
 40
0.0
 40
0.0
 40
0.0
 40
0.0
 40
0.0012909452552397
 40
0.0012909452552397
 40
0.0012909452552397
 40
0.001682896688414
 40
0.001682896688414
 40
0.001682896688414
 40
0.0019730243415447
 40
0.0019730243415447
 40
0.0019730243415447
 40
0.00226481400004
 40
0.00226481400004
 40
0.00226481400004
 40
0.0026124138229854
 40
0.0026124138229854
 40
0.0026124138229854
 40
0.0031945949600758
 40
0.0031945949600758
 40
0.0031945949600758
 40
0.0039934718184152
 40
0.0039934718184152
 40
0.0039934718184152
 40
0.0039934718184152
 10
208.4265728954137
 20
141.9858194563801
 42
1.0
 10
208.8042828141291
 20
142.1436735821903
 42
1.0
 10
209.1809758765706
 20
142.3306500963622
 42
1.0
 10
209.4540082333908
 20
142.5909800019918
 42
1.0
 10
209.5384224563163
 20
142.6714669704374
 42
1.0
 10
209.6126152526536
 20
142.7610956540613
 42
1.0
 10
209.6629966385782
 20
142.8583648487767
 42
1.0
 10
209.7003222396318
 20
142.9304277960362
 42
1.0
 10
209.7247357095965
 20
143.0083017075376
 42
1.0
 10
209.7307172231838
 20
143.0866148924789
 42
1.0
 10
209.7367223172701
 20
143.165236805965
 42
1.0
 10
209.7239800166678
 20
143.2461697929
 42
1.0
 10
209.6952812740469
 20
143.3221301877937
 42
1.0
 10
209.661083371436
 20
143.4126458672143
 42
1.0
 10
209.6041932962757
 20
143.4987298277207
 42
1.0
 10
209.5359658765801
 20
143.5764909322713
 42
1.0
 10
209.4219952201475
 20
143.7063871553747
 42
1.0
 10
209.2747883305129
 20
143.8183531585019
 42
1.0
 10
209.1189689589544
 20
143.9167917455648
 42
1.0
 10
208.9045755097869
 20
144.0522343930386
 42
1.0
 10
208.6683590160568
 20
144.1657212672317
 42
1.0
 10
208.4265728954137
 20
144.2667695448012
 42
1.0
 72
     4
 94
        3
 73
     1
 74
     0
 95
        8
 96
        4
 40
0.0
 40
0.0
 40
0.0
 40
0.0
 40
0.0004288650620845
 40
0.0004288650620845
 40
0.0004288650620845
 40
0.0004288650620845
 10
208.4265728954138
 20
144.2667695448012
 42
1.0
 10
208.3262772582467
 20
144.3086855214359
 42
1.0
 10
208.2262647475166
 20
144.3477710019597
 42
1.0
 10
208.1265728954138
 20
144.3847474439098
 42
1.0
 72
     4
 94
        3
 73
     1
 74
     0
 95
        8
 96
        4
 40
0.0
 40
0.0
 40
0.0
 40
0.0
 40
0.0010715633171329
 40
0.0010715633171329
 40
0.0010715633171329
 40
0.0010715633171329
 10
208.1265728954137
 20
144.3847474439098
 42
1.0
 10
207.8010362970659
 20
144.5054913650782
 42
1.0
 10
207.465560588561
 20
144.6091652904017
 42
1.0
 10
207.1265728954137
 20
144.7024820228938
 42
1.0
 72
     4
 94
        3
 73
     1
 74
     0
 95
       11
 96
        7
 40
0.0
 40
0.0
 40
0.0
 40
0.0
 40
0.0017988622693568
 40
0.0017988622693568
 40
0.0017988622693568
 40
0.0035881484615611
 40
0.0035881484615611
 40
0.0035881484615611
 40
0.0035881484615611
 10
207.1265728954137
 20
144.7024820228938
 42
1.0
 10
206.5556052614672
 20
144.859658330576
 42
1.0
 10
205.9728331228244
 20
144.9879081862529
 42
1.0
 10
205.386868428754
 20
145.0997586462613
 42
1.0
 10
204.80375317151
 20
145.2110651983806
 42
1.0
 10
204.2160711339248
 20
145.3057210149201
 42
1.0
 10
203.6265728954137
 20
145.3887925600212
 42
1.0
 72
     4
 94
        3
 73
     1
 74
     0
 95
        8
 96
        4
 40
0.0
 40
0.0
 40
0.0
 40
0.0
 40
0.0006075179014219
 40
0.0006075179014219
 40
0.0006075179014219
 40
0.0006075179014219
 10
203.6265728954135
 20
145.3887925600212
 42
1.0
 10
203.4268317249513
 20
145.4169399005332
 42
1.0
 10
203.2268110754229
 20
145.4437341728989
 42
1.0
 10
203.0265728954135
 20
145.4692962496955
 42
1.0
 72
     4
 94
        3
 73
     1
 74
     0
 95
        8
 96
        4
 40
0.0
 40
0.0
 40
0.0
 40
0.0
 40
0.0005985668045477
 40
0.0005985668045477
 40
0.0005985668045477
 40
0.0005985668045477
 10
203.0265728954138
 20
145.4692962496953
 42
1.0
 10
202.8929683137241
 20
145.4863519909
 42
1.0
 10
202.7596322789527
 20
145.5028120025391
 42
1.0
 10
202.6265728954138
 20
145.5187158882208
 42
1.0
 72
     4
 94
        3
 73
     1
 74
     0
 95
        8
 96
        4
 40
0.0
 40
0.0
 40
0.0
 40
0.0
 40
0.0008263646508529
 40
0.0008263646508529
 40
0.0008263646508529
 40
0.0008263646508529
 10
202.6265728954136
 20
145.5187158882208
 42
1.0
 10
202.7942289476391
 20
145.49867684537
 42
1.0
 10
202.960927110716
 20
145.4779214875722
 42
1.0
 10
203.1265728954136
 20
145.4564249024993
 42
1.0
 72
     4
 94
        3
 73
     1
 74
     0
 95
        8
 96
        4
 40
0.0
 40
0.0
 40
0.0
 40
0.0
 40
0.0010150070118158
 40
0.0010150070118158
 40
0.0010150070118158
 40
0.0010150070118158
 10
203.1265728954137
 20
145.4564249024993
 42
1.0
 10
203.4606825367664
 20
145.4130660187091
 42
1.0
 10
203.7941354887798
 20
145.3662392222081
 42
1.0
 10
204.1265728954137
 20
145.3153238364092
 42
1.0
 72
     4
 94
        3
 73
     1
 74
     0
 95
       26
 96
       22
 40
0.0
 40
0.0
 40
0.0
 40
0.0
 40
0.0001016327721605
 40
0.0001016327721605
 40
0.0001016327721605
 40
0.000173104839259
 40
0.000173104839259
 40
0.000173104839259
 40
0.0002330997312023
 40
0.0002330997312023
 40
0.0002330997312023
 40
0.0002935057914044
 40
0.0002935057914044
 40
0.0002935057914044
 40
0.0003478059580972
 40
0.0003478059580972
 40
0.0003478059580972
 40
0.0004024828194002
 40
0.0004024828194002
 40
0.0004024828194002
 40
0.0004488506514088
 40
0.0004488506514088
 40
0.0004488506514088
 40
0.0004488506514088
 10
204.1265728954136
 20
145.3153238364095
 42
1.0
 10
204.1265728954137
 20
145.3153238364095
 42
1.0
 10
204.1323535255823
 20
145.3144399638994
 42
1.0
 10
204.1445075682711
 20
145.3125728572164
 42
1.0
 10
204.1531072689592
 20
145.3112517693251
 42
1.0
 10
204.1651400678734
 20
145.3094007923172
 42
1.0
 10
204.1803573947018
 20
145.3070489576571
 42
1.0
 10
204.1931463611461
 20
145.3050724255835
 42
1.0
 10
204.20852552011
 20
145.3026890550674
 42
1.0
 10
204.2255902274518
 20
145.3000315200356
 42
1.0
 10
204.242726161224
 20
145.2973628927107
 42
1.0
 10
204.2620950763519
 20
145.2943341187022
 42
1.0
 10
204.2818031324632
 20
145.2912356345972
 42
1.0
 10
204.2995839400864
 20
145.2884401508883
 42
1.0
 10
204.318111322399
 20
145.2855139568106
 42
1.0
 10
204.335885830446
 20
145.2826937385041
 42
1.0
 10
204.353816525772
 20
145.2798487385146
 42
1.0
 10
204.3714151109008
 20
145.2770429854628
 42
1.0
 10
204.3876578541409
 20
145.2744430387447
 42
1.0
 10
204.4014926295225
 20
145.272228531114
 42
1.0
 10
204.4145750496516
 20
145.2701265420625
 42
1.0
 10
204.4265728954137
 20
145.2681932984846
 42
1.0
 72
     4
 94
        3
 73
     1
 74
     0
 95
        8
 96
        4
 40
0.0
 40
0.0
 40
0.0
 40
0.0
 40
0.0006216627954502
 40
0.0006216627954502
 40
0.0006216627954502
 40
0.0006216627954502
 10
204.4265728954137
 20
145.2681932984846
 42
1.0
 10
204.5851117890588
 20
145.2426475210136
 42
1.0
 10
204.742880000633
 20
145.2161915108748
 42
1.0
 10
204.8997779761705
 20
145.1887529021615
 42
1.0
 72
     4
 94
        3
 73
     1
 74
     0
 95
        8
 96
        4
 40
0.0
 40
0.0
 40
0.0
 40
0.0
 40
0.0016788555503601
 40
0.0016788555503601
 40
0.0016788555503601
 40
0.0016788555503601
 10
204.8997779761706
 20
145.1887529021614
 42
1.0
 10
205.4466689541013
 20
145.0931115944842
 42
1.0
 10
205.9906421047581
 20
144.9846798027043
 42
1.0
 10
206.5265728954137
 20
144.8563824977291
 42
1.0
 72
     4
 94
        3
 73
     1
 74
     0
 95
       23
 96
       19
 40
0.0
 40
0.0
 40
0.0
 40
0.0
 40
0.0000498096067746
 40
0.0000498096067746
 40
0.0000498096067746
 40
0.0001513844079499
 40
0.0001513844079499
 40
0.0001513844079499
 40
0.0002219134205875
 40
0.0002219134205875
 40
0.0002219134205875
 40
0.0002881142849089
 40
0.0002881142849089
 40
0.0002881142849089
 40
0.0003568149145224
 40
0.0003568149145224
 40
0.0003568149145224
 40
0.0004252593499858
 40
0.0004252593499858
 40
0.0004252593499858
 40
0.0004252593499858
 10
206.5265728954136
 20
144.8563824977291
 42
1.0
 10
206.5265728954136
 20
144.8563824977291
 42
1.0
 10
206.5276523784148
 20
144.8561241787709
 42
1.0
 10
206.5298890885546
 20
144.8555883423443
 42
1.0
 10
206.534404335343
 20
144.8545066493429
 42
1.0
 10
206.5438109950937
 20
144.8522538034185
 42
1.0
 10
206.5585477319496
 20
144.8487012263223
 42
1.0
 10
206.5688331857896
 20
144.8462217175889
 42
1.0
 10
206.5819283452232
 20
144.8430569025199
 42
1.0
 10
206.5975211779919
 20
144.8392655779934
 42
1.0
 10
206.6121426320732
 20
144.835710439662
 42
1.0
 10
206.6293033122194
 20
144.8315202178766
 42
1.0
 10
206.6479978049672
 20
144.8269235092118
 42
1.0
 10
206.6673534595779
 20
144.8221642302914
 42
1.0
 10
206.6888742870561
 20
144.8168397861261
 42
1.0
 10
206.7106602274998
 20
144.8114069751689
 42
1.0
 10
206.7323935615609
 20
144.8059872827885
 42
1.0
 10
206.7549494414891
 20
144.8003203171323
 42
1.0
 10
206.7765728954137
 20
144.7948464247519
 42
1.0
 72
     4
 94
        3
 73
     1
 74
     0
 95
        8
 96
        4
 40
0.0
 40
0.0
 40
0.0
 40
0.0
 40
0.0005269972671418
 40
0.0005269972671418
 40
0.0005269972671418
 40
0.0005269972671418
 10
206.7765728954137
 20
144.7948464247519
 42
1.0
 10
206.944227943028
 20
144.7524052083359
 42
1.0
 10
207.1110318483556
 20
144.7077459484582
 42
1.0
 10
207.2765728954137
 20
144.6603933416114
 42
1.0
 72
     4
 94
        3
 73
     1
 74
     0
 95
       20
 96
       16
 40
0.0
 40
0.0
 40
0.0
 40
0.0
 40
0.0000168395486563
 40
0.0000168395486563
 40
0.0000168395486563
 40
0.0001069987100602
 40
0.0001069987100602
 40
0.0001069987100602
 40
0.0002225307684996
 40
0.0002225307684996
 40
0.0002225307684996
 40
0.0003603635426256
 40
0.0003603635426256
 40
0.0003603635426256
 40
0.0004890984176823
 40
0.0004890984176823
 40
0.0004890984176823
 40
0.0004890984176823
 10
207.2765728954137
 20
144.6603933416114
 42
1.0
 10
207.281862555703
 20
144.658880247376
 42
1.0
 10
207.2871152272368
 20
144.6573745885185
 42
1.0
 10
207.2923126673383
 20
144.655881730204
 42
1.0
 10
207.3197492710757
 20
144.6480011272122
 42
1.0
 10
207.3459857774894
 20
144.6403770664868
 42
1.0
 10
207.3694462416698
 20
144.6334989861919
 42
1.0
 10
207.3994486716519
 20
144.624702948702
 42
1.0
 10
207.4258943928373
 20
144.6168421701781
 42
1.0
 10
207.447683360978
 20
144.6103165808256
 42
1.0
 10
207.4736360425416
 20
144.6025439987837
 42
1.0
 10
207.4938288028557
 20
144.5964153270492
 42
1.0
 10
207.5071981125243
 20
144.5923444185238
 42
1.0
 10
207.5197010445581
 20
144.5885373189897
 42
1.0
 10
207.5265728954136
 20
144.5864287199832
 42
1.0
 10
207.5265728954136
 20
144.5864287199832
 42
1.0
 72
     4
 94
        3
 73
     1
 74
     0
 95
        8
 96
        4
 40
0.0000000000000001
 40
0.0000000000000001
 40
0.0000000000000001
 40
0.0000000000000001
 40
0.0005540469472366
 40
0.0005540469472366
 40
0.0005540469472366
 40
0.0005540469472366
 10
207.5265728954136
 20
144.5864287199831
 42
1.0
 10
207.6276406954572
 20
144.5554851522336
 42
1.0
 10
207.7276918872849
 20
144.5235283457386
 42
1.0
 10
207.8265728954136
 20
144.4904083819339
 42
1.0
 72
     4
 94
        3
 73
     1
 74
     0
 95
       29
 96
       25
 40
0.0000000000000001
 40
0.0000000000000001
 40
0.0000000000000001
 40
0.0000000000000001
 40
0.0012002098973279
 40
0.0012002098973279
 40
0.0012002098973279
 40
0.0018389356639349
 40
0.0018389356639349
 40
0.0018389356639349
 40
0.0023001033262025
 40
0.0023001033262025
 40
0.0023001033262025
 40
0.0026413023591949
 40
0.0026413023591949
 40
0.0026413023591949
 40
0.0029842612979828
 40
0.0029842612979828
 40
0.0029842612979828
 40
0.003397962987461
 40
0.003397962987461
 40
0.003397962987461
 40
0.004091261017076
 40
0.004091261017076
 40
0.004091261017076
 40
0.00557029933262
 40
0.00557029933262
 40
0.00557029933262
 40
0.00557029933262
 10
207.8265728954137
 20
144.4904083819338
 42
1.0
 10
208.1944513592274
 20
144.3671883456839
 42
1.0
 10
208.5563087283838
 20
144.2265848615524
 42
1.0
 10
208.8855777917715
 20
144.0516073805158
 42
1.0
 10
209.0610444938521
 20
143.9583622963285
 42
1.0
 10
209.2289134848027
 20
143.8541048303566
 42
1.0
 10
209.3723844909299
 20
143.7342958872486
 42
1.0
 10
209.4758214760895
 20
143.6479183242499
 42
1.0
 10
209.567976427175
 20
143.5515641932528
 42
1.0
 10
209.6329055206824
 20
143.4470555002031
 42
1.0
 10
209.6809939331353
 20
143.3696532623957
 42
1.0
 10
209.7144496838438
 20
143.2860444562425
 42
1.0
 10
209.7267017788121
 20
143.2020971513915
 42
1.0
 10
209.7389981533012
 20
143.1178464579007
 42
1.0
 10
209.7299193186156
 20
143.0312716174426
 42
1.0
 10
209.702303222597
 20
142.9500263601781
 42
1.0
 10
209.6689901884555
 20
142.8520209785606
 42
1.0
 10
209.6088409195334
 20
142.7589204092357
 42
1.0
 10
209.5348756913486
 20
142.6748573010318
 42
1.0
 10
209.4112525877531
 20
142.5343569255297
 42
1.0
 10
209.2475019265074
 20
142.4133646404391
 42
1.0
 10
209.0726032380334
 20
142.3070724016808
 42
1.0
 10
208.7005235785191
 20
142.0809461776865
 42
1.0
 10
208.2671251407204
 20
141.9097425696643
 42
1.0
 10
207.8265728954137
 20
141.7621806192475
 42
1.0
 72
     4
 94
        3
 73
     1
 74
     0
 95
        8
 96
        4
 40
0.0000000000000001
 40
0.0000000000000001
 40
0.0000000000000001
 40
0.0000000000000001
 40
0.0004591331705233
 40
0.0004591331705233
 40
0.0004591331705233
 40
0.0004591331705233
 10
207.8265728954136
 20
141.7621806192475
 42
1.0
 10
207.7261716393705
 20
141.728551451938
 42
1.0
 10
207.6262033839871
 20
141.696663792423
 42
1.0
 10
207.5265728954136
 20
141.6661602811983
 42
1.0
 72
     4
 94
        3
 73
     1
 74
     0
 95
       23
 96
       19
 40
0.0
 40
0.0
 40
0.0
 40
0.0
 40
0.0001045895912209
 40
0.0001045895912209
 40
0.0001045895912209
 40
0.0002032466568069
 40
0.0002032466568069
 40
0.0002032466568069
 40
0.0002647129006261
 40
0.0002647129006261
 40
0.0002647129006261
 40
0.0003229577505712
 40
0.0003229577505712
 40
0.0003229577505712
 40
0.0003848245089802
 40
0.0003848245089802
 40
0.0003848245089802
 40
0.0004462934825893
 40
0.0004462934825893
 40
0.0004462934825893
 40
0.0004462934825893
 10
207.5265728954137
 20
141.6661602811983
 42
1.0
 10
207.5265728954137
 20
141.6661602811983
 42
1.0
 10
207.5229618879155
 20
141.6650524102082
 42
1.0
 10
207.5148075321444
 20
141.6625641087581
 42
1.0
 10
207.5071400868706
 20
141.6602243880335
 42
1.0
 10
207.4952226288396
 20
141.6565920946962
 42
1.0
 10
207.4782781559813
 20
141.6514741673745
 42
1.0
 10
207.4676577159262
 20
141.6482663579147
 42
1.0
 10
207.4548584951168
 20
141.6444144698732
 42
1.0
 10
207.4401133890462
 20
141.6400076484129
 42
1.0
 10
207.4261651733127
 20
141.6358389909524
 42
1.0
 10
207.4101505656044
 20
141.6310776870925
 42
1.0
 10
207.3930296530916
 20
141.6260261664852
 42
1.0
 10
207.3748974425502
 20
141.6206762626681
 42
1.0
 10
207.3550312060503
 20
141.6148568976892
 42
1.0
 10
207.335288381843
 20
141.6091213899805
 42
1.0
 10
207.315624682945
 20
141.603408869045
 42
1.0
 10
207.2955821851795
 20
141.5976332198651
 42
1.0
 10
207.2765728954137
 20
141.5921956595699
 42
1.0
 72
     4
 94
        3
 73
     1
 74
     0
 95
        8
 96
        4
 40
0.0
 40
0.0
 40
0.0
 40
0.0
 40
0.0005350818924123
 40
0.0005350818924123
 40
0.0005350818924123
 40
0.0005350818924123
 10
207.2765728954137
 20
141.5921956595699
 42
1.0
 10
207.1111972074219
 20
141.544890353275
 42
1.0
 10
206.9443869356786
 20
141.5002240412102
 42
1.0
 10
206.7765728954137
 20
141.4577425764295
 42
1.0
 72
     4
 94
        3
 73
     1
 74
     0
 95
       17
 96
       13
 40
0.0
 40
0.0
 40
0.0
 40
0.0
 40
0.0000721400657446
 40
0.0000721400657446
 40
0.0000721400657446
 40
0.0001660752350264
 40
0.0001660752350264
 40
0.0001660752350264
 40
0.0003481565783285
 40
0.0003481565783285
 40
0.0003481565783285
 40
0.000528561351931
 40
0.000528561351931
 40
0.000528561351931
 40
0.000528561351931
 10
206.7765728954136
 20
141.4577425764294
 42
1.0
 10
206.7539481045745
 20
141.4520151995444
 42
1.0
 10
206.7321274820763
 20
141.4465372075314
 42
1.0
 10
206.712238756764
 20
141.4415757378496
 42
1.0
 10
206.686371583959
 20
141.4351228761598
 42
1.0
 10
206.6630497331254
 20
141.4293615442335
 42
1.0
 10
206.6428248176198
 20
141.4243942620697
 42
1.0
 10
206.6040928407133
 20
141.4148816063554
 42
1.0
 10
206.5750746856258
 20
141.407869384831
 42
1.0
 10
206.5558621885963
 20
141.4032405628188
 42
1.0
 10
206.5367643813885
 20
141.3986393727572
 42
1.0
 10
206.5265728954137
 20
141.3962065034523
 42
1.0
 10
206.5265728954137
 20
141.3962065034523
 42
1.0
 72
     4
 94
        3
 73
     1
 74
     0
 95
        8
 96
        4
 40
0.0
 40
0.0
 40
0.0
 40
0.0
 40
0.0017010784380269
 40
0.0017010784380269
 40
0.0017010784380269
 40
0.0017010784380269
 10
206.5265728954137
 20
141.3962065034523
 42
1.0
 10
205.9921129162367
 20
141.268261298323
 42
1.0
 10
205.447963503299
 20
141.1597037998598
 42
1.0
 10
204.8997779761704
 20
141.0638360990199
 42
1.0
 72
     4
 94
        3
 73
     1
 74
     0
 95
        8
 96
        4
 40
0.0000000000000001
 40
0.0000000000000001
 40
0.0000000000000001
 40
0.0000000000000001
 40
0.0005778405246481
 40
0.0005778405246481
 40
0.0005778405246481
 40
0.0005778405246481
 10
204.8997779761706
 20
141.0638360990199
 42
1.0
 10
204.7417548390069
 20
141.0362007199563
 42
1.0
 10
204.5840346205626
 20
141.0097679132526
 42
1.0
 10
204.4265728954132
 20
140.9843957026966
 42
1.0
 72
     4
 94
        3
 73
     1
 74
     0
 95
       26
 96
       22
 40
0.0000000000000005
 40
0.0000000000000005
 40
0.0000000000000005
 40
0.0000000000000005
 40
0.0000465669186963
 40
0.0000465669186963
 40
0.0000465669186963
 40
0.0000933409120987
 40
0.0000933409120987
 40
0.0000933409120987
 40
0.0001380289779589
 40
0.0001380289779589
 40
0.0001380289779589
 40
0.0002015919010123
 40
0.0002015919010123
 40
0.0002015919010123
 40
0.0002935030088887
 40
0.0002935030088887
 40
0.0002935030088887
 40
0.0004279260424687
 40
0.0004279260424687
 40
0.0004279260424687
 40
0.0005286190723207
 40
0.0005286190723207
 40
0.0005286190723207
 40
0.0005286190723207
 10
204.4265728954136
 20
140.9843957026967
 42
1.0
 10
204.4138833953872
 20
140.9823510110981
 42
1.0
 10
204.3996759401842
 20
140.9800686687301
 42
1.0
 10
204.384896679492
 20
140.9777040899596
 42
1.0
 10
204.3700740490681
 20
140.9753325723341
 42
1.0
 10
204.3542916718639
 20
140.9728170527184
 42
1.0
 10
204.3389692792913
 20
140.9703846305995
 42
1.0
 10
204.3242815205664
 20
140.9680529562849
 42
1.0
 10
204.3096654915924
 20
140.9657417141792
 42
1.0
 10
204.2959944467772
 20
140.9635871947354
 42
1.0
 10
204.276631928226
 20
140.9605357145257
 42
1.0
 10
204.2586239105017
 20
140.9577129658692
 42
1.0
 10
204.2427736454336
 20
140.9552373881238
 42
1.0
 10
204.2199182360521
 20
140.9516677101035
 42
1.0
 10
204.2007199409119
 20
140.9486893235887
 42
1.0
 10
204.1851760828535
 20
140.9462850730527
 42
1.0
 10
204.1625210399619
 20
140.9427808980396
 42
1.0
 10
204.1467590939174
 20
140.9403609404504
 42
1.0
 10
204.137323732701
 20
140.938913227794
 42
1.0
 10
204.1302116484287
 20
140.937821986645
 42
1.0
 10
204.1265728954137
 20
140.9372651647722
 42
1.0
 10
204.1265728954137
 20
140.9372651647722
 42
1.0
 72
     4
 94
        3
 73
     1
 74
     0
 95
        8
 96
        4
 40
0.0
 40
0.0
 40
0.0
 40
0.0
 40
0.0010231002334573
 40
0.0010231002334573
 40
0.0010231002334573
 40
0.0010231002334573
 10
204.1265728954137
 20
140.9372651647722
 42
1.0
 10
203.7944751255076
 20
140.8864017969913
 42
1.0
 10
203.4609972142773
 20
140.8395638195626
 42
1.0
 10
203.1265728954137
 20
140.7961640986821
 42
1.0
 72
     4
 94
        3
 73
     1
 74
     0
 95
        8
 96
        4
 40
0.0000000000000002
 40
0.0000000000000002
 40
0.0000000000000002
 40
0.0000000000000002
 40
0.0008544360676221
 40
0.0008544360676221
 40
0.0008544360676221
 40
0.0008544360676221
 10
203.1265728954136
 20
140.7961640986821
 42
1.0
 10
202.9605321286747
 20
140.7746162550452
 42
1.0
 10
202.793854281854
 20
140.753867373988
 42
1.0
 10
202.6265728954135
 20
140.7338731129605
 42
1.0
 72
     4
 94
        3
 73
     1
 74
     0
 95
        8
 96
        4
 40
0.000000000000001
 40
0.000000000000001
 40
0.000000000000001
 40
0.000000000000001
 40
0.0007330461862474
 40
0.0007330461862474
 40
0.0007330461862474
 40
0.0007330461862474
 10
202.6265728954138
 20
140.733873112961
 42
1.0
 10
202.7593378040411
 20
140.7497418016111
 42
1.0
 10
202.8926909581457
 20
140.7662016035243
 42
1.0
 10
203.0265728954138
 20
140.783292751486
 42
1.0
 72
     4
 94
        3
 73
     1
 74
     0
 95
        8
 96
        4
 40
0.0
 40
0.0
 40
0.0
 40
0.0
 40
0.0006104079448803
 40
0.0006104079448803
 40
0.0006104079448803
 40
0.0006104079448803
 10
203.0265728954136
 20
140.783292751486
 42
1.0
 10
203.226882181447
 20
140.8088639055608
 42
1.0
 10
203.4269063666309
 20
140.8356596190845
 42
1.0
 10
203.6265728954137
 20
140.8637964411602
 42
1.0
 72
     4
 94
        3
 73
     1
 74
     0
 95
       11
 96
        7
 40
0.0
 40
0.0
 40
0.0
 40
0.0
 40
0.0018276165853999
 40
0.0018276165853999
 40
0.0018276165853999
 40
0.0036430593245131
 40
0.0036430593245131
 40
0.0036430593245131
 40
0.0036430593245131
 10
203.6265728954135
 20
140.8637964411602
 42
1.0
 10
204.2223266299046
 20
140.9477495049537
 42
1.0
 10
204.8152100153607
 20
141.0434035435188
 42
1.0
 10
205.4019353714609
 20
141.1557103643885
 42
1.0
 10
205.984503083284
 20
141.2672213583756
 42
1.0
 10
206.5624324638883
 20
141.3948100669223
 42
1.0
 10
207.1265728954137
 20
141.5501069782876
 42
1.0
 72
     4
 94
        3
 73
     1
 74
     0
 95
        8
 96
        4
 40
0.0
 40
0.0
 40
0.0
 40
0.0
 40
0.0010865933254723
 40
0.0010865933254723
 40
0.0010865933254723
 40
0.0010865933254723
 10
207.1265728954137
 20
141.5501069782876
 42
1.0
 10
207.4661822541068
 20
141.6435948432385
 42
1.0
 10
207.8017027750782
 20
141.747344837705
 42
1.0
 10
208.1265728954137
 20
141.8678415572716
 42
1.0
 97
        0
 75
     0
 76
     1
 52
0.0
 41
1.0
 77
     0
 78
     1
 53
45.0
 43
0.0
 44
0.0
 45
-2.245064030267288
 46
2.245064030267288
 79
     0
 98
        1
 10
0.0
 20
0.0
  0
HATCH
  5
3A2
330
1F
100
AcDbEntity
  8
0
  6
Continuous
 62
     7
370
     0
100
AcDbHatch
 10
0.0
 20
0.0
 30
0.0
210
0.0
220
0.0
230
1.0
  2
ANSI31
 70
     0
 71
     0
 91
        1
 92
        0
 93
        7
 72
     1
 10
199.6265728954137
 20
145.7990310046337
 11
199.6265728954137
 21
144.3903416635502
 72
     1
 10
199.6265728954137
 20
144.3903416635502
 11
207.1265728954137
 21
144.3903416635502
 72
     1
 10
207.1265728954137
 20
144.3903416635502
 11
207.8776486691982
 21
143.1403416635502
 72
     1
 10
207.8776486691982
 20
143.1403416635502
 11
207.1265728954137
 21
141.8903416635503
 72
     1
 10
207.1265728954137
 20
141.8903416635503
 11
199.6265728954137
 21
141.8903416635503
 72
     1
 10
199.6265728954137
 20
141.8903416635503
 11
199.6265728954137
 21
140.4535579965477
 72
     3
 10
193.9285342349529
 20
143.1262945005907
 11
15.80369826778599
 21
0.0
 40
0.1813163802896138
 50
334.8704853955719
 51
385.1295146044299
 73
     1
 97
        0
 75
     0
 76
     1
 52
0.0
 41
0.5
 77
     0
 78
     1
 53
45.0
 43
0.0
 44
0.0
 45
-1.122532015133644
 46
1.122532015133644
 79
     0
 98
        1
 10
0.0
 20
0.0
  0
HATCH
  5
3A3
330
1F
100
AcDbEntity
  8
0
  6
Continuous
 62
     7
370
     0
100
AcDbHatch
 10
0.0
 20
0.0
 30
0.0
210
0.0
220
0.0
230
1.0
  2
ANSI31
 70
     0
 71
     0
 91
        1
 92
        0
 93
       10
 72
     3
 10
193.9285342349529
 20
143.1262945005907
 11
15.80369826778599
 21
0.0
 40
0.1813163802896138
 50
334.8704853955717
 51
385.1295146044297
 73
     0
 72
     4
 94
        3
 73
     1
 74
     0
 95
       23
 96
       19
 40
0.0
 40
0.0
 40
0.0
 40
0.0
 40
0.0010043765436138
 40
0.0010043765436138
 40
0.0010043765436138
 40
0.0012864447693119
 40
0.0012864447693119
 40
0.0012864447693119
 40
0.0015928796286413
 40
0.0015928796286413
 40
0.0015928796286413
 40
0.0017091641944225
 40
0.0017091641944225
 40
0.0017091641944225
 40
0.0018036402893545
 40
0.0018036402893545
 40
0.0018036402893545
 40
0.0018525612265928
 40
0.0018525612265928
 40
0.0018525612265928
 40
0.0018525612265928
 10
199.6265728954137
 20
140.4535579965477
 42
1.0
 10
199.6265728954137
 20
140.4535579965477
 42
1.0
 10
199.6488077605135
 20
140.4550838623982
 42
1.0
 10
199.7199996048236
 20
140.4601679383153
 42
1.0
 10
199.7401108792311
 20
140.4616041596531
 42
1.0
 10
199.7644703906047
 20
140.4633509894281
 42
1.0
 10
199.7954594625184
 20
140.4655974446945
 42
1.0
 10
199.8289888971671
 20
140.4680280555644
 42
1.0
 10
199.8700491821198
 20
140.4710207120443
 42
1.0
 10
199.9274458030687
 20
140.4752906592871
 42
1.0
 10
199.9493735068336
 20
140.4769219423954
 42
1.0
 10
199.9740243805687
 20
140.4787656955563
 42
1.0
 10
200.0023733963262
 20
140.4809055578179
 42
1.0
 10
200.0253355193171
 20
140.4826388024869
 42
1.0
 10
200.0512551328556
 20
140.4846067673357
 42
1.0
 10
200.0797734384027
 20
140.4867917011578
 42
1.0
 10
200.0946595864951
 20
140.4879322053996
 42
1.0
 10
200.1104357017302
 20
140.4891458829816
 42
1.0
 10
200.1265728954137
 20
140.4903933447738
 42
1.0
 72
     4
 94
        3
 73
     1
 74
     0
 95
       14
 96
       10
 40
0.0
 40
0.0
 40
0.0
 40
0.0
 40
0.0031584002557823
 40
0.0031584002557823
 40
0.0031584002557823
 40
0.0053260185944665
 40
0.0053260185944665
 40
0.0053260185944665
 40
0.0074977938610781
 40
0.0074977938610781
 40
0.0074977938610781
 40
0.0074977938610781
 10
200.1265728954137
 20
140.4903933447738
 42
1.0
 10
201.1544284959654
 20
140.569850195496
 42
1.0
 10
202.1720031373367
 20
140.6713976523399
 42
1.0
 10
203.1690566830241
 20
140.8016967080878
 42
1.0
 10
203.8537690949254
 20
140.8911777405914
 42
1.0
 10
204.5302832380904
 20
140.9943816769213
 42
1.0
 10
205.192068831846
 20
141.1163006686523
 42
1.0
 10
205.8547024976837
 20
141.2383758984371
 42
1.0
 10
206.5053859485509
 20
141.379106268469
 42
1.0
 10
207.1265728954137
 20
141.5501069782876
 42
1.0
 72
     4
 94
        3
 73
     1
 74
     0
 95
        8
 96
        4
 40
0.0
 40
0.0
 40
0.0
 40
0.0
 40
0.000780576887718
 40
0.000780576887718
 40
0.000780576887718
 40
0.000780576887718
 10
207.1265728954137
 20
141.5501069782876
 42
1.0
 10
207.2605125049113
 20
141.5869779531409
 42
1.0
 10
207.3937639286882
 20
141.6254986336921
 42
1.0
 10
207.5265728954137
 20
141.6661602811984
 42
1.0
 72
     4
 94
        3
 73
     1
 74
     0
 95
       29
 96
       25
 40
0.0
 40
0.0
 40
0.0
 40
0.0
 40
0.0002400399053365
 40
0.0002400399053365
 40
0.0002400399053365
 40
0.0005366399214515
 40
0.0005366399214515
 40
0.0005366399214515
 40
0.0006306793770537
 40
0.0006306793770537
 40
0.0006306793770537
 40
0.0006798664261524
 40
0.0006798664261524
 40
0.0006798664261524
 40
0.0007107400192077
 40
0.0007107400192077
 40
0.0007107400192077
 40
0.0007464341409139
 40
0.0007464341409139
 40
0.0007464341409139
 40
0.0007816682633593
 40
0.0007816682633593
 40
0.0007816682633593
 40
0.0008377231204819
 40
0.0008377231204819
 40
0.0008377231204819
 40
0.0008377231204819
 10
207.5265728954137
 20
141.6661602811984
 42
1.0
 10
207.5265728954137
 20
141.6661602811984
 42
1.0
 10
207.5304903933027
 20
141.6673566653713
 42
1.0
 10
207.539684242906
 20
141.6701820096055
 42
1.0
 10
207.550983911243
 20
141.6736544889434
 42
1.0
 10
207.568683212885
 20
141.6790638238493
 42
1.0
 10
207.6070915159025
 20
141.6910983286995
 42
1.0
 10
207.6193779374156
 20
141.6949480431537
 42
1.0
 10
207.6341706332096
 20
141.6995989948427
 42
1.0
 10
207.6536196498189
 20
141.7057768846848
 42
1.0
 10
207.6638263247306
 20
141.7090189875904
 42
1.0
 10
207.6755875539574
 20
141.7127691251938
 42
1.0
 10
207.6889601250143
 20
141.7170619008217
 42
1.0
 10
207.6973909390562
 20
141.7197683058121
 42
1.0
 10
207.7066264291644
 20
141.7227436332574
 42
1.0
 10
207.7162084169509
 20
141.7258450009115
 42
1.0
 10
207.7272092049173
 20
141.7294055865362
 42
1.0
 10
207.738977694581
 20
141.7332339007998
 42
1.0
 10
207.7502359853191
 20
141.7369159319857
 42
1.0
 10
207.7614055861245
 20
141.7405689570725
 42
1.0
 10
207.7723768911173
 20
141.7441766092129
 42
1.0
 10
207.7825527861269
 20
141.7475381232484
 42
1.0
 10
207.7986965364491
 20
141.7528710638146
 42
1.0
 10
207.8133688887601
 20
141.7577579679142
 42
1.0
 10
207.8265728954137
 20
141.7621806192475
 42
1.0
 72
     4
 94
        3
 73
     1
 74
     0
 95
       23
 96
       19
 40
0.0
 40
0.0
 40
0.0
 40
0.0
 40
0.0022375093326435
 40
0.0022375093326435
 40
0.0022375093326435
 40
0.0033747731430806
 40
0.0033747731430806
 40
0.0033747731430806
 40
0.0040934766617637
 40
0.0040934766617637
 40
0.0040934766617637
 40
0.004935825875985
 40
0.004935825875985
 40
0.004935825875985
 40
0.0057652947950938
 40
0.0057652947950938
 40
0.0057652947950938
 40
0.0072410388666042
 40
0.0072410388666042
 40
0.0072410388666042
 40
0.0072410388666042
 10
207.8265728954137
 20
141.7621806192475
 42
1.0
 10
208.3501879581253
 20
141.9375642672585
 42
1.0
 10
208.8518995363691
 20
142.144486194396
 42
1.0
 10
209.2291176368318
 20
142.4090277431118
 42
1.0
 10
209.4212332383778
 20
142.5437576479152
 42
1.0
 10
209.5820265359019
 20
142.6968915772629
 42
1.0
 10
209.6672080140693
 20
142.8666239562748
 42
1.0
 10
209.721246234048
 20
142.9743003647133
 42
1.0
 10
209.7443699177045
 20
143.0907098543963
 42
1.0
 10
209.7257295908432
 20
143.2084886030507
 42
1.0
 10
209.7040409994823
 20
143.3455277853339
 42
1.0
 10
209.62303032162
 20
143.48804852879
 42
1.0
 10
209.4964561903118
 20
143.6194178880459
 42
1.0
 10
209.3710414819595
 20
143.7495838999097
 42
1.0
 10
209.2002576829055
 20
143.8726391261916
 42
1.0
 10
209.0081410681778
 20
143.9837184924227
 42
1.0
 10
208.6676993854014
 20
144.1805575134258
 42
1.0
 10
208.2546697516295
 20
144.3470183351381
 42
1.0
 10
207.8265728954137
 20
144.4904083819338
 42
1.0
 72
     4
 94
        3
 73
     1
 74
     0
 95
       17
 96
       13
 40
0.0
 40
0.0
 40
0.0
 40
0.0
 40
0.0000720332279689
 40
0.0000720332279689
 40
0.0000720332279689
 40
0.0002091501857674
 40
0.0002091501857674
 40
0.0002091501857674
 40
0.0004541024200711
 40
0.0004541024200711
 40
0.0004541024200711
 40
0.0007393712553414
 40
0.0007393712553414
 40
0.0007393712553414
 40
0.0007393712553414
 10
207.8265728954137
 20
144.4904083819339
 42
1.0
 10
207.8056931623012
 20
144.4974020000009
 42
1.0
 10
207.7859493287502
 20
144.5039453502582
 42
1.0
 10
207.7676779643917
 20
144.50995328593
 42
1.0
 10
207.7331051942878
 20
144.5213214013428
 42
1.0
 10
207.7029615797047
 20
144.5310554567909
 42
1.0
 10
207.6769739687898
 20
144.5393679083498
 42
1.0
 10
207.6308170211844
 20
144.5541317661101
 42
1.0
 10
207.5960514131042
 20
144.5649716909722
 42
1.0
 10
207.5713493542212
 20
144.5726319173765
 42
1.0
 10
207.5426269051439
 20
144.5815388859763
 42
1.0
 10
207.5265728954137
 20
144.5864287199831
 42
1.0
 10
207.5265728954137
 20
144.5864287199831
 42
1.0
 72
     4
 94
        3
 73
     1
 74
     0
 95
        8
 96
        4
 40
0.0
 40
0.0
 40
0.0
 40
0.0
 40
0.0008473584162555
 40
0.0008473584162555
 40
0.0008473584162555
 40
0.0008473584162555
 10
207.5265728954137
 20
144.5864287199831
 42
1.0
 10
207.3963373907604
 20
144.6263024597882
 42
1.0
 10
207.2628779762376
 20
144.6649598796961
 42
1.0
 10
207.1265728954129
 20
144.7024820228941
 42
1.0
 72
     4
 94
        3
 73
     1
 74
     0
 95
       14
 96
       10
 40
0.0
 40
0.0
 40
0.0
 40
0.0
 40
0.0028421609231848
 40
0.0028421609231848
 40
0.0028421609231848
 40
0.0050079030534904
 40
0.0050079030534904
 40
0.0050079030534904
 40
0.007172761806699
 40
0.007172761806699
 40
0.007172761806699
 40
0.007172761806699
 10
207.1265728954135
 20
144.7024820228938
 42
1.0
 10
206.2500459539468
 20
144.9437728773184
 42
1.0
 10
205.3315636137216
 20
145.1228296759336
 42
1.0
 10
204.4082235642342
 20
145.2711453548706
 42
1.0
 10
203.7033474177134
 20
145.3843692795729
 42
1.0
 10
202.9915912339924
 20
145.4787003304351
 42
1.0
 10
202.2772506169892
 20
145.5592861298314
 42
1.0
 10
201.563074676283
 20
145.6398533518561
 42
1.0
 10
200.8455292574768
 20
145.7066178025675
 42
1.0
 10
200.1265728954137
 20
145.7621956564076
 42
1.0
 72
     4
 94
        3
 73
     1
 74
     0
 95
       20
 96
       16
 40
0.0
 40
0.0
 40
0.0
 40
0.0
 40
0.0001275900151899
 40
0.0001275900151899
 40
0.0001275900151899
 40
0.0002546571284658
 40
0.0002546571284658
 40
0.0002546571284658
 40
0.0004181241759919
 40
0.0004181241759919
 40
0.0004181241759919
 40
0.0006411270884998
 40
0.0006411270884998
 40
0.0006411270884998
 40
0.0009277951914214
 40
0.0009277951914214
 40
0.0009277951914214
 40
0.0009277951914214
 10
200.1265728954137
 20
145.7621956564076
 42
1.0
 10
200.0842846618362
 20
145.7654646855016
 42
1.0
 10
200.0407842707909
 20
145.7687854279465
 42
1.0
 10
200.0000444312623
 20
145.7718592005574
 42
1.0
 10
199.9593909736724
 20
145.7749264557534
 42
1.0
 10
199.9204012895086
 20
145.7778308162022
 42
1.0
 10
199.8855710252458
 20
145.7804008735126
 42
1.0
 10
199.8408764388922
 20
145.7836987999229
 42
1.0
 10
199.8016789429413
 20
145.7865479112706
 42
1.0
 10
199.7693199827113
 20
145.7888815632915
 42
1.0
 10
199.7252846662992
 20
145.7920572866276
 42
1.0
 10
199.6922973115533
 20
145.794397620573
 42
1.0
 10
199.6694813759007
 20
145.7960106074376
 42
1.0
 10
199.6401947325309
 20
145.7980810450379
 42
1.0
 10
199.6265728954137
 20
145.7990310046337
 42
1.0
 10
199.6265728954137
 20
145.7990310046337
 42
1.0
 97
        0
 75
     0
 76
     1
 52
0.0
 41
0.5
 77
     0
 78
     1
 53
45.0
 43
0.0
 44
0.0
 45
-1.122532015133644
 46
1.122532015133644
 79
     0
 98
        1
 10
0.0
 20
0.0
  0
HATCH
  5
3A4
330
1F
100
AcDbEntity
  8
0
  6
Continuous
 62
     7
370
     0
100
AcDbHatch
 10
0.0
 20
0.0
 30
0.0
210
0.0
220
0.0
230
1.0
  2
ANSI31
 70
     0
 71
     0
 91
        1
 92
        0
 93
        1
 72
     4
 94
        3
 73
     1
 74
     0
 95
       71
 96
       67
 40
0.0
 40
0.0
 40
0.0
 40
0.0
 40
0.0001441856897716
 40
0.0001441856897716
 40
0.0001441856897716
 40
0.0002423434666959
 40
0.0002423434666959
 40
0.0002423434666959
 40
0.0003107412413777
 40
0.0003107412413777
 40
0.0003107412413777
 40
0.0003800042176494
 40
0.0003800042176494
 40
0.0003800042176494
 40
0.0004393709105959
 40
0.0004393709105959
 40
0.0004393709105959
 40
0.0005304165318221
 40
0.0005304165318221
 40
0.0005304165318221
 40
0.0006936480895
 40
0.0006936480895
 40
0.0006936480895
 40
0.0010570442499682
 40
0.0010570442499682
 40
0.0010570442499682
 40
0.0019137733563064
 40
0.0019137733563064
 40
0.0019137733563064
 40
0.0033186836280422
 40
0.0033186836280422
 40
0.0033186836280422
 40
0.0035979852637945
 40
0.0035979852637945
 40
0.0035979852637945
 40
0.0038820998769201
 40
0.0038820998769201
 40
0.0038820998769201
 40
0.0039710107043192
 40
0.0039710107043192
 40
0.0039710107043192
 40
0.004061197709558
 40
0.004061197709558
 40
0.004061197709558
 40
0.0041312096055929
 40
0.0041312096055929
 40
0.0041312096055929
 40
0.0042010299177405
 40
0.0042010299177405
 40
0.0042010299177405
 40
0.0043003299816992
 40
0.0043003299816992
 40
0.0043003299816992
 40
0.0044637256165522
 40
0.0044637256165522
 40
0.0044637256165522
 40
0.0047840235430497
 40
0.0047840235430497
 40
0.0047840235430497
 40
0.0054632961507538
 40
0.0054632961507538
 40
0.0054632961507538
 40
0.0068345526475785
 40
0.0068345526475785
 40
0.0068345526475785
 40
0.0075151970133621
 40
0.0075151970133621
 40
0.0075151970133621
 40
0.0075151970133621
 10
209.7322325027389
 20
143.1262945005907
 42
1.0
 10
209.7322325027389
 20
143.0971009568263
 42
1.0
 10
209.729849428545
 20
143.0652002564593
 42
1.0
 10
209.7232645135163
 20
143.0297744987151
 42
1.0
 10
209.71878361509
 20
143.0056680035775
 42
1.0
 10
209.7122213487498
 20
142.9794741553968
 42
1.0
 10
209.7028618649166
 20
142.9516776231805
 42
1.0
 10
209.6963315848168
 20
142.9322834830326
 42
1.0
 10
209.6882621754412
 20
142.9117003556525
 42
1.0
 10
209.6789431722748
 20
142.8911769110407
 42
1.0
 10
209.669552350092
 20
142.8704952978374
 42
1.0
 10
209.6585915292324
 20
142.8493007779532
 42
1.0
 10
209.6474322932681
 20
142.8298478872806
 42
1.0
 10
209.6377987854386
 20
142.8130546610061
 42
1.0
 10
209.6278130092682
 20
142.797122491496
 42
1.0
 10
209.6182541174338
 20
142.782769625576
 42
1.0
 10
209.6036558691558
 20
142.7608500658791
 42
1.0
 10
209.5896668039358
 20
142.7419241828887
 42
1.0
 10
209.5770729484774
 20
142.7257488025087
 42
1.0
 10
209.554567771321
 20
142.6968434524176
 42
1.0
 10
209.5355776185216
 20
142.6753067364227
 42
1.0
 10
209.5195812907962
 20
142.6578054407239
 42
1.0
 10
209.4841299864758
 20
142.6190188035364
 42
1.0
 10
209.4614250234949
 20
142.5978968829755
 42
1.0
 10
209.446090151944
 20
142.583484696934
 42
1.0
 10
209.4101548304768
 20
142.5497115716277
 42
1.0
 10
209.4133051855341
 20
142.5530985004562
 42
1.0
 10
209.4369397270952
 20
142.5749544075662
 42
1.0
 10
209.4754660479487
 20
142.6105814023901
 42
1.0
 10
209.583541215127
 20
142.6932975815752
 42
1.0
 10
209.6719192816882
 20
142.8761891929971
 42
1.0
 10
209.6897736434543
 20
142.9131374214589
 42
1.0
 10
209.7063006295674
 20
142.9549787056875
 42
1.0
 10
209.7178750634109
 20
143.0041788752585
 42
1.0
 10
209.7295564695473
 20
143.0538337586422
 42
1.0
 10
209.7369077057364
 20
143.1120167998966
 42
1.0
 10
209.7291207780149
 20
143.1831549920596
 42
1.0
 10
209.7266420138245
 20
143.2057999695924
 42
1.0
 10
209.722491840296
 20
143.2300778034351
 42
1.0
 10
209.716135047247
 20
143.2555947609772
 42
1.0
 10
209.7097264106999
 20
143.2813198247656
 42
1.0
 10
209.7008060152623
 20
143.3090023648745
 42
1.0
 10
209.6896611827225
 20
143.3364773586056
 42
1.0
 10
209.6809757256945
 20
143.3578893337555
 42
1.0
 10
209.6707400970293
 20
143.3796567383152
 42
1.0
 10
209.6599529510691
 20
143.4000368489842
 42
1.0
 10
209.6491783473283
 20
143.4203932636895
 42
1.0
 10
209.63763368693
 20
143.439848978456
 42
1.0
 10
209.6263819976547
 20
143.4573870760335
 42
1.0
 10
209.6104349741582
 20
143.4822438284118
 42
1.0
 10
209.594672243954
 20
143.5040135752535
 42
1.0
 10
209.5803372970639
 20
143.5226248947532
 42
1.0
 10
209.5568213556194
 20
143.5531560646917
 42
1.0
 10
209.5362787566249
 20
143.5765402182034
 42
1.0
 10
209.5190180523681
 20
143.5953993736713
 42
1.0
 10
209.4853252258934
 20
143.6322123705909
 42
1.0
 10
209.4624863623812
 20
143.6536669842314
 42
1.0
 10
209.4471191198924
 20
143.6681363532815
 42
1.0
 10
209.4146960031939
 20
143.6986650601463
 42
1.0
 10
209.4136406304097
 20
143.6989245660522
 42
1.0
 10
209.428440385442
 20
143.6854369494506
 42
1.0
 10
209.4581524292265
 20
143.6583591597075
 42
1.0
 10
209.5586419942026
 20
143.5756061641767
 42
1.0
 10
209.6452855839909
 20
143.4264597005196
 42
1.0
 10
209.6883722599927
 20
143.3522911974359
 42
1.0
 10
209.7322325027389
 20
143.2619391328217
 42
1.0
 10
209.7322325027389
 20
143.1262945005907
 42
1.0
 97
        0
 75
     0
 76
     1
 52
0.0
 41
1.0
 77
     0
 78
     1
 53
45.0
 43
0.0
 44
0.0
 45
-2.245064030267288
 46
2.245064030267288
 79
     0
 98
        1
 10
0.0
 20
0.0
  0
HATCH
  5
3A5
330
1F
100
AcDbEntity
  8
0
  6
Continuous
 62
     7
370
     0
100
AcDbHatch
 10
0.0
 20
0.0
 30
0.0
210
0.0
220
0.0
230
1.0
  2
ANSI31
 70
     0
 71
     0
 91
        1
 92
        0
 93
        6
 72
     4
 94
        3
 73
     1
 74
     0
 95
        8
 96
        4
 40
0.0
 40
0.0
 40
0.0
 40
0.0
 40
0.0005775175113303
 40
0.0005775175113303
 40
0.0005775175113303
 40
0.0005775175113303
 10
208.0412787777662
 20
144.415902974651
 42
1.0
 10
207.8730738014757
 20
144.4764184603244
 42
1.0
 10
207.7010013799723
 20
144.5330245731921
 42
1.0
 10
207.5265728954137
 20
144.5864287199831
 42
1.0
 72
     4
 94
        3
 73
     1
 74
     0
 95
       17
 96
       13
 40
0.0
 40
0.0
 40
0.0
 40
0.0
 40
0.0002814849097327
 40
0.0002814849097327
 40
0.0002814849097327
 40
0.000523187994812
 40
0.000523187994812
 40
0.000523187994812
 40
0.0006584861757442
 40
0.0006584861757442
 40
0.0006584861757442
 40
0.0007295639247503
 40
0.0007295639247503
 40
0.0007295639247503
 40
0.0007295639247503
 10
207.5265728954137
 20
144.5864287199831
 42
1.0
 10
207.5265728954137
 20
144.5864287199831
 42
1.0
 10
207.5426269051439
 20
144.5815388859763
 42
1.0
 10
207.5713493542212
 20
144.5726319173765
 42
1.0
 10
207.5960514131042
 20
144.5649716909722
 42
1.0
 10
207.6308170211844
 20
144.5541317661101
 42
1.0
 10
207.6769739687898
 20
144.5393679083498
 42
1.0
 10
207.7029615797047
 20
144.5310554567908
 42
1.0
 10
207.7331051942878
 20
144.5213214013428
 42
1.0
 10
207.7676779643917
 20
144.50995328593
 42
1.0
 10
207.7859493287502
 20
144.5039453502582
 42
1.0
 10
207.8056931623012
 20
144.4974020000009
 42
1.0
 10
207.8265728954137
 20
144.4904083819338
 42
1.0
 72
     4
 94
        3
 73
     1
 74
     0
 95
       23
 96
       19
 40
0.0
 40
0.0
 40
0.0
 40
0.0
 40
0.0014768961973964
 40
0.0014768961973964
 40
0.0014768961973964
 40
0.0023070126899103
 40
0.0023070126899103
 40
0.0023070126899103
 40
0.003150019533292
 40
0.003150019533292
 40
0.003150019533292
 40
0.0038692841498947
 40
0.0038692841498947
 40
0.0038692841498947
 40
0.0050074358318134
 40
0.0050074358318134
 40
0.0050074358318134
 40
0.0072466920069292
 40
0.0072466920069292
 40
0.0072466920069292
 40
0.0072466920069292
 10
207.8265728954137
 20
144.4904083819338
 42
1.0
 10
208.2546697516295
 20
144.3470183351381
 42
1.0
 10
208.6676993854014
 20
144.1805575134258
 42
1.0
 10
209.0081410681778
 20
143.9837184924227
 42
1.0
 10
209.2002576829055
 20
143.8726391261916
 42
1.0
 10
209.3710414819595
 20
143.7495838999097
 42
1.0
 10
209.4964561903118
 20
143.6194178880459
 42
1.0
 10
209.62303032162
 20
143.48804852879
 42
1.0
 10
209.7040409994823
 20
143.3455277853339
 42
1.0
 10
209.7257295908432
 20
143.2084886030507
 42
1.0
 10
209.7443699177045
 20
143.0907098543963
 42
1.0
 10
209.721246234048
 20
142.9743003647133
 42
1.0
 10
209.6672080140693
 20
142.8666239562748
 42
1.0
 10
209.5820265359019
 20
142.6968915772629
 42
1.0
 10
209.4212332383778
 20
142.5437576479152
 42
1.0
 10
209.2291176368318
 20
142.4090277431118
 42
1.0
 10
208.8518995363692
 20
142.144486194396
 42
1.0
 10
208.3501879581253
 20
141.9375642672585
 42
1.0
 10
207.8265728954137
 20
141.7621806192475
 42
1.0
 72
     4
 94
        3
 73
     1
 74
     0
 95
       29
 96
       25
 40
0.0
 40
0.0
 40
0.0
 40
0.0
 40
0.0000564232968447
 40
0.0000564232968447
 40
0.0000564232968447
 40
0.0000918890076116
 40
0.0000918890076116
 40
0.0000918890076116
 40
0.000127817741142
 40
0.000127817741142
 40
0.000127817741142
 40
0.0001588942614479
 40
0.0001588942614479
 40
0.0001588942614479
 40
0.0002084046092512
 40
0.0002084046092512
 40
0.0002084046092512
 40
0.0003030621713416
 40
0.0003030621713416
 40
0.0003030621713416
 40
0.0006016116925146
 40
0.0006016116925146
 40
0.0006016116925146
 40
0.0008432293422346
 40
0.0008432293422346
 40
0.0008432293422346
 40
0.0008432293422346
 10
207.8265728954137
 20
141.7621806192475
 42
1.0
 10
207.8133688887601
 20
141.7577579679142
 42
1.0
 10
207.7986965364492
 20
141.7528710638146
 42
1.0
 10
207.7825527861269
 20
141.7475381232484
 42
1.0
 10
207.7723768911173
 20
141.7441766092129
 42
1.0
 10
207.7614055861245
 20
141.7405689570725
 42
1.0
 10
207.7502359853191
 20
141.7369159319857
 42
1.0
 10
207.738977694581
 20
141.7332339007998
 42
1.0
 10
207.7272092049173
 20
141.7294055865362
 42
1.0
 10
207.7162084169509
 20
141.7258450009115
 42
1.0
 10
207.7066264291644
 20
141.7227436332574
 42
1.0
 10
207.6973909390562
 20
141.7197683058121
 42
1.0
 10
207.6889601250143
 20
141.7170619008217
 42
1.0
 10
207.6755875539574
 20
141.7127691251939
 42
1.0
 10
207.6638263247306
 20
141.7090189875904
 42
1.0
 10
207.6536196498189
 20
141.7057768846848
 42
1.0
 10
207.6341706332096
 20
141.6995989948427
 42
1.0
 10
207.6193779374156
 20
141.6949480431537
 42
1.0
 10
207.6070915159026
 20
141.6910983286995
 42
1.0
 10
207.568683212885
 20
141.6790638238493
 42
1.0
 10
207.550983911243
 20
141.6736544889434
 42
1.0
 10
207.539684242906
 20
141.6701820096055
 42
1.0
 10
207.5304903933027
 20
141.6673566653713
 42
1.0
 10
207.5265728954137
 20
141.6661602811984
 42
1.0
 10
207.5265728954137
 20
141.6661602811984
 42
1.0
 72
     4
 94
        3
 73
     1
 74
     0
 95
        8
 96
        4
 40
0.0
 40
0.0
 40
0.0
 40
0.0
 40
0.0006347234112239
 40
0.0006347234112239
 40
0.0006347234112239
 40
0.0006347234112239
 10
207.5265728954137
 20
141.6661602811984
 42
1.0
 10
207.7016641370594
 20
141.7197673419621
 42
1.0
 10
207.8736922328675
 20
141.776393035321
 42
1.0
 10
208.0412787777666
 20
141.8366860265306
 42
1.0
 72
     4
 94
        3
 73
     1
 74
     0
 95
       26
 96
       22
 40
0.0
 40
0.0
 40
0.0
 40
0.0
 40
0.0011331757474703
 40
0.0011331757474703
 40
0.0011331757474703
 40
0.0021464109847957
 40
0.0021464109847957
 40
0.0021464109847957
 40
0.0027672835938826
 40
0.0027672835938826
 40
0.0027672835938826
 40
0.0033175318354674
 40
0.0033175318354674
 40
0.0033175318354674
 40
0.0038635776545231
 40
0.0038635776545231
 40
0.0038635776545231
 40
0.0045260568693005
 40
0.0045260568693005
 40
0.0045260568693005
 40
0.0057896415116642
 40
0.0057896415116642
 40
0.0057896415116642
 40
0.0057896415116642
 10
208.0412787777666
 20
141.8366860265306
 42
1.0
 10
208.3479064687383
 20
141.9470021660961
 42
1.0
 10
208.6428777860949
 20
142.0700810952195
 42
1.0
 10
208.9074474542947
 20
142.2126859390939
 42
1.0
 10
209.143021126002
 20
142.339661744383
 42
1.0
 10
209.3592042604672
 20
142.4845811260802
 42
1.0
 10
209.5140606891919
 20
142.6518049464355
 42
1.0
 10
209.6091946020129
 20
142.7545365958626
 42
1.0
 10
209.6816699480047
 20
142.868186601413
 42
1.0
 10
209.7135640406517
 20
142.9870566273418
 42
1.0
 10
209.7417860436545
 20
143.0922406896645
 42
1.0
 10
209.7375966117397
 20
143.2042265945179
 42
1.0
 10
209.6990352746917
 20
143.3119270479602
 42
1.0
 10
209.6606690318256
 20
143.4190826102377
 42
1.0
 10
209.5881567219459
 20
143.524658292163
 42
1.0
 10
209.4944549783299
 20
143.6214904266079
 42
1.0
 10
209.3805783892664
 20
143.7391714083785
 42
1.0
 10
209.234076377072
 20
143.8472794058161
 42
1.0
 10
209.0739203345606
 20
143.9447157261789
 42
1.0
 10
208.7695663211032
 20
144.1298797368143
 42
1.0
 10
208.4107348083093
 20
144.2829829409138
 42
1.0
 10
208.0412787777666
 20
144.4159029746508
 42
1.0
 97
        0
 75
     0
 76
     1
 52
0.0
 41
1.0
 77
     0
 78
     1
 53
45.0
 43
0.0
 44
0.0
 45
-2.245064030267288
 46
2.245064030267288
 79
     0
 98
        1
 10
0.0
 20
0.0
  0
HATCH
  5
3A6
330
1F
100
AcDbEntity
  8
0
  6
Continuous
 62
     7
370
     0
100
AcDbHatch
 10
0.0
 20
0.0
 30
0.0
210
0.0
220
0.0
230
1.0
  2
ANSI31
 70
     0
 71
     0
 91
        1
 92
        0
 93
        6
 72
     4
 94
        3
 73
     1
 74
     0
 95
       29
 96
       25
 40
0.0
 40
0.0
 40
0.0
 40
0.0
 40
0.0011682500061675
 40
0.0011682500061675
 40
0.0011682500061675
 40
0.0017503746110025
 40
0.0017503746110025
 40
0.0017503746110025
 40
0.0022147731566453
 40
0.0022147731566453
 40
0.0022147731566453
 40
0.0025865331561465
 40
0.0025865331561465
 40
0.0025865331561465
 40
0.0029579679349846
 40
0.0029579679349846
 40
0.0029579679349846
 40
0.0034862163060786
 40
0.0034862163060786
 40
0.0034862163060786
 40
0.0044476523700998
 40
0.0044476523700998
 40
0.0044476523700998
 40
0.0052614323998081
 40
0.0052614323998081
 40
0.0052614323998081
 40
0.0052614323998081
 10
208.0412787777666
 20
144.4159029746509
 42
1.0
 10
208.391867037025
 20
144.2897710417658
 42
1.0
 10
208.7350737315754
 20
144.1452985723768
 42
1.0
 10
209.0372474142019
 20
143.9667045294856
 42
1.0
 10
209.188263810175
 20
143.8774491434266
 42
1.0
 10
209.3302869170827
 20
143.778298626231
 42
1.0
 10
209.4479033436025
 20
143.6673974274951
 42
1.0
 10
209.5415098103632
 20
143.5791353566233
 42
1.0
 10
209.620829638543
 20
143.4813422386836
 42
1.0
 10
209.671012277484
 20
143.3782697392181
 42
1.0
 10
209.7112257266087
 20
143.2956734309954
 42
1.0
 10
209.732941505569
 20
143.2078565561786
 42
1.0
 10
209.7322138898167
 20
143.121896669386
 42
1.0
 10
209.7314862132042
 20
143.0359295926377
 42
1.0
 10
209.7085110409941
 20
142.9499217532637
 42
1.0
 10
209.6687761398663
 20
142.8697677862524
 42
1.0
 10
209.6124226886919
 20
142.7560905770937
 42
1.0
 10
209.5221471960047
 20
142.6508146993
 42
1.0
 10
209.4168164350932
 20
142.5566610661023
 42
1.0
 10
209.2256956825143
 20
142.3858210087531
 42
1.0
 10
208.981851183825
 20
142.2438684901061
 42
1.0
 10
208.7259952440281
 20
142.1201596851234
 42
1.0
 10
208.5082551257132
 20
142.0148802460181
 42
1.0
 10
208.2776032317373
 20
141.9217090111291
 42
1.0
 10
208.0412787777666
 20
141.8366860265306
 42
1.0
 72
     4
 94
        3
 73
     1
 74
     0
 95
        8
 96
        4
 40
0.0
 40
0.0
 40
0.0
 40
0.0
 40
0.0005785081113588
 40
0.0005785081113588
 40
0.0005785081113588
 40
0.0005785081113588
 10
208.0412787777666
 20
141.8366860265306
 42
1.0
 10
207.8725776429177
 20
141.7759920367677
 42
1.0
 10
207.7006090997428
 20
141.7194443249511
 42
1.0
 10
207.5265728954137
 20
141.6661602811984
 42
1.0
 72
     4
 94
        3
 73
     1
 74
     0
 95
       17
 96
       13
 40
0.0
 40
0.0
 40
0.0
 40
0.0
 40
0.000227898512285
 40
0.000227898512285
 40
0.000227898512285
 40
0.0004598539072434
 40
0.0004598539072434
 40
0.0004598539072434
 40
0.0005861270760975
 40
0.0005861270760975
 40
0.0005861270760975
 40
0.0006608873278989
 40
0.0006608873278989
 40
0.0006608873278989
 40
0.0006608873278989
 10
207.5265728954137
 20
141.6661602811984
 42
1.0
 10
207.5265728954137
 20
141.6661602811984
 42
1.0
 10
207.5395645221281
 20
141.6701204224782
 42
1.0
 10
207.5632621093332
 20
141.6774521031184
 42
1.0
 10
207.5873208429159
 20
141.6848955170706
 42
1.0
 10
207.6233461354231
 20
141.6960958355509
 42
1.0
 10
207.6711388532133
 20
141.7113562871138
 42
1.0
 10
207.6974169947544
 20
141.7197470278939
 42
1.0
 10
207.7278534469628
 20
141.7295626133361
 42
1.0
 10
207.761849595471
 20
141.7407209767125
 42
1.0
 10
207.7820906651866
 20
141.7473645884428
 42
1.0
 10
207.8038747509729
 20
141.7545779285333
 42
1.0
 10
207.8265728954137
 20
141.7621806192475
 42
1.0
 72
     4
 94
        3
 73
     1
 74
     0
 95
       29
 96
       25
 40
0.0
 40
0.0
 40
0.0
 40
0.0
 40
0.0014701235994454
 40
0.0014701235994454
 40
0.0014701235994454
 40
0.0021592428630063
 40
0.0021592428630063
 40
0.0021592428630063
 40
0.0025704510179544
 40
0.0025704510179544
 40
0.0025704510179544
 40
0.002911342815181
 40
0.002911342815181
 40
0.002911342815181
 40
0.0032504853142214
 40
0.0032504853142214
 40
0.0032504853142214
 40
0.0037088733468203
 40
0.0037088733468203
 40
0.0037088733468203
 40
0.0043437492747759
 40
0.0043437492747759
 40
0.0043437492747759
 40
0.0055367250589771
 40
0.0055367250589771
 40
0.0055367250589771
 40
0.0055367250589771
 10
207.8265728954137
 20
141.7621806192475
 42
1.0
 10
208.2671251407204
 20
141.9097425696644
 42
1.0
 10
208.7005235785191
 20
142.0809461776866
 42
1.0
 10
209.0726032380334
 20
142.3070724016809
 42
1.0
 10
209.2475019265074
 20
142.4133646404391
 42
1.0
 10
209.4112525877531
 20
142.5343569255298
 42
1.0
 10
209.5348756913486
 20
142.6748573010319
 42
1.0
 10
209.6088409195334
 20
142.7589204092357
 42
1.0
 10
209.6689901884555
 20
142.8520209785606
 42
1.0
 10
209.702303222597
 20
142.9500263601781
 42
1.0
 10
209.7299193186156
 20
143.0312716174426
 42
1.0
 10
209.7389981533012
 20
143.1178464579008
 42
1.0
 10
209.7267017788121
 20
143.2020971513916
 42
1.0
 10
209.7144496838438
 20
143.2860444562425
 42
1.0
 10
209.6809939331353
 20
143.3696532623957
 42
1.0
 10
209.6329055206824
 20
143.4470555002032
 42
1.0
 10
209.567976427175
 20
143.5515641932528
 42
1.0
 10
209.4758214760895
 20
143.6479183242499
 42
1.0
 10
209.3723844909299
 20
143.7342958872486
 42
1.0
 10
209.2289134848027
 20
143.8541048303566
 42
1.0
 10
209.0610444938521
 20
143.9583622963285
 42
1.0
 10
208.8855777917715
 20
144.0516073805158
 42
1.0
 10
208.5563087283838
 20
144.2265848615525
 42
1.0
 10
208.1944513592274
 20
144.3671883456839
 42
1.0
 10
207.8265728954137
 20
144.4904083819338
 42
1.0
 72
     4
 94
        3
 73
     1
 74
     0
 95
       23
 96
       19
 40
0.0
 40
0.0
 40
0.0
 40
0.0
 40
0.0000801087876171
 40
0.0000801087876171
 40
0.0000801087876171
 40
0.0001607755565465
 40
0.0001607755565465
 40
0.0001607755565465
 40
0.0002360411954439
 40
0.0002360411954439
 40
0.0002360411954439
 40
0.0003131683849925
 40
0.0003131683849925
 40
0.0003131683849925
 40
0.0004265844911672
 40
0.0004265844911672
 40
0.0004265844911672
 40
0.0005120877874112
 40
0.0005120877874112
 40
0.0005120877874112
 40
0.0005120877874112
 10
207.8265728954137
 20
144.4904083819338
 42
1.0
 10
207.8020186088742
 20
144.4986327831291
 42
1.0
 10
207.7761693068672
 20
144.5071899707447
 42
1.0
 10
207.7508519717262
 20
144.5154715913496
 42
1.0
 10
207.7254265953881
 20
144.5237885535969
 42
1.0
 10
207.6998721299403
 20
144.5320443388147
 42
1.0
 10
207.6766637262388
 20
144.5394671385769
 42
1.0
 10
207.6549502431096
 20
144.546411814285
 42
1.0
 10
207.6347193034933
 20
144.5528129135559
 42
1.0
 10
207.6173380978726
 20
144.558275298278
 42
1.0
 10
207.5994924492246
 20
144.5638836433295
 42
1.0
 10
207.5841947463767
 20
144.5686479354788
 42
1.0
 10
207.5718516183195
 20
144.5724761516267
 42
1.0
 10
207.5537947471858
 20
144.5780764828664
 42
1.0
 10
207.5415166032967
 20
144.5818459273345
 42
1.0
 10
207.5344457452042
 20
144.584015625874
 42
1.0
 10
207.5290772998062
 20
144.5856629376977
 42
1.0
 10
207.5265728954137
 20
144.586428719983
 42
1.0
 10
207.5265728954137
 20
144.586428719983
 42
1.0
 72
     4
 94
        3
 73
     1
 74
     0
 95
        8
 96
        4
 40
0.0
 40
0.0
 40
0.0
 40
0.0
 40
0.0005617421499021
 40
0.0005617421499021
 40
0.0005617421499021
 40
0.0005617421499021
 10
207.5265728954137
 20
144.5864287199831
 42
1.0
 10
207.7002819297951
 20
144.5332448446859
 42
1.0
 10
207.8722477506586
 20
144.4767156504997
 42
1.0
 10
208.0412787777666
 20
144.4159029746508
 42
1.0
 97
        0
 75
     0
 76
     1
 52
0.0
 41
1.0
 77
     0
 78
     1
 53
45.0
 43
0.0
 44
0.0
 45
-2.245064030267288
 46
2.245064030267288
 79
     0
 98
        1
 10
0.0
 20
0.0
  0
HATCH
  5
3A7
330
1F
100
AcDbEntity
  8
0
  6
Continuous
 62
     7
370
     0
100
AcDbHatch
 10
0.0
 20
0.0
 30
0.0
210
0.0
220
0.0
230
1.0
  2
ANSI31
 70
     0
 71
     0
 91
        1
 92
        0
 93
        2
 72
     4
 94
        3
 73
     1
 74
     0
 95
        8
 96
        4
 40
0.0
 40
0.0
 40
0.0
 40
0.0
 40
0.000279003332276
 40
0.000279003332276
 40
0.000279003332276
 40
0.000279003332276
 10
207.7839258365902
 20
144.5045972061294
 42
1.0
 10
207.6986757057651
 20
144.5327708701573
 42
1.0
 10
207.6128498455185
 20
144.5600136139885
 42
1.0
 10
207.5265728954137
 20
144.586428719983
 42
1.0
 72
     4
 94
        3
 73
     1
 74
     0
 95
        8
 96
        4
 40
0.0000000000000001
 40
0.0000000000000001
 40
0.0000000000000001
 40
0.0000000000000001
 40
0.0002862015599836
 40
0.0002862015599836
 40
0.0002862015599836
 40
0.0002862015599836
 10
207.5265728954137
 20
144.5864287199831
 42
1.0
 10
207.6130147840263
 20
144.5599631153541
 42
1.0
 10
207.6988522118416
 20
144.5327125380133
 42
1.0
 10
207.7839258365898
 20
144.5045972061295
 42
1.0
 97
        0
 75
     0
 76
     1
 52
0.0
 41
1.0
 77
     0
 78
     1
 53
45.0
 43
0.0
 44
0.0
 45
-2.245064030267288
 46
2.245064030267288
 79
     0
 98
        1
 10
0.0
 20
0.0
  0
HATCH
  5
3A8
330
1F
100
AcDbEntity
  8
0
  6
Continuous
 62
     7
370
     0
100
AcDbHatch
 10
0.0
 20
0.0
 30
0.0
210
0.0
220
0.0
230
1.0
  2
ANSI31
 70
     0
 71
     0
 91
        1
 92
        0
 93
        2
 72
     4
 94
        3
 73
     1
 74
     0
 95
        8
 96
        4
 40
0.0
 40
0.0
 40
0.0
 40
0.0
 40
0.0003139432228736
 40
0.0003139432228736
 40
0.0003139432228736
 40
0.0003139432228736
 10
207.7839258365902
 20
141.7479917950519
 42
1.0
 10
207.6990087998892
 20
141.7199282127548
 42
1.0
 10
207.6131755127539
 20
141.6926750955684
 42
1.0
 10
207.5265728954135
 20
141.6661602811983
 42
1.0
 72
     4
 94
        3
 73
     1
 74
     0
 95
        8
 96
        4
 40
0.0
 40
0.0
 40
0.0
 40
0.0
 40
0.0002870512881485
 40
0.0002870512881485
 40
0.0002870512881485
 40
0.0002870512881485
 10
207.5265728954137
 20
141.6661602811984
 42
1.0
 10
207.6129283252793
 20
141.6925994150612
 42
1.0
 10
207.6987547916474
 20
141.7198442675128
 42
1.0
 10
207.7839258365902
 20
141.7479917950519
 42
1.0
 97
        0
 75
     0
 76
     1
 52
0.0
 41
1.0
 77
     0
 78
     1
 53
45.0
 43
0.0
 44
0.0
 45
-2.245064030267288
 46
2.245064030267288
 79
     0
 98
        1
 10
0.0
 20
0.0
  0
HATCH
  5
3A9
330
1F
100
AcDbEntity
  8
0
  6
Continuous
 62
     7
370
     0
100
AcDbHatch
 10
0.0
 20
0.0
 30
0.0
210
0.0
220
0.0
230
1.0
  2
ANSI32
 70
     0
 71
     0
 91
        1
 92
        0
 93
        3
 72
     4
 94
        3
 73
     1
 74
     0
 95
        8
 96
        4
 40
0.0
 40
0.0
 40
0.0
 40
0.0
 40
0.00251976941111
 40
0.00251976941111
 40
0.00251976941111
 40
0.00251976941111
 10
202.9765728954138
 20
140.7769359961711
 42
1.0
 10
203.8006530004156
 20
140.8812754752595
 42
1.0
 10
204.6201902115583
 20
141.0053815953509
 42
1.0
 10
205.4265728954137
 20
141.160437037239
 42
1.0
 72
     4
 94
        3
 73
     1
 74
     0
 95
        8
 96
        4
 40
0.0
 40
0.0
 40
0.0
 40
0.0
 40
0.0021653350304167
 40
0.0021653350304167
 40
0.0021653350304167
 40
0.0021653350304167
 10
205.4265728954137
 20
141.160437037239
 42
1.0
 10
204.734619972569
 20
141.0273847428811
 42
1.0
 10
204.0326334551527
 20
140.9172438180952
 42
1.0
 10
203.3265728954137
 20
140.8225505609794
 42
1.0
 72
     4
 94
        3
 73
     1
 74
     0
 95
        8
 96
        4
 40
0.0
 40
0.0
 40
0.0
 40
0.0
 40
0.0003636699886311
 40
0.0003636699886311
 40
0.0003636699886311
 40
0.0003636699886311
 10
203.3265728954137
 20
140.8225505609794
 42
1.0
 10
203.2101209978897
 20
140.8069326237901
 42
1.0
 10
203.0934471892093
 20
140.7917338330069
 42
1.0
 10
202.9765728954137
 20
140.7769359961711
 42
1.0
 97
        0
 75
     0
 76
     1
 52
0.0
 41
1.0
 77
     0
 78
     2
 53
45.0
 43
0.0
 44
0.0
 45
-6.735192090801865
 46
6.735192090801866
 79
     0
 53
45.0
 43
4.49013
 44
0.0
 45
-6.735192090801865
 46
6.735192090801866
 79
     0
 98
        1
 10
0.0
 20
0.0
  0
HATCH
  5
3AA
330
1F
100
AcDbEntity
  8
0
  6
Continuous
 62
     7
370
     0
100
AcDbHatch
 10
0.0
 20
0.0
 30
0.0
210
0.0
220
0.0
230
1.0
  2
ANSI32
 70
     0
 71
     0
 91
        1
 92
        0
 93
        3
 72
     4
 94
        3
 73
     1
 74
     0
 95
        8
 96
        4
 40
0.0
 40
0.0
 40
0.0
 40
0.0
 40
0.0021421584434625
 40
0.0021421584434625
 40
0.0021421584434625
 40
0.0021421584434625
 10
203.3265728954137
 20
145.4300384402019
 42
1.0
 10
204.0308920964491
 20
145.3355787252734
 42
1.0
 10
204.7325816577185
 20
145.2255961960443
 42
1.0
 10
205.4265728954137
 20
145.0921519639424
 42
1.0
 72
     4
 94
        3
 73
     1
 74
     0
 95
        8
 96
        4
 40
0.0
 40
0.0
 40
0.0
 40
0.0
 40
0.0024958123004121
 40
0.0024958123004121
 40
0.0024958123004121
 40
0.0024958123004121
 10
205.4265728954137
 20
145.0921519639424
 42
1.0
 10
204.6176621086248
 20
145.2476935225656
 42
1.0
 10
203.798555156532
 20
145.3715791408017
 42
1.0
 10
202.9765728954137
 20
145.4756530050103
 42
1.0
 72
     4
 94
        3
 73
     1
 74
     0
 95
        8
 96
        4
 40
0.0
 40
0.0
 40
0.0
 40
0.0
 40
0.0003554717252405
 40
0.0003554717252405
 40
0.0003554717252405
 40
0.0003554717252405
 10
202.9765728954137
 20
145.4756530050103
 42
1.0
 10
203.0933441310453
 20
145.4608682167059
 42
1.0
 10
203.2100160171364
 20
145.4456704568769
 42
1.0
 10
203.3265728954137
 20
145.4300384402019
 42
1.0
 97
        0
 75
     0
 76
     1
 52
0.0
 41
1.0
 77
     0
 78
     2
 53
45.0
 43
0.0
 44
0.0
 45
-6.735192090801865
 46
6.735192090801866
 79
     0
 53
45.0
 43
4.49013
 44
0.0
 45
-6.735192090801865
 46
6.735192090801866
 79
     0
 98
        1
 10
0.0
 20
0.0
  0
HATCH
  5
3AB
330
1F
100
AcDbEntity
  8
0
  6
Continuous
 62
     7
370
     0
100
AcDbHatch
 10
0.0
 20
0.0
 30
0.0
210
0.0
220
0.0
230
1.0
  2
ANSI34
 70
     0
 71
     0
 91
        1
 92
        0
 93
       15
 72
     4
 94
        3
 73
     1
 74
     0
 95
        8
 96
        4
 40
0.0
 40
0.0
 40
0.0
 40
0.0
 40
0.0008594708467531
 40
0.0008594708467531
 40
0.0008594708467531
 40
0.0008594708467531
 10
202.6265728954137
 20
140.7338731129606
 42
1.0
 10
202.7289317014715
 20
140.7461075206871
 42
1.0
 10
202.8347852051018
 20
140.7590691435889
 42
1.0
 10
202.9437937986572
 20
140.7727968913605
 42
1.0
 72
     4
 94
        3
 73
     1
 74
     0
 95
       11
 96
        7
 40
0.0
 40
0.0
 40
0.0
 40
0.0
 40
0.0001429072610831
 40
0.0001429072610831
 40
0.0001429072610831
 40
0.0001862931100467
 40
0.0001862931100467
 40
0.0001862931100467
 40
0.0001862931100467
 10
202.943793798657
 20
140.7727968913605
 42
1.0
 10
202.9619190435077
 20
140.7750794525926
 42
1.0
 10
202.971116450372
 20
140.7762453027957
 42
1.0
 10
202.9748473155709
 20
140.7767175458496
 42
1.0
 10
202.9759905833621
 20
140.7768622576642
 42
1.0
 10
202.9765728954137
 20
140.7769359961711
 42
1.0
 10
202.9765728954137
 20
140.7769359961711
 42
1.0
 72
     4
 94
        3
 73
     1
 74
     0
 95
       23
 96
       19
 40
0.0
 40
0.0
 40
0.0
 40
0.0
 40
0.0001215316055972
 40
0.0001215316055972
 40
0.0001215316055972
 40
0.0001555275861331
 40
0.0001555275861331
 40
0.0001555275861331
 40
0.0002001001244935
 40
0.0002001001244935
 40
0.0002001001244935
 40
0.0002172128583183
 40
0.0002172128583183
 40
0.0002172128583183
 40
0.000234565940681
 40
0.000234565940681
 40
0.000234565940681
 40
0.0002495934506688
 40
0.0002495934506688
 40
0.0002495934506688
 40
0.0002495934506688
 10
202.9765728954137
 20
140.7769359961711
 42
1.0
 10
202.9765728954137
 20
140.7769359961711
 42
1.0
 10
202.9723607034149
 20
140.7764013947497
 42
1.0
 10
202.9604786097112
 20
140.7749009397206
 42
1.0
 10
202.9571168922044
 20
140.7744764264938
 42
1.0
 10
202.9530815142367
 20
140.7739671553003
 42
1.0
 10
202.9481033050833
 20
140.7733397915215
 42
1.0
 10
202.9416408386388
 20
140.7725253786988
 42
1.0
 10
202.9334386324001
 20
140.7714927164211
 42
1.0
 10
202.9225220810947
 20
140.7701227658566
 42
1.0
 10
202.9182660658265
 20
140.7695886658138
 42
1.0
 10
202.9135159341988
 20
140.7689931215431
 42
1.0
 10
202.9083706439521
 20
140.7683489246776
 42
1.0
 10
202.9031832700079
 20
140.7676994588797
 42
1.0
 10
202.897438585253
 20
140.7669811036961
 42
1.0
 10
202.891659504693
 20
140.7662595413542
 42
1.0
 10
202.8866351328868
 20
140.7656322101639
 42
1.0
 10
202.8814663008039
 20
140.7649876629314
 42
1.0
 10
202.8765728954137
 20
140.7643781981353
 42
1.0
 72
     4
 94
        3
 73
     1
 74
     0
 95
        8
 96
        4
 40
0.0
 40
0.0
 40
0.0
 40
0.0
 40
0.0001557364700814
 40
0.0001557364700814
 40
0.0001557364700814
 40
0.0001557364700814
 10
202.8765728954137
 20
140.7643781981353
 42
1.0
 10
202.8266108205333
 20
140.75815551202
 42
1.0
 10
202.7766103077385
 20
140.7520047417385
 42
1.0
 10
202.7265728954137
 20
140.7459246469834
 42
1.0
 72
     4
 94
        3
 73
     1
 74
     0
 95
       23
 96
       19
 40
0.0
 40
0.0
 40
0.0
 40
0.0
 40
0.0000150575148482
 40
0.0000150575148482
 40
0.0000150575148482
 40
0.0000301146793113
 40
0.0000301146793113
 40
0.0000301146793113
 40
0.0000501506488842
 40
0.0000501506488842
 40
0.0000501506488842
 40
0.0000830396885328
 40
0.0000830396885328
 40
0.0000830396885328
 40
0.0001492614560921
 40
0.0001492614560921
 40
0.0001492614560921
 40
0.0002508648182767
 40
0.0002508648182767
 40
0.0002508648182767
 40
0.0002508648182767
 10
202.7265728954137
 20
140.7459246469834
 42
1.0
 10
202.7217349850729
 20
140.7453367877813
 42
1.0
 10
202.7166296495926
 20
140.7447171766092
 42
1.0
 10
202.7116690479011
 20
140.7441158870465
 42
1.0
 10
202.7067059091397
 20
140.7435142899579
 42
1.0
 10
202.7017735693776
 20
140.7429171969867
 42
1.0
 10
202.6972236075551
 20
140.7423669933276
 42
1.0
 10
202.6911826579781
 20
140.7416364921297
 42
1.0
 10
202.6856370272176
 20
140.7409669876315
 42
1.0
 10
202.6807611342081
 20
140.7403789680997
 42
1.0
 10
202.6727805934959
 20
140.7394165364377
 42
1.0
 10
202.6662611071767
 20
140.7386320983089
 42
1.0
 10
202.660819177628
 20
140.7379779699015
 42
1.0
 10
202.6499080875776
 20
140.7366664398836
 42
1.0
 10
202.6427651848871
 20
140.7358108185145
 42
1.0
 10
202.6376370902349
 20
140.7351967650232
 42
1.0
 10
202.6297711351985
 20
140.7342548718875
 42
1.0
 10
202.6265728954115
 20
140.7338731129605
 42
1.0
 10
202.6265728954115
 20
140.7338731129605
 42
1.0
 72
     4
 94
        3
 73
     1
 74
     0
 95
        8
 96
        4
 40
0.0
 40
0.0
 40
0.0
 40
0.0
 40
0.0003584778941701
 40
0.0003584778941701
 40
0.0003584778941701
 40
0.0003584778941701
 10
202.6265728954137
 20
140.7338731129606
 42
1.0
 10
202.7433807241038
 20
140.7478345360846
 42
1.0
 10
202.8600528236308
 20
140.7621830085436
 42
1.0
 10
202.9765728954137
 20
140.7769359961711
 42
1.0
 72
     4
 94
        3
 73
     1
 74
     0
 95
        8
 96
        4
 40
0.0
 40
0.0
 40
0.0
 40
0.0
 40
0.0003636699886311
 40
0.0003636699886311
 40
0.0003636699886311
 40
0.0003636699886311
 10
202.9765728954137
 20
140.7769359961711
 42
1.0
 10
203.0934471892093
 20
140.7917338330069
 42
1.0
 10
203.2101209978897
 20
140.8069326237901
 42
1.0
 10
203.3265728954137
 20
140.8225505609794
 42
1.0
 72
     4
 94
        3
 73
     1
 74
     0
 95
        8
 96
        4
 40
0.0
 40
0.0
 40
0.0
 40
0.0
 40
0.0003617766466968
 40
0.0003617766466968
 40
0.0003617766466968
 40
0.0003617766466968
 10
203.3265728954137
 20
140.8225505609794
 42
1.0
 10
203.4434280757858
 20
140.8382225844166
 42
1.0
 10
203.560102123601
 20
140.854322295324
 42
1.0
 10
203.6765728954134
 20
140.8708716207273
 42
1.0
 72
     4
 94
        3
 73
     1
 74
     0
 95
        8
 96
        4
 40
0.0
 40
0.0
 40
0.0
 40
0.0
 40
0.0014185972975239
 40
0.0014185972975239
 40
0.0014185972975239
 40
0.0014185972975239
 10
203.6765728954134
 20
140.8708716207273
 42
1.0
 10
204.1447362704866
 20
140.9373929283092
 42
1.0
 10
204.6122636395344
 20
141.0114589907122
 42
1.0
 10
205.0765728954137
 20
141.0952425601033
 42
1.0
 72
     4
 94
        3
 73
     1
 74
     0
 95
        8
 96
        4
 40
0.0
 40
0.0
 40
0.0
 40
0.0
 40
0.000751733345186
 40
0.000751733345186
 40
0.000751733345186
 40
0.000751733345186
 10
205.0765728954137
 20
141.0952425601033
 42
1.0
 10
205.3115019934613
 20
141.1376349917403
 42
1.0
 10
205.544992344855
 20
141.1824236159943
 42
1.0
 10
205.7765728954137
 20
141.2299916191444
 42
1.0
 72
     4
 94
        3
 73
     1
 74
     0
 95
        8
 96
        4
 40
0.0
 40
0.0
 40
0.0
 40
0.0
 40
0.0010002695640601
 40
0.0010002695640601
 40
0.0010002695640601
 40
0.0010002695640601
 10
205.7765728954137
 20
141.2299916191444
 42
1.0
 10
205.6562111543148
 20
141.2052686116814
 42
1.0
 10
205.5393812340461
 20
141.1821284092706
 42
1.0
 10
205.4265728954137
 20
141.160437037239
 42
1.0
 72
     4
 94
        3
 73
     1
 74
     0
 95
        8
 96
        4
 40
0.0
 40
0.0
 40
0.0
 40
0.0
 40
0.0007254634446056
 40
0.0007254634446056
 40
0.0007254634446056
 40
0.0007254634446056
 10
205.4265728954137
 20
141.160437037239
 42
1.0
 10
205.1926907102552
 20
141.1154649584784
 42
1.0
 10
204.959260507727
 20
141.073479881843
 42
1.0
 10
204.7265728954136
 20
141.0340005742007
 42
1.0
 72
     4
 94
        3
 73
     1
 74
     0
 95
        8
 96
        4
 40
0.0
 40
0.0
 40
0.0
 40
0.0
 40
0.0014166975873881
 40
0.0014166975873881
 40
0.0014166975873881
 40
0.0014166975873881
 10
204.7265728954137
 20
141.0340005742007
 42
1.0
 10
204.2621498163664
 20
140.9552035061851
 42
1.0
 10
203.7946148867569
 20
140.8853219762864
 42
1.0
 10
203.3265728954137
 20
140.8225505609794
 42
1.0
 72
     4
 94
        3
 73
     1
 74
     0
 95
        8
 96
        4
 40
0.0
 40
0.0
 40
0.0
 40
0.0
 40
0.0015543579332421
 40
0.0015543579332421
 40
0.0015543579332421
 40
0.0015543579332421
 10
203.3265728954137
 20
140.8225505609794
 42
1.0
 10
203.1216297191008
 20
140.7950646228102
 42
1.0
 10
202.9265016456529
 20
140.7702821744939
 42
1.0
 10
202.7432395620803
 20
140.7479526119797
 42
1.0
 72
     4
 94
        3
 73
     1
 74
     0
 95
        8
 96
        4
 40
0.0
 40
0.0
 40
0.0
 40
0.0
 40
0.0002940317511889
 40
0.0002940317511889
 40
0.0002940317511889
 40
0.0002940317511889
 10
202.7432395620803
 20
140.7479526119797
 42
1.0
 10
202.7047478529083
 20
140.7432625909481
 42
1.0
 10
202.6658536239323
 20
140.7385681310738
 42
1.0
 10
202.6265728954137
 20
140.7338731129606
 42
1.0
 97
        0
 75
     0
 76
     1
 52
0.0
 41
1.0
 77
     0
 78
     4
 53
45.0
 43
0.0
 44
0.0
 45
-13.47038418160373
 46
13.47038418160373
 79
     0
 53
45.0
 43
4.49013
 44
0.0
 45
-13.47038418160373
 46
13.47038418160373
 79
     0
 53
45.0
 43
8.98026
 44
0.0
 45
-13.47038418160373
 46
13.47038418160373
 79
     0
 53
45.0
 43
13.4704
 44
0.0
 45
-13.47038418160373
 46
13.47038418160373
 79
     0
 98
        1
 10
0.0
 20
0.0
  0
HATCH
  5
3AC
330
1F
100
AcDbEntity
  8
0
  6
Continuous
 62
     7
370
     0
100
AcDbHatch
 10
0.0
 20
0.0
 30
0.0
210
0.0
220
0.0
230
1.0
  2
ANSI34
 70
     0
 71
     0
 91
        1
 92
        0
 93
       15
 72
     4
 94
        3
 73
     1
 74
     0
 95
        8
 96
        4
 40
0.0
 40
0.0
 40
0.0
 40
0.0
 40
0.0004838798316978
 40
0.0004838798316978
 40
0.0004838798316978
 40
0.0004838798316978
 10
202.943793798657
 20
145.4797921098209
 42
1.0
 10
202.8376473844105
 20
145.493159415591
 42
1.0
 10
202.7319011539272
 20
145.5061265575182
 42
1.0
 10
202.6265728954137
 20
145.5187158882208
 42
1.0
 72
     4
 94
        3
 73
     1
 74
     0
 95
        8
 96
        4
 40
0.0
 40
0.0
 40
0.0
 40
0.0
 40
0.0002129845794495
 40
0.0002129845794495
 40
0.0002129845794495
 40
0.0002129845794495
 10
202.6265728954137
 20
145.5187158882208
 42
1.0
 10
202.6655731929554
 20
145.5140543885418
 42
1.0
 10
202.7044630046958
 20
145.5093611175543
 42
1.0
 10
202.7432395620804
 20
145.5046363892017
 42
1.0
 72
     4
 94
        3
 73
     1
 74
     0
 95
        8
 96
        4
 40
0.0
 40
0.0
 40
0.0
 40
0.0
 40
0.0008776018780271
 40
0.0008776018780271
 40
0.0008776018780271
 40
0.0008776018780271
 10
202.7432395620803
 20
145.5046363892017
 42
1.0
 10
202.9363144520977
 20
145.4811111856106
 42
1.0
 10
203.1307931265947
 20
145.456295428687
 42
1.0
 10
203.3265728954137
 20
145.4300384402019
 42
1.0
 72
     4
 94
        3
 73
     1
 74
     0
 95
        8
 96
        4
 40
0.0
 40
0.0
 40
0.0
 40
0.0
 40
0.0014833385592889
 40
0.0014833385592889
 40
0.0014833385592889
 40
0.0014833385592889
 10
203.3265728954137
 20
145.4300384402019
 42
1.0
 10
203.7969416985392
 20
145.3669549647136
 42
1.0
 10
204.2642793164652
 20
145.2970241900317
 42
1.0
 10
204.7265728954137
 20
145.2185884269807
 42
1.0
 72
     4
 94
        3
 73
     1
 74
     0
 95
        8
 96
        4
 40
0.0
 40
0.0
 40
0.0
 40
0.0
 40
0.0008071070727627
 40
0.0008071070727627
 40
0.0008071070727627
 40
0.0008071070727627
 10
204.7265728954137
 20
145.2185884269807
 42
1.0
 10
204.9618893811965
 20
145.1786630874099
 42
1.0
 10
205.1953902931695
 20
145.1366049529084
 42
1.0
 10
205.4265728954137
 20
145.0921519639424
 42
1.0
 72
     4
 94
        3
 73
     1
 74
     0
 95
        8
 96
        4
 40
0.0
 40
0.0
 40
0.0
 40
0.0
 40
0.0005600275420033
 40
0.0005600275420033
 40
0.0005600275420033
 40
0.0005600275420033
 10
205.4265728954137
 20
145.0921519639424
 42
1.0
 10
205.542548993956
 20
145.069851478617
 42
1.0
 10
205.6592216249747
 20
145.0467020211721
 42
1.0
 10
205.7765728954137
 20
145.0225973820371
 42
1.0
 72
     4
 94
        3
 73
     1
 74
     0
 95
        8
 96
        4
 40
0.0
 40
0.0
 40
0.0
 40
0.0
 40
0.0007246651893269
 40
0.0007246651893269
 40
0.0007246651893269
 40
0.0007246651893269
 10
205.7765728954137
 20
145.0225973820371
 42
1.0
 10
205.5443856932882
 20
145.0702899949765
 42
1.0
 10
205.3109147162671
 20
145.1150599823007
 42
1.0
 10
205.0765728954137
 20
145.1573464410781
 42
1.0
 72
     4
 94
        3
 73
     1
 74
     0
 95
        8
 96
        4
 40
0.0
 40
0.0
 40
0.0
 40
0.0
 40
0.0014875328255694
 40
0.0014875328255694
 40
0.0014875328255694
 40
0.0014875328255694
 10
205.0765728954137
 20
145.1573464410781
 42
1.0
 10
204.614601981908
 20
145.2407080618045
 42
1.0
 10
204.1471849382973
 20
145.314848141801
 42
1.0
 10
203.6765728954137
 20
145.381717380454
 42
1.0
 72
     4
 94
        3
 73
     1
 74
     0
 95
        8
 96
        4
 40
0.0
 40
0.0
 40
0.0
 40
0.0
 40
0.0003557774121624
 40
0.0003557774121624
 40
0.0003557774121624
 40
0.0003557774121624
 10
203.6765728954137
 20
145.381717380454
 42
1.0
 10
203.5600220801186
 20
145.3982780792313
 42
1.0
 10
203.4433497687941
 20
145.4143769189009
 42
1.0
 10
203.3265728954137
 20
145.4300384402019
 42
1.0
 72
     4
 94
        3
 73
     1
 74
     0
 95
        8
 96
        4
 40
0.0
 40
0.0
 40
0.0
 40
0.0
 40
0.0003554717252404
 40
0.0003554717252404
 40
0.0003554717252404
 40
0.0003554717252404
 10
203.3265728954137
 20
145.4300384402019
 42
1.0
 10
203.2100160171364
 20
145.4456704568769
 42
1.0
 10
203.0933441310453
 20
145.4608682167059
 42
1.0
 10
202.9765728954137
 20
145.4756530050103
 42
1.0
 72
     4
 94
        3
 73
     1
 74
     0
 95
        8
 96
        4
 40
0.0
 40
0.0
 40
0.0
 40
0.0
 40
0.0003543942441448
 40
0.0003543942441448
 40
0.0003543942441448
 40
0.0003543942441448
 10
202.9765728954134
 20
145.4756530050105
 42
1.0
 10
202.8599938259007
 20
145.4904134625337
 42
1.0
 10
202.7433231301736
 20
145.5047613489952
 42
1.0
 10
202.6265728954137
 20
145.5187158882208
 42
1.0
 72
     4
 94
        3
 73
     1
 74
     0
 95
       20
 96
       16
 40
0.0
 40
0.0
 40
0.0
 40
0.0
 40
0.000062911195548
 40
0.000062911195548
 40
0.000062911195548
 40
0.0001145621967671
 40
0.0001145621967671
 40
0.0001145621967671
 40
0.0001518392467389
 40
0.0001518392467389
 40
0.0001518392467389
 40
0.0001806825257461
 40
0.0001806825257461
 40
0.0001806825257461
 40
0.0001925916483525
 40
0.0001925916483525
 40
0.0001925916483525
 40
0.0001925916483525
 10
202.6265728954137
 20
145.5187158882208
 42
1.0
 10
202.6265728954137
 20
145.5187158882208
 42
1.0
 10
202.6301361289184
 20
145.5182903430276
 42
1.0
 10
202.6370699636768
 20
145.5174601424241
 42
1.0
 10
202.6427766114079
 20
145.5167768751478
 42
1.0
 10
202.6509304759034
 20
145.5157998081525
 42
1.0
 10
202.6615072645882
 20
145.5145283174647
 42
1.0
 10
202.6691654657018
 20
145.5136076853436
 42
1.0
 10
202.6782846833715
 20
145.5125096818878
 42
1.0
 10
202.6885919962763
 20
145.5112650426397
 42
1.0
 10
202.6965812700216
 20
145.51030031364
 42
1.0
 10
202.7054753009911
 20
145.5092243525368
 42
1.0
 10
202.7147479997813
 20
145.5080998103833
 42
1.0
 10
202.7186195255796
 20
145.507630292926
 42
1.0
 10
202.7225836166205
 20
145.5071490953534
 42
1.0
 10
202.7265728954137
 20
145.506664354198
 42
1.0
 72
     4
 94
        3
 73
     1
 74
     0
 95
        8
 96
        4
 40
0.0
 40
0.0
 40
0.0
 40
0.0
 40
0.0001521159821077
 40
0.0001521159821077
 40
0.0001521159821077
 40
0.0001521159821077
 10
202.7265728954137
 20
145.506664354198
 42
1.0
 10
202.7765905049931
 20
145.5005866656938
 42
1.0
 10
202.8265908672867
 20
145.4944359743022
 42
1.0
 10
202.8765728954133
 20
145.4882108030461
 42
1.0
 72
     4
 94
        3
 73
     1
 74
     0
 95
       20
 96
       16
 40
0.0000000000000005
 40
0.0000000000000005
 40
0.0000000000000005
 40
0.0000000000000005
 40
0.0000303294062542
 40
0.0000303294062542
 40
0.0000303294062542
 40
0.0000602996700398
 40
0.0000602996700398
 40
0.0000602996700398
 40
0.000106622427018
 40
0.000106622427018
 40
0.000106622427018
 40
0.0001670922625961
 40
0.0001670922625961
 40
0.0001670922625961
 40
0.0001945243917678
 40
0.0001945243917678
 40
0.0001945243917678
 40
0.0001945243917678
 10
202.8765728954137
 20
145.4882108030461
 42
1.0
 10
202.8865384836146
 20
145.4869696070494
 42
1.0
 10
202.8963881182171
 20
145.485739638584
 42
1.0
 10
202.9052729005159
 20
145.4846278191346
 42
1.0
 10
202.9140940285841
 20
145.4835239652166
 42
1.0
 10
202.9222252855908
 20
145.482504010949
 42
1.0
 10
202.9293948807979
 20
145.4816032596278
 42
1.0
 10
202.9404155350814
 20
145.4802186809145
 42
1.0
 10
202.9494966339802
 20
145.4790741126584
 42
1.0
 10
202.9565310148943
 20
145.4781863967505
 42
1.0
 10
202.9656895647523
 20
145.4770306176562
 42
1.0
 10
202.97171133606
 20
145.4762683829056
 42
1.0
 10
202.9745846814749
 20
145.4759046981436
 42
1.0
 10
202.9759020513337
 20
145.4757379561498
 42
1.0
 10
202.9765728954138
 20
145.4756530050103
 42
1.0
 10
202.9765728954138
 20
145.4756530050103
 42
1.0
 72
     4
 94
        3
 73
     1
 74
     0
 95
       14
 96
       10
 40
0.0
 40
0.0
 40
0.0
 40
0.0
 40
0.0000504965996531
 40
0.0000504965996531
 40
0.0000504965996531
 40
0.0000932976252179
 40
0.0000932976252179
 40
0.0000932976252179
 40
0.0001055900700254
 40
0.0001055900700254
 40
0.0001055900700254
 40
0.0001055900700254
 10
202.9765728954137
 20
145.4756530050103
 42
1.0
 10
202.9765728954137
 20
145.4756530050103
 42
1.0
 10
202.974339972951
 20
145.4759359079179
 42
1.0
 10
202.9695643261048
 20
145.4765398718351
 42
1.0
 10
202.9655175403632
 20
145.4770516585412
 42
1.0
 10
202.9595315191275
 20
145.4778083306607
 42
1.0
 10
202.9514271398432
 20
145.4788302189337
 42
1.0
 10
202.9490699678584
 20
145.4791274368111
 42
1.0
 10
202.9465239043579
 20
145.4794483002071
 42
1.0
 10
202.9437937986571
 20
145.4797921098209
 42
1.0
 97
        0
 75
     0
 76
     1
 52
0.0
 41
1.0
 77
     0
 78
     4
 53
45.0
 43
0.0
 44
0.0
 45
-13.47038418160373
 46
13.47038418160373
 79
     0
 53
45.0
 43
4.49013
 44
0.0
 45
-13.47038418160373
 46
13.47038418160373
 79
     0
 53
45.0
 43
8.98026
 44
0.0
 45
-13.47038418160373
 46
13.47038418160373
 79
     0
 53
45.0
 43
13.4704
 44
0.0
 45
-13.47038418160373
 46
13.47038418160373
 79
     0
 98
        1
 10
0.0
 20
0.0
  0
HATCH
  5
3AD
330
1F
100
AcDbEntity
  8
0
  6
Continuous
 62
     7
370
     0
100
AcDbHatch
 10
0.0
 20
0.0
 30
0.0
210
0.0
220
0.0
230
1.0
  2
ANSI34
 70
     0
 71
     0
 91
        1
 92
        0
 93
        8
 72
     4
 94
        3
 73
     1
 74
     0
 95
        8
 96
        4
 40
0.0
 40
0.0
 40
0.0
 40
0.0
 40
0.0024905917622671
 40
0.0024905917622671
 40
0.0024905917622671
 40
0.0024905917622671
 10
203.6765728954137
 20
145.381717380454
 42
1.0
 10
204.4983882919836
 20
145.264945677067
 42
1.0
 10
205.3183302858145
 20
145.1260866680865
 42
1.0
 10
206.1265728954137
 20
144.9481833942548
 42
1.0
 72
     4
 94
        3
 73
     1
 74
     0
 95
        8
 96
        4
 40
0.0
 40
0.0
 40
0.0
 40
0.0
 40
0.0006984011331737
 40
0.0006984011331737
 40
0.0006984011331737
 40
0.0006984011331737
 10
206.1265728954137
 20
144.9481833942548
 42
1.0
 10
205.9943568148222
 20
144.9772856381987
 42
1.0
 10
205.8609842888976
 20
145.0054734721342
 42
1.0
 10
205.7265728954135
 20
145.0328184585696
 42
1.0
 72
     4
 94
        3
 73
     1
 74
     0
 95
        8
 96
        4
 40
0.0
 40
0.0
 40
0.0
 40
0.0
 40
0.0027535545081781
 40
0.0027535545081781
 40
0.0027535545081781
 40
0.0027535545081781
 10
205.7265728954137
 20
145.0328184585696
 42
1.0
 10
204.8369327697525
 20
145.2138090467782
 42
1.0
 10
203.9333334139058
 20
145.3535406929441
 42
1.0
 10
203.0265728954137
 20
145.4692962496953
 42
1.0
 72
     4
 94
        3
 73
     1
 74
     0
 95
        8
 96
        4
 40
0.0
 40
0.0
 40
0.0
 40
0.0
 40
0.0006097038007316
 40
0.0006097038007316
 40
0.0006097038007316
 40
0.0006097038007316
 10
203.0265728954137
 20
145.4692962496953
 42
1.0
 10
202.8928761871312
 20
145.4863637516293
 42
1.0
 10
202.7595382917976
 20
145.5028232363276
 42
1.0
 10
202.6265728954137
 20
145.5187158882208
 42
1.0
 72
     4
 94
        3
 73
     1
 74
     0
 95
        8
 96
        4
 40
0.0
 40
0.0
 40
0.0
 40
0.0
 40
0.0003540773676661
 40
0.0003540773676661
 40
0.0003540773676661
 40
0.0003540773676661
 10
202.6265728954137
 20
145.5187158882208
 42
1.0
 10
202.7433167685301
 20
145.5047621093689
 42
1.0
 10
202.8599871369668
 20
145.4904143094413
 42
1.0
 10
202.9765728954137
 20
145.4756530050103
 42
1.0
 72
     4
 94
        3
 73
     1
 74
     0
 95
        8
 96
        4
 40
0.0
 40
0.0
 40
0.0
 40
0.0
 40
0.0024958123004121
 40
0.0024958123004121
 40
0.0024958123004121
 40
0.0024958123004121
 10
202.9765728954137
 20
145.4756530050103
 42
1.0
 10
203.798555156532
 20
145.3715791408017
 42
1.0
 10
204.6176621086248
 20
145.2476935225656
 42
1.0
 10
205.4265728954137
 20
145.0921519639424
 42
1.0
 72
     4
 94
        3
 73
     1
 74
     0
 95
        8
 96
        4
 40
0.0
 40
0.0
 40
0.0
 40
0.0
 40
0.0021421584434625
 40
0.0021421584434625
 40
0.0021421584434625
 40
0.0021421584434625
 10
205.4265728954137
 20
145.0921519639424
 42
1.0
 10
204.7325816577185
 20
145.2255961960443
 42
1.0
 10
204.0308920964491
 20
145.3355787252734
 42
1.0
 10
203.3265728954137
 20
145.4300384402019
 42
1.0
 72
     4
 94
        3
 73
     1
 74
     0
 95
        8
 96
        4
 40
0.0
 40
0.0
 40
0.0
 40
0.0
 40
0.0003553928705254
 40
0.0003553928705254
 40
0.0003553928705254
 40
0.0003553928705254
 10
203.3265728954137
 20
145.4300384402019
 42
1.0
 10
203.4433419755192
 20
145.4143779640953
 42
1.0
 10
203.5600138624655
 20
145.3982792468772
 42
1.0
 10
203.6765728954137
 20
145.381717380454
 42
1.0
 97
        0
 75
     0
 76
     1
 52
0.0
 41
1.0
 77
     0
 78
     4
 53
45.0
 43
0.0
 44
0.0
 45
-13.47038418160373
 46
13.47038418160373
 79
     0
 53
45.0
 43
4.49013
 44
0.0
 45
-13.47038418160373
 46
13.47038418160373
 79
     0
 53
45.0
 43
8.98026
 44
0.0
 45
-13.47038418160373
 46
13.47038418160373
 79
     0
 53
45.0
 43
13.4704
 44
0.0
 45
-13.47038418160373
 46
13.47038418160373
 79
     0
 98
        1
 10
0.0
 20
0.0
  0
HATCH
  5
3AE
330
1F
100
AcDbEntity
  8
0
  6
Continuous
 62
     7
370
     0
100
AcDbHatch
 10
0.0
 20
0.0
 30
0.0
210
0.0
220
0.0
230
1.0
  2
ANSI34
 70
     0
 71
     0
 91
        1
 92
        0
 93
        8
 72
     4
 94
        3
 73
     1
 74
     0
 95
        8
 96
        4
 40
0.0
 40
0.0
 40
0.0
 40
0.0
 40
0.0003594560888049
 40
0.0003594560888049
 40
0.0003594560888049
 40
0.0003594560888049
 10
203.6765728954137
 20
140.8708716207274
 42
1.0
 10
203.5600706584417
 20
140.8543178244412
 42
1.0
 10
203.4433973860145
 20
140.8382184684604
 42
1.0
 10
203.326572895414
 20
140.8225505609795
 42
1.0
 72
     4
 94
        3
 73
     1
 74
     0
 95
        8
 96
        4
 40
0.0
 40
0.0
 40
0.0
 40
0.0
 40
0.0021653350304167
 40
0.0021653350304167
 40
0.0021653350304167
 40
0.0021653350304167
 10
203.3265728954137
 20
140.8225505609794
 42
1.0
 10
204.0326334551527
 20
140.9172438180952
 42
1.0
 10
204.734619972569
 20
141.0273847428811
 42
1.0
 10
205.4265728954137
 20
141.160437037239
 42
1.0
 72
     4
 94
        3
 73
     1
 74
     0
 95
        8
 96
        4
 40
0.0
 40
0.0
 40
0.0
 40
0.0
 40
0.00251976941111
 40
0.00251976941111
 40
0.00251976941111
 40
0.00251976941111
 10
205.4265728954137
 20
141.160437037239
 42
1.0
 10
204.6201902115583
 20
141.0053815953509
 42
1.0
 10
203.8006530004156
 20
140.8812754752595
 42
1.0
 10
202.9765728954138
 20
140.7769359961711
 42
1.0
 72
     4
 94
        3
 73
     1
 74
     0
 95
        8
 96
        4
 40
0.0
 40
0.0
 40
0.0
 40
0.0
 40
0.0003567361720413
 40
0.0003567361720413
 40
0.0003567361720413
 40
0.0003567361720413
 10
202.9765728954137
 20
140.7769359961711
 42
1.0
 10
202.8600269309876
 20
140.7621797301913
 42
1.0
 10
202.7433555269243
 20
140.7478315243988
 42
1.0
 10
202.6265728954137
 20
140.7338731129606
 42
1.0
 72
     4
 94
        3
 73
     1
 74
     0
 95
        8
 96
        4
 40
0.0
 40
0.0
 40
0.0
 40
0.0
 40
0.0007934176353913
 40
0.0007934176353913
 40
0.0007934176353913
 40
0.0007934176353913
 10
202.6265728954137
 20
140.7338731129606
 42
1.0
 10
202.7588370073549
 20
140.7496819440265
 42
1.0
 10
202.892207098915
 20
140.7661398348506
 42
1.0
 10
203.0265728954136
 20
140.783292751486
 42
1.0
 72
     4
 94
        3
 73
     1
 74
     0
 95
        8
 96
        4
 40
0.0
 40
0.0
 40
0.0
 40
0.0
 40
0.002780150611085
 40
0.002780150611085
 40
0.002780150611085
 40
0.002780150611085
 10
203.0265728954137
 20
140.783292751486
 42
1.0
 10
203.9358649012332
 20
140.8993714737468
 42
1.0
 10
204.840048350853
 20
141.0394137959305
 42
1.0
 10
205.7265728954137
 20
141.2197705426119
 42
1.0
 72
     4
 94
        3
 73
     1
 74
     0
 95
        8
 96
        4
 40
0.0
 40
0.0
 40
0.0
 40
0.0
 40
0.0006516766752084
 40
0.0006516766752084
 40
0.0006516766752084
 40
0.0006516766752084
 10
205.7265728954137
 20
141.2197705426119
 42
1.0
 10
205.8598911867986
 20
141.2468931456518
 42
1.0
 10
205.9932042385414
 20
141.2750496680014
 42
1.0
 10
206.1265728954137
 20
141.3044056069266
 42
1.0
 72
     4
 94
        3
 73
     1
 74
     0
 95
        8
 96
        4
 40
0.0
 40
0.0
 40
0.0
 40
0.0
 40
0.0026137570068778
 40
0.0026137570068778
 40
0.0026137570068778
 40
0.0026137570068778
 10
206.1265728954137
 20
141.3044056069266
 42
1.0
 10
205.3256935968767
 20
141.1281230805396
 42
1.0
 10
204.5049131975296
 20
140.9885704475757
 42
1.0
 10
203.6765728954137
 20
140.8708716207274
 42
1.0
 97
        0
 75
     0
 76
     1
 52
0.0
 41
1.0
 77
     0
 78
     4
 53
45.0
 43
0.0
 44
0.0
 45
-13.47038418160373
 46
13.47038418160373
 79
     0
 53
45.0
 43
4.49013
 44
0.0
 45
-13.47038418160373
 46
13.47038418160373
 79
     0
 53
45.0
 43
8.98026
 44
0.0
 45
-13.47038418160373
 46
13.47038418160373
 79
     0
 53
45.0
 43
13.4704
 44
0.0
 45
-13.47038418160373
 46
13.47038418160373
 79
     0
 98
        1
 10
0.0
 20
0.0
  0
HATCH
  5
3AF
330
1F
100
AcDbEntity
  8
0
  6
Continuous
 62
     7
370
     0
100
AcDbHatch
 10
0.0
 20
0.0
 30
0.0
210
0.0
220
0.0
230
1.0
  2
ANSI32
 70
     0
 71
     0
 91
        1
 92
        0
 93
        2
 72
     4
 94
        3
 73
     1
 74
     0
 95
        8
 96
        4
 40
0.0
 40
0.0
 40
0.0
 40
0.0
 40
0.0008213440749941
 40
0.0008213440749941
 40
0.0008213440749941
 40
0.0008213440749941
 10
207.5265728954137
 20
144.586428719983
 42
1.0
 10
207.2653867253257
 20
144.6663951578184
 42
1.0
 10
207.0016386717641
 20
144.7384362662064
 42
1.0
 10
206.7365728954137
 20
144.8049260598041
 42
1.0
 72
     4
 94
        3
 73
     1
 74
     0
 95
        8
 96
        4
 40
0.0
 40
0.0
 40
0.0
 40
0.0
 40
0.0008463321142308
 40
0.0008463321142308
 40
0.0008463321142308
 40
0.0008463321142308
 10
206.7365728954137
 20
144.8049260598041
 42
1.0
 10
207.0031472645018
 20
144.7380578468528
 42
1.0
 10
207.267234289288
 20
144.6658294957518
 42
1.0
 10
207.5265728954137
 20
144.5864287199831
 42
1.0
 97
        0
 75
     0
 76
     1
 52
0.0
 41
1.0
 77
     0
 78
     2
 53
45.0
 43
0.0
 44
0.0
 45
-6.735192090801865
 46
6.735192090801866
 79
     0
 53
45.0
 43
4.49013
 44
0.0
 45
-6.735192090801865
 46
6.735192090801866
 79
     0
 98
        1
 10
0.0
 20
0.0
  0
HATCH
  5
3B0
330
1F
100
AcDbEntity
  8
0
  6
Continuous
 62
     7
370
     0
100
AcDbHatch
 10
0.0
 20
0.0
 30
0.0
210
0.0
220
0.0
230
1.0
  2
ANSI32
 70
     0
 71
     0
 91
        1
 92
        0
 93
        3
 72
     4
 94
        3
 73
     1
 74
     0
 95
        8
 96
        4
 40
0.0
 40
0.0
 40
0.0
 40
0.0
 40
0.0004783076259258
 40
0.0004783076259258
 40
0.0004783076259258
 40
0.0004783076259258
 10
206.7365728954129
 20
141.4476629413771
 42
1.0
 10
206.8867282691683
 20
141.4853283086155
 42
1.0
 10
207.0360936709553
 20
141.5247161427409
 42
1.0
 10
207.1843790351984
 20
141.5661362410431
 42
1.0
 72
     4
 94
        3
 73
     1
 74
     0
 95
        8
 96
        4
 40
0.0
 40
0.0
 40
0.0
 40
0.0
 40
0.0003565129673079
 40
0.0003565129673079
 40
0.0003565129673079
 40
0.0003565129673079
 10
207.1843790351984
 20
141.5661362410431
 42
1.0
 10
207.2988353913941
 20
141.5981069857564
 42
1.0
 10
207.4129419075275
 20
141.6313702870501
 42
1.0
 10
207.5265728954137
 20
141.6661602811984
 42
1.0
 72
     4
 94
        3
 73
     1
 74
     0
 95
        8
 96
        4
 40
0.0
 40
0.0
 40
0.0
 40
0.0
 40
0.0008822643564516
 40
0.0008822643564516
 40
0.0008822643564516
 40
0.0008822643564516
 10
207.5265728954137
 20
141.6661602811984
 42
1.0
 10
207.268179985188
 20
141.5870490457693
 42
1.0
 10
207.004073307959
 20
141.5147634454946
 42
1.0
 10
206.7365728954128
 20
141.4476629413768
 42
1.0
 97
        0
 75
     0
 76
     1
 52
0.0
 41
1.0
 77
     0
 78
     2
 53
45.0
 43
0.0
 44
0.0
 45
-6.735192090801865
 46
6.735192090801866
 79
     0
 53
45.0
 43
4.49013
 44
0.0
 45
-6.735192090801865
 46
6.735192090801866
 79
     0
 98
        1
 10
0.0
 20
0.0
  0
LINE
  5
3B1
330
1F
100
AcDbEntity
  8
0
  6
Continuous
 62
     7
370
     0
100
AcDbLine
 10
221.6265722845
 20
193.0499686541
 30
0.0
 11
221.6265722845
 21
193.0346986892
 31
0.0
  0
LWPOLYLINE
  5
3B2
330
1F
100
AcDbEntity
  8
0
  6
Continuous
 62
     7
370
     0
100
AcDbPolyline
 90
        6
 70
   128
 43
0.0
 10
221.6265201569
 20
193.0346986892
 10
221.6265722845
 20
192.914416516
 10
221.6265722845
 20
192.6835938038
 10
221.6265722845
 20
192.3609277846
 10
221.6265722845
 20
191.972566271
 10
221.6265722845
 20
191.5499674769
  0
LINE
  5
3B3
330
1F
100
AcDbEntity
  8
0
  6
Continuous
 62
     7
370
     0
100
AcDbLine
 10
221.6265722845
 20
153.8581321629
 30
0.0
 11
221.6265722845
 21
153.8428645263
 31
0.0
  0
LWPOLYLINE
  5
3B4
330
1F
100
AcDbEntity
  8
0
  6
Continuous
 62
     7
370
     0
100
AcDbPolyline
 90
        6
 70
   128
 43
0.0
 10
221.6265201569
 20
153.8428645263
 10
221.6265722845
 20
153.7225800248
 10
221.6265722845
 20
153.4917563813
 10
221.6265722845
 20
153.1690936217
 10
221.6265722845
 20
152.7807307111
 10
221.6265722845
 20
152.358131917
  0
LINE
  5
3B5
330
1F
100
AcDbEntity
  8
0
  6
Continuous
 62
     7
370
     0
100
AcDbLine
 10
199.6265728693
 20
144.6403409036
 30
0.0
 11
205.6265729215
 21
144.6403409036
 31
0.0
  0
LINE
  5
3B6
330
1F
100
AcDbEntity
  8
0
  6
Continuous
 62
     7
370
     0
100
AcDbLine
 10
205.6265729215
 20
141.6403422745
 30
0.0
 11
199.6265728693
 21
141.6403422745
 31
0.0
  0
LINE
  5
3B7
330
1F
100
AcDbEntity
  8
0
  6
Continuous
 62
     7
370
     0
100
AcDbLine
 10
205.6265729215
 20
141.8903409185
 30
0.0
 11
205.6265729215
 21
141.6403422745
 31
0.0
  0
LINE
  5
3B8
330
1F
100
AcDbEntity
  8
0
  6
Continuous
 62
     7
370
     0
100
AcDbLine
 10
205.6265729215
 20
144.6403409036
 30
0.0
 11
205.6265729215
 21
144.3903422596
 31
0.0
  0
LWPOLYLINE
  5
3B9
330
1F
100
AcDbEntity
  8
0
  6
Continuous
 62
     7
370
     0
100
AcDbPolyline
 90
       11
 70
   128
 43
0.0
 10
205.6264877319
 20
141.8903409185
 10
205.6265729215
 20
141.9515213611
 10
205.6265729215
 20
142.1290705593
 10
205.6265729215
 20
142.4056100341
 10
205.6265729215
 20
142.7540699633
 10
205.6265729215
 20
143.140341589
 10
205.6265729215
 20
143.5266132148
 10
205.6265729215
 20
143.875073144
 10
205.6265729215
 20
144.1516126188
 10
205.6265729215
 20
144.329161817
 10
205.6265729215
 20
144.3903422596
  0
LINE
  5
3BA
330
1F
100
AcDbEntity
  8
0
  6
CENTERX2
 62
     7
370
     0
100
AcDbLine
 10
244.6665006491
 20
160.6403416636
 30
0.0
 11
194.8440246446
 21
160.6403416636
 31
0.0
  0
LINE
  5
3BB
330
1F
100
AcDbEntity
  8
0
  6
CENTERX2
 62
     7
370
     0
100
AcDbLine
 10
237.9765728954
 20
183.591804819
 30
0.0
 11
237.9765728954
 21
207.8935625094
 31
0.0
  0
LINE
  5
3BC
330
1F
100
AcDbEntity
  8
0
  6
CENTERX2
 62
     7
370
     0
100
AcDbLine
 10
235.4265728954
 20
183.1878977665
 30
0.0
 11
235.4265728954
 21
207.8852862396
 31
0.0
  0
LINE
  5
3BD
330
1F
100
AcDbEntity
  8
0
  6
CENTERX2
 62
     7
370
     0
100
AcDbLine
 10
229.6930181328
 20
175.5840649149
 30
0.0
 11
238.2974800481
 21
175.5840649149
 31
0.0
  0
LINE
  5
3BE
330
1F
100
AcDbEntity
  8
0
  6
CENTERX2
 62
     7
370
     0
100
AcDbLine
 10
230.3076225553
 20
136.7253853519
 30
0.0
 11
238.2462630129
 21
136.7253853519
 31
0.0
  0
LINE
  5
3BF
330
1F
100
AcDbEntity
  8
0
  6
CENTERX2
 62
     7
370
     0
100
AcDbLine
 10
210.2820148943
 20
143.1403416636
 30
0.0
 11
196.9710422646
 21
143.1403416636
 31
0.0
  0
ENDSEC
  0
SECTION
  2
OBJECTS
  0
DICTIONARY
  5
C
330
0
100
AcDbDictionary
281
     1
  3
ACAD_GROUP
350
D
  3
ACAD_LAYOUT
350
1A
  3
ACAD_MLINESTYLE
350
17
  3
ACAD_PLOTSETTINGS
350
19
  3
ACAD_PLOTSTYLENAME
350
E
  3
ACAD_SCALELIST
350
47
  0
DICTIONARY
  5
D
102
{ACAD_REACTORS
330
C
102
}
330
C
100
AcDbDictionary
281
     1
  0
DICTIONARY
  5
1A
102
{ACAD_REACTORS
330
C
102
}
330
C
100
AcDbDictionary
281
     1
  3
Layout1
350
1E
  3
Layout2
350
26
  3
Model
350
22
  0
DICTIONARY
  5
17
102
{ACAD_REACTORS
330
C
102
}
330
C
100
AcDbDictionary
281
     1
  3
Standard
350
18
  0
DICTIONARY
  5
19
102
{ACAD_REACTORS
330
C
102
}
330
C
100
AcDbDictionary
281
     1
  0
ACDBDICTIONARYWDFLT
  5
E
102
{ACAD_REACTORS
330
C
102
}
330
C
100
AcDbDictionary
281
     1
  3
Normal
350
F
100
AcDbDictionaryWithDefault
340
F
  0
DICTIONARY
  5
47
102
{ACAD_REACTORS
330
C
102
}
330
C
100
AcDbDictionary
281
     1
  3
A0
350
48
  3
A1
350
49
  3
A2
350
4A
  3
A3
350
4B
  3
A4
350
4C
  3
A5
350
4D
  3
A6
350
4E
  3
A7
350
4F
  3
A8
350
50
  3
A9
350
51
  3
B0
350
52
  3
B1
350
53
  3
B2
350
54
  3
B3
350
55
  3
B4
350
56
  3
B5
350
57
  3
B6
350
58
  3
B7
350
59
  3
B8
350
5A
  3
B9
350
5B
  3
C0
350
5C
  3
C1
350
5D
  3
C2
350
5E
  3
C3
350
5F
  3
C4
350
60
  3
C5
350
61
  3
C6
350
62
  3
C7
350
63
  3
C8
350
64
  3
C9
350
65
  3
D0
350
66
  3
D1
350
67
  3
D2
350
68
  0
LAYOUT
  5
1E
102
{ACAD_REACTORS
330
1A
102
}
330
1A
100
AcDbPlotSettings
  1

  2
none_device
  4

  6

 40
0.0
 41
0.0
 42
0.0
 43
0.0
 44
0.0
 45
0.0
 46
0.0
 47
0.0
 48
0.0
 49
0.0
140
0.0
141
0.0
142
1.0
143
1.0
 70
   688
 72
     1
 73
     0
 74
     5
  7

 75
    16
147
1.0
148
0.0
149
0.0
100
AcDbLayout
  1
Layout1
 70
     1
 71
     1
 10
0.0
 20
0.0
 11
420.0
 21
297.0
 12
0.0
 22
0.0
 32
0.0
 14
1.0000000000E+20
 24
1.0000000000E+20
 34
1.0000000000E+20
 15
-1.0000000000E+20
 25
-1.0000000000E+20
 35
-1.0000000000E+20
146
0.0
 13
0.0
 23
0.0
 33
0.0
 16
1.0
 26
0.0
 36
0.0
 17
0.0
 27
1.0
 37
0.0
 76
     0
330
1B
  0
LAYOUT
  5
26
102
{ACAD_REACTORS
330
1A
102
}
330
1A
100
AcDbPlotSettings
  1

  2
none_device
  4

  6

 40
0.0
 41
0.0
 42
0.0
 43
0.0
 44
0.0
 45
0.0
 46
0.0
 47
0.0
 48
0.0
 49
0.0
140
0.0
141
0.0
142
1.0
143
1.0
 70
   688
 72
     1
 73
     0
 74
     5
  7

 75
    16
147
1.0
148
0.0
149
0.0
100
AcDbLayout
  1
Layout2
 70
     1
 71
     2
 10
0.0
 20
0.0
 11
0.0
 21
0.0
 12
0.0
 22
0.0
 32
0.0
 14
0.0
 24
0.0
 34
0.0
 15
0.0
 25
0.0
 35
0.0
146
0.0
 13
0.0
 23
0.0
 33
0.0
 16
1.0
 26
0.0
 36
0.0
 17
0.0
 27
1.0
 37
0.0
 76
     0
330
23
  0
LAYOUT
  5
22
102
{ACAD_REACTORS
330
1A
102
}
330
1A
100
AcDbPlotSettings
  1

  2
none_device
  4
Letter_(8.50_x_11.00_Inches)
  6

 40
6.35
 41
6.35
 42
6.35000508
 43
6.35000508
 44
215.9
 45
279.4
 46
0.0
 47
0.0
 48
0.0
 49
0.0
140
0.0
141
0.0
142
1.0
143
1.0
 70
  1712
 72
     1
 73
     0
 74
     0
  7

 75
     0
147
1.0
148
0.0
149
0.0
100
AcDbLayout
  1
Model
 70
     1
 71
     0
 10
0.0
 20
0.0
 11
420.0
 21
297.0
 12
0.0
 22
0.0
 32
0.0
 14
0.0
 24
0.0
 34
0.0
 15
420.0
 25
297.0
 35
0.0
146
0.0
 13
0.0
 23
0.0
 33
0.0
 16
1.0
 26
0.0
 36
0.0
 17
0.0
 27
1.0
 37
0.0
 76
     0
330
1F
331
29
  0
MLINESTYLE
  5
18
102
{ACAD_REACTORS
330
17
102
}
330
17
100
AcDbMlineStyle
  2
Standard
 70
     0
  3

 62
   256
 51
90.0
 52
90.0
 71
     2
 49
0.5
 62
   256
  6
BYLAYER
 49
-0.5
 62
   256
  6
BYLAYER
  0
ACDBPLACEHOLDER
  5
F
102
{ACAD_REACTORS
330
E
102
}
330
E
  0
SCALE
  5
48
102
{ACAD_REACTORS
330
47
102
}
330
47
100
AcDbScale
 70
     0
300
1:1
140
1.0
141
1.0
290
     1
  0
SCALE
  5
49
102
{ACAD_REACTORS
330
47
102
}
330
47
100
AcDbScale
 70
     0
300
1:2
140
1.0
141
2.0
290
     0
  0
SCALE
  5
4A
102
{ACAD_REACTORS
330
47
102
}
330
47
100
AcDbScale
 70
     0
300
1:4
140
1.0
141
4.0
290
     0
  0
SCALE
  5
4B
102
{ACAD_REACTORS
330
47
102
}
330
47
100
AcDbScale
 70
     0
300
1:5
140
1.0
141
5.0
290
     0
  0
SCALE
  5
4C
102
{ACAD_REACTORS
330
47
102
}
330
47
100
AcDbScale
 70
     0
300
1:8
140
1.0
141
8.0
290
     0
  0
SCALE
  5
4D
102
{ACAD_REACTORS
330
47
102
}
330
47
100
AcDbScale
 70
     0
300
1:10
140
1.0
141
10.0
290
     0
  0
SCALE
  5
4E
102
{ACAD_REACTORS
330
47
102
}
330
47
100
AcDbScale
 70
     0
300
1:16
140
1.0
141
16.0
290
     0
  0
SCALE
  5
4F
102
{ACAD_REACTORS
330
47
102
}
330
47
100
AcDbScale
 70
     0
300
1:20
140
1.0
141
20.0
290
     0
  0
SCALE
  5
50
102
{ACAD_REACTORS
330
47
102
}
330
47
100
AcDbScale
 70
     0
300
1:30
140
1.0
141
30.0
290
     0
  0
SCALE
  5
51
102
{ACAD_REACTORS
330
47
102
}
330
47
100
AcDbScale
 70
     0
300
1:40
140
1.0
141
40.0
290
     0
  0
SCALE
  5
52
102
{ACAD_REACTORS
330
47
102
}
330
47
100
AcDbScale
 70
     0
300
1:50
140
1.0
141
50.0
290
     0
  0
SCALE
  5
53
102
{ACAD_REACTORS
330
47
102
}
330
47
100
AcDbScale
 70
     0
300
1:100
140
1.0
141
100.0
290
     0
  0
SCALE
  5
54
102
{ACAD_REACTORS
330
47
102
}
330
47
100
AcDbScale
 70
     0
300
2:1
140
2.0
141
1.0
290
     0
  0
SCALE
  5
55
102
{ACAD_REACTORS
330
47
102
}
330
47
100
AcDbScale
 70
     0
300
4:1
140
4.0
141
1.0
290
     0
  0
SCALE
  5
56
102
{ACAD_REACTORS
330
47
102
}
330
47
100
AcDbScale
 70
     0
300
8:1
140
8.0
141
1.0
290
     0
  0
SCALE
  5
57
102
{ACAD_REACTORS
330
47
102
}
330
47
100
AcDbScale
 70
     0
300
10:1
140
10.0
141
1.0
290
     0
  0
SCALE
  5
58
102
{ACAD_REACTORS
330
47
102
}
330
47
100
AcDbScale
 70
     0
300
100:1
140
100.0
141
1.0
290
     0
  0
SCALE
  5
59
102
{ACAD_REACTORS
330
47
102
}
330
47
100
AcDbScale
 70
     0
300
1/128" = 1'-0"
140
0.0078125
141
12.0
290
     0
  0
SCALE
  5
5A
102
{ACAD_REACTORS
330
47
102
}
330
47
100
AcDbScale
 70
     0
300
1/64" = 1'-0"
140
0.015625
141
12.0
290
     0
  0
SCALE
  5
5B
102
{ACAD_REACTORS
330
47
102
}
330
47
100
AcDbScale
 70
     0
300
1/32" = 1'-0"
140
0.03125
141
12.0
290
     0
  0
SCALE
  5
5C
102
{ACAD_REACTORS
330
47
102
}
330
47
100
AcDbScale
 70
     0
300
1/16" = 1'-0"
140
0.0625
141
12.0
290
     0
  0
SCALE
  5
5D
102
{ACAD_REACTORS
330
47
102
}
330
47
100
AcDbScale
 70
     0
300
3/32" = 1'-0"
140
0.09375
141
12.0
290
     0
  0
SCALE
  5
5E
102
{ACAD_REACTORS
330
47
102
}
330
47
100
AcDbScale
 70
     0
300
1/8" = 1'-0"
140
0.125
141
12.0
290
     0
  0
SCALE
  5
5F
102
{ACAD_REACTORS
330
47
102
}
330
47
100
AcDbScale
 70
     0
300
3/16" = 1'-0"
140
0.1875
141
12.0
290
     0
  0
SCALE
  5
60
102
{ACAD_REACTORS
330
47
102
}
330
47
100
AcDbScale
 70
     0
300
1/4" = 1'-0"
140
0.25
141
12.0
290
     0
  0
SCALE
  5
61
102
{ACAD_REACTORS
330
47
102
}
330
47
100
AcDbScale
 70
     0
300
3/8" = 1'-0"
140
0.375
141
12.0
290
     0
  0
SCALE
  5
62
102
{ACAD_REACTORS
330
47
102
}
330
47
100
AcDbScale
 70
     0
300
1/2" = 1'-0"
140
0.5
141
12.0
290
     0
  0
SCALE
  5
63
102
{ACAD_REACTORS
330
47
102
}
330
47
100
AcDbScale
 70
     0
300
3/4" = 1'-0"
140
0.75
141
12.0
290
     0
  0
SCALE
  5
64
102
{ACAD_REACTORS
330
47
102
}
330
47
100
AcDbScale
 70
     0
300
1" = 1'-0"
140
1.0
141
12.0
290
     0
  0
SCALE
  5
65
102
{ACAD_REACTORS
330
47
102
}
330
47
100
AcDbScale
 70
     0
300
1-1/2" = 1'-0"
140
1.5
141
12.0
290
     0
  0
SCALE
  5
66
102
{ACAD_REACTORS
330
47
102
}
330
47
100
AcDbScale
 70
     0
300
3" = 1'-0"
140
3.0
141
12.0
290
     0
  0
SCALE
  5
67
102
{ACAD_REACTORS
330
47
102
}
330
47
100
AcDbScale
 70
     0
300
6" = 1'-0"
140
6.0
141
12.0
290
     0
  0
SCALE
  5
68
102
{ACAD_REACTORS
330
47
102
}
330
47
100
AcDbScale
 70
     0
300
1'-0" = 1'-0"
140
12.0
141
12.0
290
     0
  0
ENDSEC
  0
EOF
