  0
SECTION
  2
HEADER
  9
$ACADVER
  1
AC1015
  9
$ACADMAINTVER
 70
     6
  9
$DWGCODEPAGE
  3
DOS932
  9
$INSBASE
 10
0.0
 20
0.0
 30
0.0
  9
$EXTMIN
 10
0.0
 20
0.0
 30
0.0
  9
$EXTMAX
 10
420.0
 20
297.0
 30
0.0
  9
$LIMMIN
 10
0.0
 20
0.0
  9
$LIMMAX
 10
420.0
 20
297.0
  9
$ORTHOMODE
 70
     0
  9
$REGENMODE
 70
     1
  9
$FILLMODE
 70
     1
  9
$QTEXTMODE
 70
     0
  9
$MIRRTEXT
 70
     1
  9
$LTSCALE
 40
1.0
  9
$ATTMODE
 70
     1
  9
$TEXTSIZE
 40
4.2333333333
  9
$TRACEWID
 40
1.0
  9
$TEXTSTYLE
  7
Standard
  9
$CLAYER
  8
0
  9
$CELTYPE
  6
ByLayer
  9
$CECOLOR
 62
   256
  9
$CELTSCALE
 40
1.0
  9
$DISPSILH
 70
     0
  9
$DIMSCALE
 40
1.0
  9
$DIMASZ
 40
2.6975097656
  9
$DIMEXO
 40
1.0
  9
$DIMDLI
 40
3.75
  9
$DIMRND
 40
0.0
  9
$DIMDLE
 40
0.0
  9
$DIMEXE
 40
1.0
  9
$DIMTP
 40
0.0
  9
$DIMTM
 40
0.0
  9
$DIMTXT
 40
3.5277777778
  9
$DIMCEN
 40
2.5
  9
$DIMTSZ
 40
0.0
  9
$DIMTOL
 70
     0
  9
$DIMLIM
 70
     0
  9
$DIMTIH
 70
     1
  9
$DIMTOH
 70
     1
  9
$DIMSE1
 70
     0
  9
$DIMSE2
 70
     0
  9
$DIMTAD
 70
     1
  9
$DIMZIN
 70
     0
  9
$DIMBLK
  1

  9
$DIMASO
 70
     1
  9
$DIMSHO
 70
     1
  9
$DIMPOST
  1

  9
$DIMAPOST
  1

  9
$DIMALT
 70
     0
  9
$DIMALTD
 70
     3
  9
$DIMALTF
 40
0.0393700787
  9
$DIMLFAC
 40
1.0
  9
$DIMTOFL
 70
     1
  9
$DIMTVP
 40
0.0
  9
$DIMTIX
 70
     0
  9
$DIMSOXD
 70
     0
  9
$DIMSAH
 70
     0
  9
$DIMBLK1
  1

  9
$DIMBLK2
  1

  9
$DIMSTYLE
  2
ISO-25
  9
$DIMCLRD
 70
     0
  9
$DIMCLRE
 70
     0
  9
$DIMCLRT
 70
     0
  9
$DIMTFAC
 40
1.0
  9
$DIMGAP
 40
2.0
  9
$DIMJUST
 70
     0
  9
$DIMSD1
 70
     0
  9
$DIMSD2
 70
     0
  9
$DIMTOLJ
 70
     0
  9
$DIMTZIN
 70
     0
  9
$DIMALTZ
 70
     0
  9
$DIMALTTZ
 70
     0
  9
$DIMUPT
 70
     0
  9
$DIMDEC
 70
     3
  9
$DIMTDEC
 70
     3
  9
$DIMALTU
 70
     2
  9
$DIMALTTD
 70
     3
  9
$DIMTXSTY
  7
Standard
  9
$DIMAUNIT
 70
     0
  9
$DIMADEC
 70
     3
  9
$DIMALTRND
 40
0.0
  9
$DIMAZIN
 70
     0
  9
$DIMDSEP
 70
    44
  9
$DIMATFIT
 70
     3
  9
$DIMFRAC
 70
     0
  9
$DIMLDRBLK
  1

  9
$DIMLUNIT
 70
     2
  9
$DIMLWD
 70
    -2
  9
$DIMLWE
 70
    -2
  9
$DIMTMOVE
 70
     0
  9
$LUNITS
 70
     2
  9
$LUPREC
 70
     3
  9
$SKETCHINC
 40
1.0
  9
$FILLETRAD
 40
10.0
  9
$AUNITS
 70
     0
  9
$AUPREC
 70
     0
  9
$MENU
  1
.
  9
$ELEVATION
 40
0.0
  9
$PELEVATION
 40
0.0
  9
$THICKNESS
 40
0.0
  9
$LIMCHECK
 70
     0
  9
$CHAMFERA
 40
0.0
  9
$CHAMFERB
 40
0.0
  9
$CHAMFERC
 40
0.0
  9
$CHAMFERD
 40
0.0
  9
$SKPOLY
 70
     0
  9
$TDCREATE
 40
2458185.448785694
  9
$TDUCREATE
 40
2458185.073785694
  9
$TDUPDATE
 40
2458185.448788403
  9
$TDUUPDATE
 40
2458185.073788403
  9
$TDINDWG
 40
0.0000000116
  9
$TDUSRTIMER
 40
0.0000000116
  9
$USRTIMER
 70
     1
  9
$ANGBASE
 50
0.0
  9
$ANGDIR
 70
     0
  9
$PDMODE
 70
     0
  9
$PDSIZE
 40
-1.0
  9
$PLINEWID
 40
0.0
  9
$SPLFRAME
 70
     0
  9
$SPLINETYPE
 70
     6
  9
$SPLINESEGS
 70
     8
  9
$HANDSEED
  5
423
  9
$SURFTAB1
 70
     6
  9
$SURFTAB2
 70
     6
  9
$SURFTYPE
 70
     6
  9
$SURFU
 70
     6
  9
$SURFV
 70
     6
  9
$UCSBASE
  2

  9
$UCSNAME
  2

  9
$UCSORG
 10
0.0
 20
0.0
 30
0.0
  9
$UCSXDIR
 10
1.0
 20
0.0
 30
0.0
  9
$UCSYDIR
 10
0.0
 20
1.0
 30
0.0
  9
$UCSORTHOREF
  2

  9
$UCSORTHOVIEW
 70
     0
  9
$UCSORGTOP
 10
0.0
 20
0.0
 30
0.0
  9
$UCSORGBOTTOM
 10
0.0
 20
0.0
 30
0.0
  9
$UCSORGLEFT
 10
0.0
 20
0.0
 30
0.0
  9
$UCSORGRIGHT
 10
0.0
 20
0.0
 30
0.0
  9
$UCSORGFRONT
 10
0.0
 20
0.0
 30
0.0
  9
$UCSORGBACK
 10
0.0
 20
0.0
 30
0.0
  9
$PUCSBASE
  2

  9
$PUCSNAME
  2

  9
$PUCSORG
 10
0.0
 20
0.0
 30
0.0
  9
$PUCSXDIR
 10
1.0
 20
0.0
 30
0.0
  9
$PUCSYDIR
 10
0.0
 20
1.0
 30
0.0
  9
$PUCSORTHOREF
  2

  9
$PUCSORTHOVIEW
 70
     0
  9
$PUCSORGTOP
 10
0.0
 20
0.0
 30
0.0
  9
$PUCSORGBOTTOM
 10
0.0
 20
0.0
 30
0.0
  9
$PUCSORGLEFT
 10
0.0
 20
0.0
 30
0.0
  9
$PUCSORGRIGHT
 10
0.0
 20
0.0
 30
0.0
  9
$PUCSORGFRONT
 10
0.0
 20
0.0
 30
0.0
  9
$PUCSORGBACK
 10
0.0
 20
0.0
 30
0.0
  9
$USERI1
 70
     0
  9
$USERI2
 70
     0
  9
$USERI3
 70
     0
  9
$USERI4
 70
     0
  9
$USERI5
 70
     0
  9
$USERR1
 40
0.0
  9
$USERR2
 40
0.0
  9
$USERR3
 40
0.0
  9
$USERR4
 40
0.0
  9
$USERR5
 40
0.0
  9
$WORLDVIEW
 70
     1
  9
$SHADEDGE
 70
     3
  9
$SHADEDIF
 70
    70
  9
$TILEMODE
 70
     1
  9
$MAXACTVP
 70
    64
  9
$PINSBASE
 10
0.0
 20
0.0
 30
0.0
  9
$PLIMCHECK
 70
     0
  9
$PEXTMIN
 10
1.0000000000E+20
 20
1.0000000000E+20
 30
1.0000000000E+20
  9
$PEXTMAX
 10
-1.0000000000E+20
 20
-1.0000000000E+20
 30
-1.0000000000E+20
  9
$PLIMMIN
 10
0.0
 20
0.0
  9
$PLIMMAX
 10
420.0
 20
297.0
  9
$UNITMODE
 70
     0
  9
$VISRETAIN
 70
     1
  9
$PLINEGEN
 70
     0
  9
$PSLTSCALE
 70
     1
  9
$TREEDEPTH
 70
  3020
  9
$CMLSTYLE
  2
Standard
  9
$CMLJUST
 70
     0
  9
$CMLSCALE
 40
20.0
  9
$PROXYGRAPHICS
 70
     1
  9
$MEASUREMENT
 70
     1
  9
$CELWEIGHT
370
    -1
  9
$ENDCAPS
280
     0
  9
$JOINSTYLE
280
     0
  9
$LWDISPLAY
290
     1
  9
$INSUNITS
 70
     4
  9
$HYPERLINKBASE
  1

  9
$STYLESHEET
  1

  9
$XEDIT
290
     1
  9
$CEPSNTYPE
380
     0
  9
$PSTYLEMODE
290
     1
  9
$FINGERPRINTGUID
  2
{78D8A194-1A7F-40BB-8C8A-98852C4CE8EC}
  9
$VERSIONGUID
  2
{FAEB1C32-E019-11D5-929B-00C0DF256EC4}
  9
$EXTNAMES
290
     1
  9
$PSVPSCALE
 40
0.0
  9
$OLESTARTUP
290
     0
  0
ENDSEC
  0
SECTION
  2
CLASSES
  0
CLASS
  1
ACDBDICTIONARYWDFLT
  2
AcDbDictionaryWithDefault
  3
ObjectDBX Classes
 90
        0
280
     0
281
     0
  0
CLASS
  1
VISUALSTYLE
  2
AcDbVisualStyle
  3
ObjectDBX Classes
 90
     4095
280
     0
281
     0
  0
CLASS
  1
MATERIAL
  2
AcDbMaterial
  3
ObjectDBX Classes
 90
     1153
280
     0
281
     0
  0
CLASS
  1
SCALE
  2
AcDbScale
  3
ObjectDBX Classes
 90
     1153
280
     0
281
     0
  0
CLASS
  1
TABLESTYLE
  2
AcDbTableStyle
  3
ObjectDBX Classes
 90
     4095
280
     0
281
     0
  0
CLASS
  1
MLEADERSTYLE
  2
AcDbMLeaderStyle
  3
ACDB_MLEADERSTYLE_CLASS
 90
     4095
280
     0
281
     0
  0
CLASS
  1
SUN
  2
AcDbSun
  3
SCENEOE
 90
     1153
280
     0
281
     0
  0
CLASS
  1
ACDBPLACEHOLDER
  2
AcDbPlaceHolder
  3
ObjectDBX Classes
 90
        0
280
     0
281
     0
  0
CLASS
  1
LAYOUT
  2
AcDbLayout
  3
ObjectDBX Classes
 90
        0
280
     0
281
     0
  0
ENDSEC
  0
SECTION
  2
TABLES
  0
TABLE
  2
VPORT
  5
8
330
0
100
AcDbSymbolTable
 70
     1
  0
VPORT
  5
29
330
8
100
AcDbSymbolTableRecord
100
AcDbViewportTableRecord
  2
*Active
 70
     0
 10
0.0
 20
0.0
 11
1.0
 21
1.0
 12
210.0
 22
148.5
 13
0.0
 23
0.0
 14
10.0
 24
10.0
 15
10.0
 25
10.0
 16
0.0
 26
0.0
 36
1.0
 17
0.0
 27
0.0
 37
0.0
 40
297.0
 41
1.4141414141
 42
50.0
 43
0.0
 44
0.0
 50
0.0
 51
0.0
 71
     0
 72
  2000
 73
     1
 74
     3
 75
     0
 76
     0
 77
     0
 78
     0
281
     0
 65
     1
110
0.0
120
0.0
130
0.0
111
1.0
121
0.0
131
0.0
112
0.0
122
1.0
132
0.0
 79
     0
146
0.0
  0
ENDTAB
  0
TABLE
  2
LTYPE
  5
5
330
0
100
AcDbSymbolTable
 70
     6
  0
LTYPE
  5
14
330
5
100
AcDbSymbolTableRecord
100
AcDbLinetypeTableRecord
  2
ByBlock
 70
     0
  3

 72
    65
 73
     0
 40
0.0
  0
LTYPE
  5
15
330
5
100
AcDbSymbolTableRecord
100
AcDbLinetypeTableRecord
  2
ByLayer
 70
     0
  3

 72
    65
 73
     0
 40
0.0
  0
LTYPE
  5
16
330
5
100
AcDbSymbolTableRecord
100
AcDbLinetypeTableRecord
  2
Continuous
 70
     0
  3
Solid line
 72
    65
 73
     0
 40
0.0
  0
LTYPE
  5
6E
330
5
100
AcDbSymbolTableRecord
100
AcDbLinetypeTableRecord
  2
HIDDEN
 70
     0
  3
Hidden __ __ __ __ __ __ __ __ __ __ __ __ __ __
 72
    65
 73
     2
 40
1.905
 49
1.27
 74
     0
 49
-0.635
 74
     0
  0
LTYPE
  5
6F
330
5
100
AcDbSymbolTableRecord
100
AcDbLinetypeTableRecord
  2
PHANTOM
 70
     0
  3
Phantom ______  __  __  ______  __  __  ______
 72
    65
 73
     6
 40
12.7
 49
6.35
 74
     0
 49
-1.27
 74
     0
 49
1.27
 74
     0
 49
-1.27
 74
     0
 49
1.27
 74
     0
 49
-1.27
 74
     0
  0
LTYPE
  5
70
330
5
100
AcDbSymbolTableRecord
100
AcDbLinetypeTableRecord
  2
CENTER
 70
     0
  3
Center ____ _ ____ _ ____ _ ____ _ ____ _ ____
 72
    65
 73
     4
 40
10.16
 49
6.35
 74
     0
 49
-1.27
 74
     0
 49
1.27
 74
     0
 49
-1.27
 74
     0
  0
LTYPE
  5
71
330
5
100
AcDbSymbolTableRecord
100
AcDbLinetypeTableRecord
  2
CENTERX2
 70
     0
  3
Center (2x) ________  __  ________  __  _____
 72
    65
 73
     4
 40
20.32
 49
12.7
 74
     0
 49
-2.54
 74
     0
 49
2.54
 74
     0
 49
-2.54
 74
     0
  0
LTYPE
  5
72
330
5
100
AcDbSymbolTableRecord
100
AcDbLinetypeTableRecord
  2
DOT2
 70
     0
  3
Dot (.5x) ........................................
 72
    65
 73
     2
 40
0.635
 49
0.0
 74
     0
 49
-0.635
 74
     0
  0
ENDTAB
  0
TABLE
  2
LAYER
  5
2
330
0
100
AcDbSymbolTable
 70
     6
  0
LAYER
  5
10
330
2
100
AcDbSymbolTableRecord
100
AcDbLayerTableRecord
  2
0
 70
     0
 62
     7
  6
Continuous
370
    -3
390
F
  0
LAYER
  5
73
330
2
100
AcDbSymbolTableRecord
100
AcDbLayerTableRecord
  2
SLD-0
 70
     0
 62
   179
  6
Continuous
370
    -3
390
F
  0
LAYER
  5
74
330
2
100
AcDbSymbolTableRecord
100
AcDbLayerTableRecord
  2
1
 70
     0
 62
   179
  6
Continuous
370
    -3
390
F
  0
LAYER
  5
75
330
2
100
AcDbSymbolTableRecord
100
AcDbLayerTableRecord
  2
FORMAT
 70
     0
 62
     7
  6
Continuous
370
    -3
390
F
  0
LAYER
  5
76
330
2
100
AcDbSymbolTableRecord
100
AcDbLayerTableRecord
  2
注記
 70
     0
 62
   190
  6
Continuous
370
    -3
390
F
  0
LAYER
  5
77
330
2
100
AcDbSymbolTableRecord
100
AcDbLayerTableRecord
  2
寸法
 70
     0
 62
    96
  6
Continuous
370
    -3
390
F
  0
ENDTAB
  0
TABLE
  2
STYLE
  5
3
330
0
100
AcDbSymbolTable
 70
     2
  0
STYLE
  5
11
330
3
100
AcDbSymbolTableRecord
100
AcDbTextStyleTableRecord
  2
Standard
 70
     0
 40
0.0
 41
1.0
 50
0.0
 71
     0
 42
4.2333333333
  3
txt
  4
bigfont
  0
STYLE
  5
7B
330
3
100
AcDbSymbolTableRecord
100
AcDbTextStyleTableRecord
  2
SLDTEXTSTYLE0
 70
     0
 40
0.0
 41
0.7
 50
0.0
 71
     0
 42
4.2333333333
  3
TXT
  4
bigfont
  0
ENDTAB
  0
TABLE
  2
VIEW
  5
6
330
0
100
AcDbSymbolTable
 70
     0
  0
ENDTAB
  0
TABLE
  2
UCS
  5
7
330
0
100
AcDbSymbolTable
 70
     0
  0
ENDTAB
  0
TABLE
  2
APPID
  5
9
330
0
100
AcDbSymbolTable
 70
     1
  0
APPID
  5
12
330
9
100
AcDbSymbolTableRecord
100
AcDbRegAppTableRecord
  2
ACAD
 70
     0
  0
ENDTAB
  0
TABLE
  2
DIMSTYLE
  5
A
330
0
100
AcDbSymbolTable
 70
     1
100
AcDbDimStyleTable
  0
DIMSTYLE
105
27
330
A
100
AcDbSymbolTableRecord
100
AcDbDimStyleTableRecord
  2
ISO-25
 70
     0
 41
2.5
 42
0.625
 43
3.75
 44
1.25
 73
     0
 74
     0
 77
     1
 78
     8
140
2.5
141
2.5
143
0.0393700787
147
0.625
171
     3
172
     1
178
     0
271
     2
272
     2
274
     3
278
    44
283
     0
284
     8
340
11
  0
ENDTAB
  0
TABLE
  2
BLOCK_RECORD
  5
1
330
0
100
AcDbSymbolTable
 70
    12
  0
BLOCK_RECORD
  5
1F
330
1
100
AcDbSymbolTableRecord
100
AcDbBlockTableRecord
  2
*Model_Space
340
22
  0
BLOCK_RECORD
  5
1B
330
1
100
AcDbSymbolTableRecord
100
AcDbBlockTableRecord
  2
*Paper_Space
340
1E
  0
BLOCK_RECORD
  5
23
330
1
100
AcDbSymbolTableRecord
100
AcDbBlockTableRecord
  2
*Paper_Space0
340
26
  0
BLOCK_RECORD
  5
101
330
1
100
AcDbSymbolTableRecord
100
AcDbBlockTableRecord
  2
SW_CENTERMARKSYMBOL_0
340
0
102
{BLKREFS
331
13C
102
}
  0
BLOCK_RECORD
  5
13D
330
1
100
AcDbSymbolTableRecord
100
AcDbBlockTableRecord
  2
SW_CENTERMARKSYMBOL_1
340
0
102
{BLKREFS
331
160
102
}
  0
BLOCK_RECORD
  5
161
330
1
100
AcDbSymbolTableRecord
100
AcDbBlockTableRecord
  2
SW_CENTERMARKSYMBOL_2
340
0
102
{BLKREFS
331
19C
102
}
  0
BLOCK_RECORD
  5
19D
330
1
100
AcDbSymbolTableRecord
100
AcDbBlockTableRecord
  2
SW_CENTERMARKSYMBOL_3
340
0
102
{BLKREFS
331
1A8
102
}
  0
BLOCK_RECORD
  5
1A9
330
1
100
AcDbSymbolTableRecord
100
AcDbBlockTableRecord
  2
SW_CENTERMARKSYMBOL_4
340
0
102
{BLKREFS
331
1B4
102
}
  0
BLOCK_RECORD
  5
1C5
330
1
100
AcDbSymbolTableRecord
100
AcDbBlockTableRecord
  2
SW_DOWELSYMBOL_0
340
0
102
{BLKREFS
331
1CB
102
}
  0
BLOCK_RECORD
  5
297
330
1
100
AcDbSymbolTableRecord
100
AcDbBlockTableRecord
  2
SW_CENTERMARKSYMBOL_5
340
0
102
{BLKREFS
331
2BA
102
}
  0
BLOCK_RECORD
  5
2BB
330
1
100
AcDbSymbolTableRecord
100
AcDbBlockTableRecord
  2
SW_CENTERMARKSYMBOL_6
340
0
102
{BLKREFS
331
2DE
102
}
  0
BLOCK_RECORD
  5
2DF
330
1
100
AcDbSymbolTableRecord
100
AcDbBlockTableRecord
  2
SW_CENTERMARKSYMBOL_7
340
0
102
{BLKREFS
331
2EA
102
}
  0
BLOCK_RECORD
  5
2EB
330
1
100
AcDbSymbolTableRecord
100
AcDbBlockTableRecord
  2
SW_CENTERMARKSYMBOL_8
340
0
102
{BLKREFS
331
326
102
}
  0
BLOCK_RECORD
  5
327
330
1
100
AcDbSymbolTableRecord
100
AcDbBlockTableRecord
  2
SW_CENTERMARKSYMBOL_9
340
0
102
{BLKREFS
331
332
102
}
  0
ENDTAB
  0
ENDSEC
  0
SECTION
  2
BLOCKS
  0
BLOCK
  5
20
330
1F
100
AcDbEntity
  8
0
100
AcDbBlockBegin
  2
*Model_Space
 70
     0
 10
0.0
 20
0.0
 30
0.0
  3
*Model_Space
  1

  0
ENDBLK
  5
21
330
1F
100
AcDbEntity
  8
0
100
AcDbBlockEnd
  0
BLOCK
  5
1C
330
1B
100
AcDbEntity
 67
     1
  8
0
100
AcDbBlockBegin
  2
*Paper_Space
 70
     0
 10
0.0
 20
0.0
 30
0.0
  3
*Paper_Space
  1

  0
ENDBLK
  5
1D
330
1B
100
AcDbEntity
 67
     1
  8
0
100
AcDbBlockEnd
  0
BLOCK
  5
24
330
23
100
AcDbEntity
  8
0
100
AcDbBlockBegin
  2
*Paper_Space0
 70
     0
 10
0.0
 20
0.0
 30
0.0
  3
*Paper_Space0
  1

  0
ENDBLK
  5
25
330
23
100
AcDbEntity
  8
0
100
AcDbBlockEnd
  0
BLOCK
  5
102
330
101
100
AcDbEntity
  8
0
100
AcDbBlockBegin
  2
SW_CENTERMARKSYMBOL_0
 70
     0
 10
0.0
 20
0.0
 30
0.0
  3
SW_CENTERMARKSYMBOL_0
  1

  0
ARC
  5
104
330
101
100
AcDbEntity
  8
0
  6
Continuous
 62
     0
370
     0
100
AcDbCircle
 10
14.9246538622
 20
-36.0313017679
 30
0.0
 40
39.0
100
AcDbArc
 50
112.5
 51
113.9691225516
  0
ARC
  5
105
330
101
100
AcDbEntity
  8
0
  6
Continuous
 62
     0
370
     0
100
AcDbCircle
 10
14.9246538622
 20
-36.0313017679
 30
0.0
 40
39.0
100
AcDbArc
 50
111.0308774484
 51
112.5
  0
ARC
  5
106
330
101
100
AcDbEntity
  8
0
  6
Continuous
 62
     0
370
     0
100
AcDbCircle
 10
14.9246538622
 20
-36.0313017679
 30
0.0
 40
39.00000000000001
100
AcDbArc
 50
67.5
 51
68.9691225516
  0
ARC
  5
107
330
101
100
AcDbEntity
  8
0
  6
Continuous
 62
     0
370
     0
100
AcDbCircle
 10
14.9246538622
 20
-36.0313017679
 30
0.0
 40
39.0
100
AcDbArc
 50
66.0308774484
 51
67.5
  0
ARC
  5
108
330
101
100
AcDbEntity
  8
0
  6
Continuous
 62
     0
370
     0
100
AcDbCircle
 10
14.9246538622
 20
-36.0313017679
 30
0.0
 40
39.00000000000001
100
AcDbArc
 50
22.5
 51
23.9691225516
  0
ARC
  5
109
330
101
100
AcDbEntity
  8
0
  6
Continuous
 62
     0
370
     0
100
AcDbCircle
 10
14.9246538622
 20
-36.0313017679
 30
0.0
 40
39.00000000000001
100
AcDbArc
 50
21.0308774484
 51
22.5
  0
ARC
  5
10A
330
101
100
AcDbEntity
  8
0
  6
Continuous
 62
     0
370
     0
100
AcDbCircle
 10
14.9246538622
 20
-36.0313017679
 30
0.0
 40
39.00000000000001
100
AcDbArc
 50
337.5
 51
338.9691225516
  0
ARC
  5
10B
330
101
100
AcDbEntity
  8
0
  6
Continuous
 62
     0
370
     0
100
AcDbCircle
 10
14.9246538622
 20
-36.0313017679
 30
0.0
 40
39.00000000000001
100
AcDbArc
 50
336.0308774484
 51
337.5
  0
ARC
  5
10C
330
101
100
AcDbEntity
  8
0
  6
Continuous
 62
     0
370
     0
100
AcDbCircle
 10
14.9246538622
 20
-36.0313017679
 30
0.0
 40
39.00000000000001
100
AcDbArc
 50
292.5
 51
293.9691225516
  0
ARC
  5
10D
330
101
100
AcDbEntity
  8
0
  6
Continuous
 62
     0
370
     0
100
AcDbCircle
 10
14.9246538622
 20
-36.0313017679
 30
0.0
 40
39.00000000000001
100
AcDbArc
 50
291.0308774484
 51
292.5
  0
ARC
  5
10E
330
101
100
AcDbEntity
  8
0
  6
Continuous
 62
     0
370
     0
100
AcDbCircle
 10
14.9246538622
 20
-36.0313017679
 30
0.0
 40
39.00000000000001
100
AcDbArc
 50
247.5
 51
248.9691225516
  0
ARC
  5
10F
330
101
100
AcDbEntity
  8
0
  6
Continuous
 62
     0
370
     0
100
AcDbCircle
 10
14.9246538622
 20
-36.0313017679
 30
0.0
 40
39.00000000000001
100
AcDbArc
 50
246.0308774484
 51
247.5
  0
ARC
  5
110
330
101
100
AcDbEntity
  8
0
  6
Continuous
 62
     0
370
     0
100
AcDbCircle
 10
14.9246538622
 20
-36.0313017679
 30
0.0
 40
39.00000000000001
100
AcDbArc
 50
202.5
 51
203.9691225516
  0
ARC
  5
111
330
101
100
AcDbEntity
  8
0
  6
Continuous
 62
     0
370
     0
100
AcDbCircle
 10
14.9246538622
 20
-36.0313017679
 30
0.0
 40
39.00000000000001
100
AcDbArc
 50
201.0308774484
 51
202.5
  0
ARC
  5
112
330
101
100
AcDbEntity
  8
0
  6
Continuous
 62
     0
370
     0
100
AcDbCircle
 10
14.9246538622
 20
-36.0313017679
 30
0.0
 40
39.0
100
AcDbArc
 50
157.5
 51
158.9691225516
  0
ARC
  5
113
330
101
100
AcDbEntity
  8
0
  6
Continuous
 62
     0
370
     0
100
AcDbCircle
 10
14.9246538622
 20
-36.0313017679
 30
0.0
 40
39.00000000000001
100
AcDbArc
 50
156.0308774484
 51
157.5
  0
ARC
  5
114
330
101
100
AcDbEntity
  8
0
  6
CENTERX2
 62
     0
370
     0
100
AcDbCircle
 10
14.9246538622
 20
-36.0313017679
 30
0.0
 40
39.00000000000001
100
AcDbArc
 50
25.4382451032
 51
64.5617548968
  0
ARC
  5
115
330
101
100
AcDbEntity
  8
0
  6
CENTERX2
 62
     0
370
     0
100
AcDbCircle
 10
14.9246538622
 20
-36.0313017679
 30
0.0
 40
39.00000000000002
100
AcDbArc
 50
70.4382451032
 51
109.5617548968
  0
ARC
  5
116
330
101
100
AcDbEntity
  8
0
  6
CENTERX2
 62
     0
370
     0
100
AcDbCircle
 10
14.9246538622
 20
-36.0313017679
 30
0.0
 40
39.00000000000001
100
AcDbArc
 50
160.4382451032
 51
199.5617548968
  0
ARC
  5
117
330
101
100
AcDbEntity
  8
0
  6
CENTERX2
 62
     0
370
     0
100
AcDbCircle
 10
14.9246538622
 20
-36.0313017679
 30
0.0
 40
39.00000000000001
100
AcDbArc
 50
205.4382451032
 51
244.5617548968
  0
ARC
  5
118
330
101
100
AcDbEntity
  8
0
  6
CENTERX2
 62
     0
370
     0
100
AcDbCircle
 10
14.9246538622
 20
-36.0313017679
 30
0.0
 40
39.00000000000001
100
AcDbArc
 50
250.4382451032
 51
289.5617548968
  0
ARC
  5
119
330
101
100
AcDbEntity
  8
0
  6
CENTERX2
 62
     0
370
     0
100
AcDbCircle
 10
14.9246538622
 20
-36.0313017679
 30
0.0
 40
39.00000000000001
100
AcDbArc
 50
295.4382451032
 51
334.5617548968
  0
ARC
  5
11A
330
101
100
AcDbEntity
  8
0
  6
CENTERX2
 62
     0
370
     0
100
AcDbCircle
 10
14.9246538622
 20
-36.0313017679
 30
0.0
 40
39.00000000000001
100
AcDbArc
 50
340.4382451032
 51
19.5617548968
  0
ARC
  5
11B
330
101
100
AcDbEntity
  8
0
  6
CENTERX2
 62
     0
370
     0
100
AcDbCircle
 10
14.9246538622
 20
-36.0313017679
 30
0.0
 40
39.00000000000001
100
AcDbArc
 50
115.4382451032
 51
154.5617548968
  0
LINE
  5
11C
330
101
100
AcDbEntity
  8
0
  6
Continuous
 62
     0
370
     0
100
AcDbLine
 10
0.0
 20
0.0
 30
0.0
 11
-0.3826834324
 21
0.9238795325
 31
0.0
  0
LINE
  5
11D
330
101
100
AcDbEntity
  8
0
  6
Continuous
 62
     0
370
     0
100
AcDbLine
 10
0.0
 20
0.0
 30
0.0
 11
0.3826834324
 21
-0.9238795325
 31
0.0
  0
LINE
  5
11E
330
101
100
AcDbEntity
  8
0
  6
Continuous
 62
     0
370
     0
100
AcDbLine
 10
-0.7653668647
 20
1.847759065
 30
0.0
 11
-1.1671844687
 21
2.8178325742
 31
0.0
  0
LINE
  5
11F
330
101
100
AcDbEntity
  8
0
  6
Continuous
 62
     0
370
     0
100
AcDbLine
 10
0.7653668647
 20
-1.847759065
 30
0.0
 11
1.1671844687
 21
-2.8178325742
 31
0.0
  0
LINE
  5
120
330
101
100
AcDbEntity
  8
0
  6
Continuous
 62
     0
370
     0
100
AcDbLine
 10
29.8493077245
 20
0.0
 30
0.0
 11
30.2319911568
 21
0.9238795325
 31
0.0
  0
LINE
  5
121
330
101
100
AcDbEntity
  8
0
  6
Continuous
 62
     0
370
     0
100
AcDbLine
 10
29.8493077245
 20
0.0
 30
0.0
 11
29.4666242921
 21
-0.9238795325
 31
0.0
  0
LINE
  5
122
330
101
100
AcDbEntity
  8
0
  6
Continuous
 62
     0
370
     0
100
AcDbLine
 10
30.6146745892
 20
1.847759065
 30
0.0
 11
31.0164921932
 21
2.8178325742
 31
0.0
  0
LINE
  5
123
330
101
100
AcDbEntity
  8
0
  6
Continuous
 62
     0
370
     0
100
AcDbLine
 10
29.0839408597
 20
-1.847759065
 30
0.0
 11
28.6821232558
 21
-2.8178325742
 31
0.0
  0
LINE
  5
124
330
101
100
AcDbEntity
  8
0
  6
Continuous
 62
     0
370
     0
100
AcDbLine
 10
50.9559556302
 20
-21.1066479057
 30
0.0
 11
51.8798351627
 21
-20.7239644733
 31
0.0
  0
LINE
  5
125
330
101
100
AcDbEntity
  8
0
  6
Continuous
 62
     0
370
     0
100
AcDbLine
 10
50.9559556302
 20
-21.1066479057
 30
0.0
 11
50.0320760977
 21
-21.4893313381
 31
0.0
  0
LINE
  5
126
330
101
100
AcDbEntity
  8
0
  6
Continuous
 62
     0
370
     0
100
AcDbLine
 10
52.8037146952
 20
-20.341281041
 30
0.0
 11
53.7737882043
 21
-19.939463437
 31
0.0
  0
LINE
  5
127
330
101
100
AcDbEntity
  8
0
  6
Continuous
 62
     0
370
     0
100
AcDbLine
 10
49.1081965652
 20
-21.8720147704
 30
0.0
 11
48.138123056
 21
-22.2738323744
 31
0.0
  0
LINE
  5
128
330
101
100
AcDbEntity
  8
0
  6
Continuous
 62
     0
370
     0
100
AcDbLine
 10
50.9559556302
 20
-50.9559556302
 30
0.0
 11
51.8798351627
 21
-51.3386390625
 31
0.0
  0
LINE
  5
129
330
101
100
AcDbEntity
  8
0
  6
Continuous
 62
     0
370
     0
100
AcDbLine
 10
50.9559556302
 20
-50.9559556302
 30
0.0
 11
50.0320760977
 21
-50.5732721978
 31
0.0
  0
LINE
  5
12A
330
101
100
AcDbEntity
  8
0
  6
Continuous
 62
     0
370
     0
100
AcDbLine
 10
52.8037146952
 20
-51.7213224949
 30
0.0
 11
53.7737882043
 21
-52.1231400989
 31
0.0
  0
LINE
  5
12B
330
101
100
AcDbEntity
  8
0
  6
Continuous
 62
     0
370
     0
100
AcDbLine
 10
49.1081965652
 20
-50.1905887654
 30
0.0
 11
48.138123056
 21
-49.7887711615
 31
0.0
  0
LINE
  5
12C
330
101
100
AcDbEntity
  8
0
  6
Continuous
 62
     0
370
     0
100
AcDbLine
 10
29.8493077245
 20
-72.0626035359
 30
0.0
 11
30.2319911568
 21
-72.9864830684
 31
0.0
  0
LINE
  5
12D
330
101
100
AcDbEntity
  8
0
  6
Continuous
 62
     0
370
     0
100
AcDbLine
 10
29.8493077245
 20
-72.0626035359
 30
0.0
 11
29.4666242921
 21
-71.1387240034
 31
0.0
  0
LINE
  5
12E
330
101
100
AcDbEntity
  8
0
  6
Continuous
 62
     0
370
     0
100
AcDbLine
 10
30.6146745892
 20
-73.9103626009
 30
0.0
 11
31.0164921932
 21
-74.88043611
 31
0.0
  0
LINE
  5
12F
330
101
100
AcDbEntity
  8
0
  6
Continuous
 62
     0
370
     0
100
AcDbLine
 10
29.0839408597
 20
-70.2148444709
 30
0.0
 11
28.6821232558
 21
-69.2447709617
 31
0.0
  0
LINE
  5
130
330
101
100
AcDbEntity
  8
0
  6
Continuous
 62
     0
370
     0
100
AcDbLine
 10
0.0
 20
-72.0626035359
 30
0.0
 11
-0.3826834324
 21
-72.9864830684
 31
0.0
  0
LINE
  5
131
330
101
100
AcDbEntity
  8
0
  6
Continuous
 62
     0
370
     0
100
AcDbLine
 10
0.0
 20
-72.0626035359
 30
0.0
 11
0.3826834324
 21
-71.1387240034
 31
0.0
  0
LINE
  5
132
330
101
100
AcDbEntity
  8
0
  6
Continuous
 62
     0
370
     0
100
AcDbLine
 10
-0.7653668647
 20
-73.9103626009
 30
0.0
 11
-1.1671844687
 21
-74.88043611
 31
0.0
  0
LINE
  5
133
330
101
100
AcDbEntity
  8
0
  6
Continuous
 62
     0
370
     0
100
AcDbLine
 10
0.7653668647
 20
-70.2148444709
 30
0.0
 11
1.1671844687
 21
-69.2447709617
 31
0.0
  0
LINE
  5
134
330
101
100
AcDbEntity
  8
0
  6
Continuous
 62
     0
370
     0
100
AcDbLine
 10
-21.1066479057
 20
-50.9559556302
 30
0.0
 11
-22.0305274382
 21
-51.3386390625
 31
0.0
  0
LINE
  5
135
330
101
100
AcDbEntity
  8
0
  6
Continuous
 62
     0
370
     0
100
AcDbLine
 10
-21.1066479057
 20
-50.9559556302
 30
0.0
 11
-20.1827683732
 21
-50.5732721978
 31
0.0
  0
LINE
  5
136
330
101
100
AcDbEntity
  8
0
  6
Continuous
 62
     0
370
     0
100
AcDbLine
 10
-22.9544069707
 20
-51.7213224949
 30
0.0
 11
-23.9244804799
 21
-52.1231400989
 31
0.0
  0
LINE
  5
137
330
101
100
AcDbEntity
  8
0
  6
Continuous
 62
     0
370
     0
100
AcDbLine
 10
-19.2588888407
 20
-50.1905887654
 30
0.0
 11
-18.2888153315
 21
-49.7887711615
 31
0.0
  0
LINE
  5
138
330
101
100
AcDbEntity
  8
0
  6
Continuous
 62
     0
370
     0
100
AcDbLine
 10
-21.1066479057
 20
-21.1066479057
 30
0.0
 11
-22.0305274382
 21
-20.7239644733
 31
0.0
  0
LINE
  5
139
330
101
100
AcDbEntity
  8
0
  6
Continuous
 62
     0
370
     0
100
AcDbLine
 10
-21.1066479057
 20
-21.1066479057
 30
0.0
 11
-20.1827683732
 21
-21.4893313381
 31
0.0
  0
LINE
  5
13A
330
101
100
AcDbEntity
  8
0
  6
Continuous
 62
     0
370
     0
100
AcDbLine
 10
-22.9544069707
 20
-20.341281041
 30
0.0
 11
-23.9244804799
 21
-19.939463437
 31
0.0
  0
LINE
  5
13B
330
101
100
AcDbEntity
  8
0
  6
Continuous
 62
     0
370
     0
100
AcDbLine
 10
-19.2588888407
 20
-21.8720147704
 30
0.0
 11
-18.2888153315
 21
-22.2738323744
 31
0.0
  0
ENDBLK
  5
103
330
101
100
AcDbEntity
  8
0
100
AcDbBlockEnd
  0
BLOCK
  5
13E
330
13D
100
AcDbEntity
  8
0
100
AcDbBlockBegin
  2
SW_CENTERMARKSYMBOL_1
 70
     0
 10
0.0
 20
0.0
 30
0.0
  3
SW_CENTERMARKSYMBOL_1
  1

  0
ARC
  5
140
330
13D
100
AcDbEntity
  8
0
  6
Continuous
 62
     0
370
     0
100
AcDbCircle
 10
29.8757332816
 20
-25.0687167778
 30
0.0
 40
38.99999999999999
100
AcDbArc
 50
140.0
 51
141.4691225516
  0
ARC
  5
141
330
13D
100
AcDbEntity
  8
0
  6
Continuous
 62
     0
370
     0
100
AcDbCircle
 10
29.8757332816
 20
-25.0687167778
 30
0.0
 40
39.0
100
AcDbArc
 50
138.5308774484
 51
140.0
  0
ARC
  5
142
330
13D
100
AcDbEntity
  8
0
  6
Continuous
 62
     0
370
     0
100
AcDbCircle
 10
29.8757332816
 20
-25.0687167778
 30
0.0
 40
39.00000000000001
100
AcDbArc
 50
142.9382451032
 51
144.1135431445
  0
ARC
  5
143
330
13D
100
AcDbEntity
  8
0
  6
Continuous
 62
     0
370
     0
100
AcDbCircle
 10
29.8757332816
 20
-25.0687167778
 30
0.0
 40
39.0
100
AcDbArc
 50
135.8864568555
 51
137.0617548968
  0
ARC
  5
144
330
13D
100
AcDbEntity
  8
0
  6
Continuous
 62
     0
370
     0
100
AcDbCircle
 10
29.8757332816
 20
-25.0687167778
 30
0.0
 40
39.00000000000001
100
AcDbArc
 50
50.0
 51
51.4691225516
  0
ARC
  5
145
330
13D
100
AcDbEntity
  8
0
  6
Continuous
 62
     0
370
     0
100
AcDbCircle
 10
29.8757332816
 20
-25.0687167778
 30
0.0
 40
38.99999999999999
100
AcDbArc
 50
48.5308774484
 51
50.0
  0
ARC
  5
146
330
13D
100
AcDbEntity
  8
0
  6
Continuous
 62
     0
370
     0
100
AcDbCircle
 10
29.8757332816
 20
-25.0687167778
 30
0.0
 40
38.99999999999999
100
AcDbArc
 50
52.9382451032
 51
54.1135431445
  0
ARC
  5
147
330
13D
100
AcDbEntity
  8
0
  6
Continuous
 62
     0
370
     0
100
AcDbCircle
 10
29.8757332816
 20
-25.0687167778
 30
0.0
 40
39.00000000000001
100
AcDbArc
 50
45.8864568555
 51
47.0617548968
  0
ARC
  5
148
330
13D
100
AcDbEntity
  8
0
  6
Continuous
 62
     0
370
     0
100
AcDbCircle
 10
29.8757332816
 20
-25.0687167778
 30
0.0
 40
38.99999999999999
100
AcDbArc
 50
320.0
 51
321.4691225516
  0
ARC
  5
149
330
13D
100
AcDbEntity
  8
0
  6
Continuous
 62
     0
370
     0
100
AcDbCircle
 10
29.8757332816
 20
-25.0687167778
 30
0.0
 40
39.0
100
AcDbArc
 50
318.5308774484
 51
320.0
  0
ARC
  5
14A
330
13D
100
AcDbEntity
  8
0
  6
Continuous
 62
     0
370
     0
100
AcDbCircle
 10
29.8757332816
 20
-25.0687167778
 30
0.0
 40
38.99999999999999
100
AcDbArc
 50
322.9382451032
 51
324.1135431445
  0
ARC
  5
14B
330
13D
100
AcDbEntity
  8
0
  6
Continuous
 62
     0
370
     0
100
AcDbCircle
 10
29.8757332816
 20
-25.0687167778
 30
0.0
 40
39.0
100
AcDbArc
 50
315.8864568555
 51
317.0617548968
  0
ARC
  5
14C
330
13D
100
AcDbEntity
  8
0
  6
Continuous
 62
     0
370
     0
100
AcDbCircle
 10
29.8757332816
 20
-25.0687167778
 30
0.0
 40
39.0
100
AcDbArc
 50
230.0
 51
231.4691225516
  0
ARC
  5
14D
330
13D
100
AcDbEntity
  8
0
  6
Continuous
 62
     0
370
     0
100
AcDbCircle
 10
29.8757332816
 20
-25.0687167778
 30
0.0
 40
39.0
100
AcDbArc
 50
228.5308774484
 51
230.0
  0
ARC
  5
14E
330
13D
100
AcDbEntity
  8
0
  6
Continuous
 62
     0
370
     0
100
AcDbCircle
 10
29.8757332816
 20
-25.0687167778
 30
0.0
 40
39.0
100
AcDbArc
 50
232.9382451032
 51
234.1135431445
  0
ARC
  5
14F
330
13D
100
AcDbEntity
  8
0
  6
Continuous
 62
     0
370
     0
100
AcDbCircle
 10
29.8757332816
 20
-25.0687167778
 30
0.0
 40
39.00000000000001
100
AcDbArc
 50
225.8864568555
 51
227.0617548968
  0
LINE
  5
150
330
13D
100
AcDbEntity
  8
0
  6
Continuous
 62
     0
370
     0
100
AcDbLine
 10
0.0
 20
0.0
 30
0.0
 11
-0.7660444431
 21
0.6427876097
 31
0.0
  0
LINE
  5
151
330
13D
100
AcDbEntity
  8
0
  6
Continuous
 62
     0
370
     0
100
AcDbLine
 10
0.0
 20
0.0
 30
0.0
 11
0.7660444431
 21
-0.6427876097
 31
0.0
  0
LINE
  5
152
330
13D
100
AcDbEntity
  8
0
  6
Continuous
 62
     0
370
     0
100
AcDbLine
 10
-1.5320888862
 20
1.2855752194
 30
0.0
 11
-2.1449244407
 21
1.7998053071
 31
0.0
  0
LINE
  5
153
330
13D
100
AcDbEntity
  8
0
  6
Continuous
 62
     0
370
     0
100
AcDbLine
 10
1.5320888862
 20
-1.2855752194
 30
0.0
 11
2.1449244407
 21
-1.7998053071
 31
0.0
  0
LINE
  5
154
330
13D
100
AcDbEntity
  8
0
  6
Continuous
 62
     0
370
     0
100
AcDbLine
 10
54.9444500594
 20
4.8070165039
 30
0.0
 11
55.5872376691
 21
5.573060947
 31
0.0
  0
LINE
  5
155
330
13D
100
AcDbEntity
  8
0
  6
Continuous
 62
     0
370
     0
100
AcDbLine
 10
54.9444500594
 20
4.8070165039
 30
0.0
 11
54.3016624497
 21
4.0409720607
 31
0.0
  0
LINE
  5
156
330
13D
100
AcDbEntity
  8
0
  6
Continuous
 62
     0
370
     0
100
AcDbLine
 10
56.2300252788
 20
6.3391053901
 30
0.0
 11
56.7442553665
 21
6.9519409446
 31
0.0
  0
LINE
  5
157
330
13D
100
AcDbEntity
  8
0
  6
Continuous
 62
     0
370
     0
100
AcDbLine
 10
53.65887484
 20
3.2749276176
 30
0.0
 11
53.1446447523
 21
2.6620920631
 31
0.0
  0
LINE
  5
158
330
13D
100
AcDbEntity
  8
0
  6
Continuous
 62
     0
370
     0
100
AcDbLine
 10
59.7514665633
 20
-50.1374335556
 30
0.0
 11
60.5175110064
 21
-50.7802211652
 31
0.0
  0
LINE
  5
159
330
13D
100
AcDbEntity
  8
0
  6
Continuous
 62
     0
370
     0
100
AcDbLine
 10
59.7514665633
 20
-50.1374335556
 30
0.0
 11
58.9854221202
 21
-49.4946459459
 31
0.0
  0
LINE
  5
15A
330
13D
100
AcDbEntity
  8
0
  6
Continuous
 62
     0
370
     0
100
AcDbLine
 10
61.2835554495
 20
-51.4230087749
 30
0.0
 11
61.896391004
 21
-51.9372388627
 31
0.0
  0
LINE
  5
15B
330
13D
100
AcDbEntity
  8
0
  6
Continuous
 62
     0
370
     0
100
AcDbLine
 10
58.219377677
 20
-48.8518583362
 30
0.0
 11
57.6065421225
 21
-48.3376282484
 31
0.0
  0
LINE
  5
15C
330
13D
100
AcDbEntity
  8
0
  6
Continuous
 62
     0
370
     0
100
AcDbLine
 10
4.8070165039
 20
-54.9444500594
 30
0.0
 11
4.1642288942
 21
-55.7104945025
 31
0.0
  0
LINE
  5
15D
330
13D
100
AcDbEntity
  8
0
  6
Continuous
 62
     0
370
     0
100
AcDbLine
 10
4.8070165039
 20
-54.9444500594
 30
0.0
 11
5.4498041136
 21
-54.1784056163
 31
0.0
  0
LINE
  5
15E
330
13D
100
AcDbEntity
  8
0
  6
Continuous
 62
     0
370
     0
100
AcDbLine
 10
3.5214412845
 20
-56.4765389457
 30
0.0
 11
3.0072111967
 21
-57.0893745001
 31
0.0
  0
LINE
  5
15F
330
13D
100
AcDbEntity
  8
0
  6
Continuous
 62
     0
370
     0
100
AcDbLine
 10
6.0925917232
 20
-53.4123611732
 30
0.0
 11
6.606821811
 21
-52.7995256187
 31
0.0
  0
ENDBLK
  5
13F
330
13D
100
AcDbEntity
  8
0
100
AcDbBlockEnd
  0
BLOCK
  5
162
330
161
100
AcDbEntity
  8
0
100
AcDbBlockBegin
  2
SW_CENTERMARKSYMBOL_2
 70
     0
 10
0.0
 20
0.0
 30
0.0
  3
SW_CENTERMARKSYMBOL_2
  1

  0
ARC
  5
164
330
161
100
AcDbEntity
  8
0
  6
Continuous
 62
     0
370
     0
100
AcDbCircle
 10
0.0
 20
-22.5
 30
0.0
 40
22.50000000000001
100
AcDbArc
 50
90.0
 51
92.5464790895
  0
ARC
  5
165
330
161
100
AcDbEntity
  8
0
  6
Continuous
 62
     0
370
     0
100
AcDbCircle
 10
0.0
 20
-22.5
 30
0.0
 40
22.50000000000001
100
AcDbArc
 50
87.4535209105
 51
90.0
  0
ARC
  5
166
330
161
100
AcDbEntity
  8
0
  6
Continuous
 62
     0
370
     0
100
AcDbCircle
 10
0.0
 20
-22.5
 30
0.0
 40
22.50000000000001
100
AcDbArc
 50
135.0
 51
137.5464790895
  0
ARC
  5
167
330
161
100
AcDbEntity
  8
0
  6
Continuous
 62
     0
370
     0
100
AcDbCircle
 10
0.0
 20
-22.5
 30
0.0
 40
22.50000000000001
100
AcDbArc
 50
132.4535209105
 51
135.0
  0
ARC
  5
168
330
161
100
AcDbEntity
  8
0
  6
Continuous
 62
     0
370
     0
100
AcDbCircle
 10
0.0
 20
-22.5
 30
0.0
 40
22.5
100
AcDbArc
 50
180.0
 51
182.5464790895
  0
ARC
  5
169
330
161
100
AcDbEntity
  8
0
  6
Continuous
 62
     0
370
     0
100
AcDbCircle
 10
0.0
 20
-22.5
 30
0.0
 40
22.5
100
AcDbArc
 50
177.4535209105
 51
180.0
  0
ARC
  5
16A
330
161
100
AcDbEntity
  8
0
  6
Continuous
 62
     0
370
     0
100
AcDbCircle
 10
0.0
 20
-22.5
 30
0.0
 40
22.5
100
AcDbArc
 50
225.0
 51
227.5464790895
  0
ARC
  5
16B
330
161
100
AcDbEntity
  8
0
  6
Continuous
 62
     0
370
     0
100
AcDbCircle
 10
0.0
 20
-22.5
 30
0.0
 40
22.5
100
AcDbArc
 50
222.4535209105
 51
225.0
  0
ARC
  5
16C
330
161
100
AcDbEntity
  8
0
  6
Continuous
 62
     0
370
     0
100
AcDbCircle
 10
0.0
 20
-22.5
 30
0.0
 40
22.50000000000001
100
AcDbArc
 50
270.0
 51
272.5464790895
  0
ARC
  5
16D
330
161
100
AcDbEntity
  8
0
  6
Continuous
 62
     0
370
     0
100
AcDbCircle
 10
0.0
 20
-22.5
 30
0.0
 40
22.5
100
AcDbArc
 50
267.4535209105
 51
270.0
  0
ARC
  5
16E
330
161
100
AcDbEntity
  8
0
  6
Continuous
 62
     0
370
     0
100
AcDbCircle
 10
0.0
 20
-22.5
 30
0.0
 40
22.50000000000001
100
AcDbArc
 50
315.0
 51
317.5464790895
  0
ARC
  5
16F
330
161
100
AcDbEntity
  8
0
  6
Continuous
 62
     0
370
     0
100
AcDbCircle
 10
0.0
 20
-22.5
 30
0.0
 40
22.50000000000001
100
AcDbArc
 50
312.4535209105
 51
315.0
  0
ARC
  5
170
330
161
100
AcDbEntity
  8
0
  6
Continuous
 62
     0
370
     0
100
AcDbCircle
 10
0.0
 20
-22.5
 30
0.0
 40
22.50000000000001
100
AcDbArc
 50
0.0
 51
2.5464790895
  0
ARC
  5
171
330
161
100
AcDbEntity
  8
0
  6
Continuous
 62
     0
370
     0
100
AcDbCircle
 10
0.0
 20
-22.5
 30
0.0
 40
22.50000000000001
100
AcDbArc
 50
357.4535209105
 51
0.0
  0
ARC
  5
172
330
161
100
AcDbEntity
  8
0
  6
Continuous
 62
     0
370
     0
100
AcDbCircle
 10
0.0
 20
-22.5
 30
0.0
 40
22.50000000000001
100
AcDbArc
 50
45.0
 51
47.5464790895
  0
ARC
  5
173
330
161
100
AcDbEntity
  8
0
  6
Continuous
 62
     0
370
     0
100
AcDbCircle
 10
0.0
 20
-22.5
 30
0.0
 40
22.50000000000001
100
AcDbArc
 50
42.4535209105
 51
45.0
  0
ARC
  5
174
330
161
100
AcDbEntity
  8
0
  6
CENTERX2
 62
     0
370
     0
100
AcDbCircle
 10
0.0
 20
-22.5
 30
0.0
 40
22.5
100
AcDbArc
 50
5.0929581789
 51
39.9070418211
  0
ARC
  5
175
330
161
100
AcDbEntity
  8
0
  6
CENTERX2
 62
     0
370
     0
100
AcDbCircle
 10
0.0
 20
-22.5
 30
0.0
 40
22.50000000000001
100
AcDbArc
 50
50.0929581789
 51
84.9070418211
  0
ARC
  5
176
330
161
100
AcDbEntity
  8
0
  6
CENTERX2
 62
     0
370
     0
100
AcDbCircle
 10
0.0
 20
-22.5
 30
0.0
 40
22.50000000000001
100
AcDbArc
 50
95.0929581789
 51
129.9070418211
  0
ARC
  5
177
330
161
100
AcDbEntity
  8
0
  6
CENTERX2
 62
     0
370
     0
100
AcDbCircle
 10
0.0
 20
-22.5
 30
0.0
 40
22.5
100
AcDbArc
 50
140.0929581789
 51
174.9070418211
  0
ARC
  5
178
330
161
100
AcDbEntity
  8
0
  6
CENTERX2
 62
     0
370
     0
100
AcDbCircle
 10
0.0
 20
-22.5
 30
0.0
 40
22.50000000000001
100
AcDbArc
 50
185.0929581789
 51
219.9070418211
  0
ARC
  5
179
330
161
100
AcDbEntity
  8
0
  6
CENTERX2
 62
     0
370
     0
100
AcDbCircle
 10
0.0
 20
-22.5
 30
0.0
 40
22.5
100
AcDbArc
 50
230.0929581789
 51
264.9070418211
  0
ARC
  5
17A
330
161
100
AcDbEntity
  8
0
  6
CENTERX2
 62
     0
370
     0
100
AcDbCircle
 10
0.0
 20
-22.5
 30
0.0
 40
22.49999999999999
100
AcDbArc
 50
275.0929581789
 51
309.9070418211
  0
ARC
  5
17B
330
161
100
AcDbEntity
  8
0
  6
CENTERX2
 62
     0
370
     0
100
AcDbCircle
 10
0.0
 20
-22.5
 30
0.0
 40
22.5
100
AcDbArc
 50
320.0929581789
 51
354.9070418211
  0
LINE
  5
17C
330
161
100
AcDbEntity
  8
0
  6
Continuous
 62
     0
370
     0
100
AcDbLine
 10
0.0
 20
0.0
 30
0.0
 11
0.0
 21
1.0
 31
0.0
  0
LINE
  5
17D
330
161
100
AcDbEntity
  8
0
  6
Continuous
 62
     0
370
     0
100
AcDbLine
 10
0.0
 20
0.0
 30
0.0
 11
0.0
 21
-1.0
 31
0.0
  0
LINE
  5
17E
330
161
100
AcDbEntity
  8
0
  6
Continuous
 62
     0
370
     0
100
AcDbLine
 10
0.0
 20
2.0
 30
0.0
 11
0.0
 21
2.25
 31
0.0
  0
LINE
  5
17F
330
161
100
AcDbEntity
  8
0
  6
Continuous
 62
     0
370
     0
100
AcDbLine
 10
0.0
 20
-2.0
 30
0.0
 11
0.0
 21
-2.25
 31
0.0
  0
LINE
  5
180
330
161
100
AcDbEntity
  8
0
  6
Continuous
 62
     0
370
     0
100
AcDbLine
 10
-15.9099025767
 20
-6.5900974233
 30
0.0
 11
-16.6170093579
 21
-5.8829906421
 31
0.0
  0
LINE
  5
181
330
161
100
AcDbEntity
  8
0
  6
Continuous
 62
     0
370
     0
100
AcDbLine
 10
-15.9099025767
 20
-6.5900974233
 30
0.0
 11
-15.2027957955
 21
-7.2972042045
 31
0.0
  0
LINE
  5
182
330
161
100
AcDbEntity
  8
0
  6
Continuous
 62
     0
370
     0
100
AcDbLine
 10
-17.3241161391
 20
-5.1758838609
 30
0.0
 11
-17.5008928344
 21
-4.9991071656
 31
0.0
  0
LINE
  5
183
330
161
100
AcDbEntity
  8
0
  6
Continuous
 62
     0
370
     0
100
AcDbLine
 10
-14.4956890143
 20
-8.0043109857
 30
0.0
 11
-14.318912319
 21
-8.181087681
 31
0.0
  0
LINE
  5
184
330
161
100
AcDbEntity
  8
0
  6
Continuous
 62
     0
370
     0
100
AcDbLine
 10
-22.5
 20
-22.5
 30
0.0
 11
-23.5
 21
-22.5
 31
0.0
  0
LINE
  5
185
330
161
100
AcDbEntity
  8
0
  6
Continuous
 62
     0
370
     0
100
AcDbLine
 10
-22.5
 20
-22.5
 30
0.0
 11
-21.5
 21
-22.5
 31
0.0
  0
LINE
  5
186
330
161
100
AcDbEntity
  8
0
  6
Continuous
 62
     0
370
     0
100
AcDbLine
 10
-24.5
 20
-22.5
 30
0.0
 11
-24.75
 21
-22.5
 31
0.0
  0
LINE
  5
187
330
161
100
AcDbEntity
  8
0
  6
Continuous
 62
     0
370
     0
100
AcDbLine
 10
-20.5
 20
-22.5
 30
0.0
 11
-20.25
 21
-22.5
 31
0.0
  0
LINE
  5
188
330
161
100
AcDbEntity
  8
0
  6
Continuous
 62
     0
370
     0
100
AcDbLine
 10
-15.9099025767
 20
-38.4099025767
 30
0.0
 11
-16.6170093579
 21
-39.1170093579
 31
0.0
  0
LINE
  5
189
330
161
100
AcDbEntity
  8
0
  6
Continuous
 62
     0
370
     0
100
AcDbLine
 10
-15.9099025767
 20
-38.4099025767
 30
0.0
 11
-15.2027957955
 21
-37.7027957955
 31
0.0
  0
LINE
  5
18A
330
161
100
AcDbEntity
  8
0
  6
Continuous
 62
     0
370
     0
100
AcDbLine
 10
-17.3241161391
 20
-39.8241161391
 30
0.0
 11
-17.5008928344
 21
-40.0008928344
 31
0.0
  0
LINE
  5
18B
330
161
100
AcDbEntity
  8
0
  6
Continuous
 62
     0
370
     0
100
AcDbLine
 10
-14.4956890143
 20
-36.9956890143
 30
0.0
 11
-14.318912319
 21
-36.818912319
 31
0.0
  0
LINE
  5
18C
330
161
100
AcDbEntity
  8
0
  6
Continuous
 62
     0
370
     0
100
AcDbLine
 10
0.0
 20
-45.0
 30
0.0
 11
0.0
 21
-46.0
 31
0.0
  0
LINE
  5
18D
330
161
100
AcDbEntity
  8
0
  6
Continuous
 62
     0
370
     0
100
AcDbLine
 10
0.0
 20
-45.0
 30
0.0
 11
0.0
 21
-44.0
 31
0.0
  0
LINE
  5
18E
330
161
100
AcDbEntity
  8
0
  6
Continuous
 62
     0
370
     0
100
AcDbLine
 10
0.0
 20
-47.0
 30
0.0
 11
0.0
 21
-47.25
 31
0.0
  0
LINE
  5
18F
330
161
100
AcDbEntity
  8
0
  6
Continuous
 62
     0
370
     0
100
AcDbLine
 10
0.0
 20
-43.0
 30
0.0
 11
0.0
 21
-42.75
 31
0.0
  0
LINE
  5
190
330
161
100
AcDbEntity
  8
0
  6
Continuous
 62
     0
370
     0
100
AcDbLine
 10
15.9099025767
 20
-38.4099025767
 30
0.0
 11
16.6170093579
 21
-39.1170093579
 31
0.0
  0
LINE
  5
191
330
161
100
AcDbEntity
  8
0
  6
Continuous
 62
     0
370
     0
100
AcDbLine
 10
15.9099025767
 20
-38.4099025767
 30
0.0
 11
15.2027957955
 21
-37.7027957955
 31
0.0
  0
LINE
  5
192
330
161
100
AcDbEntity
  8
0
  6
Continuous
 62
     0
370
     0
100
AcDbLine
 10
17.3241161391
 20
-39.8241161391
 30
0.0
 11
17.5008928344
 21
-40.0008928344
 31
0.0
  0
LINE
  5
193
330
161
100
AcDbEntity
  8
0
  6
Continuous
 62
     0
370
     0
100
AcDbLine
 10
14.4956890143
 20
-36.9956890143
 30
0.0
 11
14.318912319
 21
-36.818912319
 31
0.0
  0
LINE
  5
194
330
161
100
AcDbEntity
  8
0
  6
Continuous
 62
     0
370
     0
100
AcDbLine
 10
22.5
 20
-22.5
 30
0.0
 11
23.5
 21
-22.5
 31
0.0
  0
LINE
  5
195
330
161
100
AcDbEntity
  8
0
  6
Continuous
 62
     0
370
     0
100
AcDbLine
 10
22.5
 20
-22.5
 30
0.0
 11
21.5
 21
-22.5
 31
0.0
  0
LINE
  5
196
330
161
100
AcDbEntity
  8
0
  6
Continuous
 62
     0
370
     0
100
AcDbLine
 10
24.5
 20
-22.5
 30
0.0
 11
24.75
 21
-22.5
 31
0.0
  0
LINE
  5
197
330
161
100
AcDbEntity
  8
0
  6
Continuous
 62
     0
370
     0
100
AcDbLine
 10
20.5
 20
-22.5
 30
0.0
 11
20.25
 21
-22.5
 31
0.0
  0
LINE
  5
198
330
161
100
AcDbEntity
  8
0
  6
Continuous
 62
     0
370
     0
100
AcDbLine
 10
15.9099025767
 20
-6.5900974233
 30
0.0
 11
16.6170093579
 21
-5.8829906421
 31
0.0
  0
LINE
  5
199
330
161
100
AcDbEntity
  8
0
  6
Continuous
 62
     0
370
     0
100
AcDbLine
 10
15.9099025767
 20
-6.5900974233
 30
0.0
 11
15.2027957955
 21
-7.2972042045
 31
0.0
  0
LINE
  5
19A
330
161
100
AcDbEntity
  8
0
  6
Continuous
 62
     0
370
     0
100
AcDbLine
 10
17.3241161391
 20
-5.1758838609
 30
0.0
 11
17.5008928344
 21
-4.9991071656
 31
0.0
  0
LINE
  5
19B
330
161
100
AcDbEntity
  8
0
  6
Continuous
 62
     0
370
     0
100
AcDbLine
 10
14.4956890143
 20
-8.0043109857
 30
0.0
 11
14.318912319
 21
-8.181087681
 31
0.0
  0
ENDBLK
  5
163
330
161
100
AcDbEntity
  8
0
100
AcDbBlockEnd
  0
BLOCK
  5
19E
330
19D
100
AcDbEntity
  8
0
100
AcDbBlockBegin
  2
SW_CENTERMARKSYMBOL_3
 70
     0
 10
0.0
 20
0.0
 30
0.0
  3
SW_CENTERMARKSYMBOL_3
  1

  0
LINE
  5
1A0
330
19D
100
AcDbEntity
  8
0
  6
Continuous
 62
     0
370
     0
100
AcDbLine
 10
0.0
 20
0.0
 30
0.0
 11
0.0
 21
1.0
 31
0.0
  0
LINE
  5
1A1
330
19D
100
AcDbEntity
  8
0
  6
Continuous
 62
     0
370
     0
100
AcDbLine
 10
0.0
 20
0.0
 30
0.0
 11
-1.0
 21
0.0
 31
0.0
  0
LINE
  5
1A2
330
19D
100
AcDbEntity
  8
0
  6
Continuous
 62
     0
370
     0
100
AcDbLine
 10
0.0
 20
0.0
 30
0.0
 11
0.0
 21
-1.0
 31
0.0
  0
LINE
  5
1A3
330
19D
100
AcDbEntity
  8
0
  6
Continuous
 62
     0
370
     0
100
AcDbLine
 10
0.0
 20
0.0
 30
0.0
 11
1.0
 21
0.0
 31
0.0
  0
LINE
  5
1A4
330
19D
100
AcDbEntity
  8
0
  6
Continuous
 62
     0
370
     0
100
AcDbLine
 10
0.0
 20
2.0
 30
0.0
 11
0.0
 21
58.9040004413
 31
0.0
  0
LINE
  5
1A5
330
19D
100
AcDbEntity
  8
0
  6
Continuous
 62
     0
370
     0
100
AcDbLine
 10
-2.0
 20
0.0
 30
0.0
 11
-46.8907501323
 21
0.0
 31
0.0
  0
LINE
  5
1A6
330
19D
100
AcDbEntity
  8
0
  6
Continuous
 62
     0
370
     0
100
AcDbLine
 10
0.0
 20
-2.0
 30
0.0
 11
0.0
 21
-45.9338293819
 31
0.0
  0
LINE
  5
1A7
330
19D
100
AcDbEntity
  8
0
  6
Continuous
 62
     0
370
     0
100
AcDbLine
 10
2.0
 20
0.0
 30
0.0
 11
46.0336899382
 21
0.0
 31
0.0
  0
ENDBLK
  5
19F
330
19D
100
AcDbEntity
  8
0
100
AcDbBlockEnd
  0
BLOCK
  5
1AA
330
1A9
100
AcDbEntity
  8
0
100
AcDbBlockBegin
  2
SW_CENTERMARKSYMBOL_4
 70
     0
 10
0.0
 20
0.0
 30
0.0
  3
SW_CENTERMARKSYMBOL_4
  1

  0
ARC
  5
1AC
330
1A9
100
AcDbEntity
  8
0
  6
Continuous
 62
     0
370
     0
100
AcDbCircle
 10
-8.6103772282
 20
-20.7872894815
 30
0.0
 40
22.5
100
AcDbArc
 50
67.5
 51
71.3197186342
  0
ARC
  5
1AD
330
1A9
100
AcDbEntity
  8
0
  6
Continuous
 62
     0
370
     0
100
AcDbCircle
 10
-8.6103772282
 20
-20.7872894815
 30
0.0
 40
22.49999999999999
100
AcDbArc
 50
63.6802813658
 51
67.5
  0
ARC
  5
1AE
330
1A9
100
AcDbEntity
  8
0
  6
Continuous
 62
     0
370
     0
100
AcDbCircle
 10
-8.6103772282
 20
-20.7872894815
 30
0.0
 40
22.50000000000001
100
AcDbArc
 50
71.3197186342
 51
75.1394372684
  0
ARC
  5
1AF
330
1A9
100
AcDbEntity
  8
0
  6
Continuous
 62
     0
370
     0
100
AcDbCircle
 10
-8.6103772282
 20
-20.7872894815
 30
0.0
 40
22.49999999999999
100
AcDbArc
 50
59.8605627316
 51
63.6802813658
  0
LINE
  5
1B0
330
1A9
100
AcDbEntity
  8
0
  6
Continuous
 62
     0
370
     0
100
AcDbLine
 10
0.0
 20
0.0
 30
0.0
 11
0.5740251485
 21
1.3858192988
 31
0.0
  0
LINE
  5
1B1
330
1A9
100
AcDbEntity
  8
0
  6
Continuous
 62
     0
370
     0
100
AcDbLine
 10
0.0
 20
0.0
 30
0.0
 11
-0.5740251485
 21
-1.3858192988
 31
0.0
  0
LINE
  5
1B2
330
1A9
100
AcDbEntity
  8
0
  6
Continuous
 62
     0
370
     0
100
AcDbLine
 10
0.5740251485
 20
1.3858192988
 30
0.0
 11
1.1480502971
 21
2.7716385975
 31
0.0
  0
LINE
  5
1B3
330
1A9
100
AcDbEntity
  8
0
  6
Continuous
 62
     0
370
     0
100
AcDbLine
 10
-0.5740251485
 20
-1.3858192988
 30
0.0
 11
-1.1480502971
 21
-2.7716385975
 31
0.0
  0
ENDBLK
  5
1AB
330
1A9
100
AcDbEntity
  8
0
100
AcDbBlockEnd
  0
BLOCK
  5
1C6
330
1C5
100
AcDbEntity
  8
0
100
AcDbBlockBegin
  2
SW_DOWELSYMBOL_0
 70
     0
 10
0.0
 20
0.0
 30
0.0
  3
SW_DOWELSYMBOL_0
  1

  0
CIRCLE
  5
1C8
330
1C5
100
AcDbEntity
  8
0
  6
Continuous
 62
     0
370
     0
100
AcDbCircle
 10
0.0
 20
0.0
 30
0.0
 40
1.500000000000001
  0
HATCH
  5
1C9
330
1C5
100
AcDbEntity
  8
0
  6
Continuous
 62
     0
370
     0
100
AcDbHatch
 10
0.0
 20
0.0
 30
0.0
210
0.0
220
0.0
230
1.0
  2
SOLID
 70
     1
 71
     0
 91
        1
 92
        0
 93
        3
 72
     2
 10
0.0
 20
0.0
 40
1.500000000000001
 50
0.0
 51
90.0
 73
     1
 72
     1
 10
0.0
 20
1.500000000000001
 11
0.0
 21
0.0
 72
     1
 10
0.0
 20
0.0
 11
1.500000000000001
 21
0.0
 97
        0
 75
     0
 76
     1
 98
        1
 10
0.0
 20
0.0
  0
HATCH
  5
1CA
330
1C5
100
AcDbEntity
  8
0
  6
Continuous
 62
     0
370
     0
100
AcDbHatch
 10
0.0
 20
0.0
 30
0.0
210
0.0
220
0.0
230
1.0
  2
SOLID
 70
     1
 71
     0
 91
        1
 92
        0
 93
        3
 72
     2
 10
0.0
 20
0.0
 40
1.500000000000001
 50
180.0
 51
270.0000000000008
 73
     1
 72
     1
 10
0.0
 20
-1.500000000000001
 11
0.0
 21
0.0
 72
     1
 10
0.0
 20
0.0
 11
-1.500000000000001
 21
0.0
 97
        0
 75
     0
 76
     1
 98
        1
 10
0.0
 20
0.0
  0
ENDBLK
  5
1C7
330
1C5
100
AcDbEntity
  8
0
100
AcDbBlockEnd
  0
BLOCK
  5
298
330
297
100
AcDbEntity
  8
0
100
AcDbBlockBegin
  2
SW_CENTERMARKSYMBOL_5
 70
     0
 10
0.0
 20
0.0
 30
0.0
  3
SW_CENTERMARKSYMBOL_5
  1

  0
ARC
  5
29A
330
297
100
AcDbEntity
  8
0
  6
Continuous
 62
     0
370
     0
100
AcDbCircle
 10
25.0687167778
 20
-29.8757332816
 30
0.0
 40
38.99999999999998
100
AcDbArc
 50
130.0
 51
131.4691225516
  0
ARC
  5
29B
330
297
100
AcDbEntity
  8
0
  6
Continuous
 62
     0
370
     0
100
AcDbCircle
 10
25.0687167778
 20
-29.8757332816
 30
0.0
 40
38.99999999999999
100
AcDbArc
 50
128.5308774484
 51
130.0
  0
ARC
  5
29C
330
297
100
AcDbEntity
  8
0
  6
Continuous
 62
     0
370
     0
100
AcDbCircle
 10
25.0687167778
 20
-29.8757332816
 30
0.0
 40
39.00000000000001
100
AcDbArc
 50
132.9382451032
 51
135.6414305982
  0
ARC
  5
29D
330
297
100
AcDbEntity
  8
0
  6
Continuous
 62
     0
370
     0
100
AcDbCircle
 10
25.0687167778
 20
-29.8757332816
 30
0.0
 40
38.99999999999999
100
AcDbArc
 50
124.3585694018
 51
127.0617548968
  0
ARC
  5
29E
330
297
100
AcDbEntity
  8
0
  6
Continuous
 62
     0
370
     0
100
AcDbCircle
 10
25.0687167778
 20
-29.8757332816
 30
0.0
 40
38.99999999999999
100
AcDbArc
 50
40.0
 51
41.4691225516
  0
ARC
  5
29F
330
297
100
AcDbEntity
  8
0
  6
Continuous
 62
     0
370
     0
100
AcDbCircle
 10
25.0687167778
 20
-29.8757332816
 30
0.0
 40
39.00000000000001
100
AcDbArc
 50
38.5308774484
 51
40.0
  0
ARC
  5
2A0
330
297
100
AcDbEntity
  8
0
  6
Continuous
 62
     0
370
     0
100
AcDbCircle
 10
25.0687167778
 20
-29.8757332816
 30
0.0
 40
39.00000000000001
100
AcDbArc
 50
42.9382451032
 51
45.6414305982
  0
ARC
  5
2A1
330
297
100
AcDbEntity
  8
0
  6
Continuous
 62
     0
370
     0
100
AcDbCircle
 10
25.0687167778
 20
-29.8757332816
 30
0.0
 40
39.00000000000001
100
AcDbArc
 50
34.3585694018
 51
37.0617548968
  0
ARC
  5
2A2
330
297
100
AcDbEntity
  8
0
  6
Continuous
 62
     0
370
     0
100
AcDbCircle
 10
25.0687167778
 20
-29.8757332816
 30
0.0
 40
38.99999999999999
100
AcDbArc
 50
310.0
 51
311.4691225516
  0
ARC
  5
2A3
330
297
100
AcDbEntity
  8
0
  6
Continuous
 62
     0
370
     0
100
AcDbCircle
 10
25.0687167778
 20
-29.8757332816
 30
0.0
 40
39.0
100
AcDbArc
 50
308.5308774484
 51
310.0
  0
ARC
  5
2A4
330
297
100
AcDbEntity
  8
0
  6
Continuous
 62
     0
370
     0
100
AcDbCircle
 10
25.0687167778
 20
-29.8757332816
 30
0.0
 40
38.99999999999999
100
AcDbArc
 50
312.9382451032
 51
315.6414305982
  0
ARC
  5
2A5
330
297
100
AcDbEntity
  8
0
  6
Continuous
 62
     0
370
     0
100
AcDbCircle
 10
25.0687167778
 20
-29.8757332816
 30
0.0
 40
39.0
100
AcDbArc
 50
304.3585694018
 51
307.0617548968
  0
ARC
  5
2A6
330
297
100
AcDbEntity
  8
0
  6
Continuous
 62
     0
370
     0
100
AcDbCircle
 10
25.0687167778
 20
-29.8757332816
 30
0.0
 40
39.0
100
AcDbArc
 50
220.0
 51
221.4691225516
  0
ARC
  5
2A7
330
297
100
AcDbEntity
  8
0
  6
Continuous
 62
     0
370
     0
100
AcDbCircle
 10
25.0687167778
 20
-29.8757332816
 30
0.0
 40
39.00000000000002
100
AcDbArc
 50
218.5308774484
 51
220.0
  0
ARC
  5
2A8
330
297
100
AcDbEntity
  8
0
  6
Continuous
 62
     0
370
     0
100
AcDbCircle
 10
25.0687167778
 20
-29.8757332816
 30
0.0
 40
39.00000000000001
100
AcDbArc
 50
222.9382451032
 51
225.6414305982
  0
ARC
  5
2A9
330
297
100
AcDbEntity
  8
0
  6
Continuous
 62
     0
370
     0
100
AcDbCircle
 10
25.0687167778
 20
-29.8757332816
 30
0.0
 40
38.99999999999998
100
AcDbArc
 50
214.3585694018
 51
217.0617548968
  0
LINE
  5
2AA
330
297
100
AcDbEntity
  8
0
  6
Continuous
 62
     0
370
     0
100
AcDbLine
 10
0.0
 20
0.0
 30
0.0
 11
-0.6427876097
 21
0.7660444431
 31
0.0
  0
LINE
  5
2AB
330
297
100
AcDbEntity
  8
0
  6
Continuous
 62
     0
370
     0
100
AcDbLine
 10
0.0
 20
0.0
 30
0.0
 11
0.6427876097
 21
-0.7660444431
 31
0.0
  0
LINE
  5
2AC
330
297
100
AcDbEntity
  8
0
  6
Continuous
 62
     0
370
     0
100
AcDbLine
 10
-1.2855752194
 20
1.5320888862
 30
0.0
 11
-2.4683044212
 21
2.9416106616
 31
0.0
  0
LINE
  5
2AD
330
297
100
AcDbEntity
  8
0
  6
Continuous
 62
     0
370
     0
100
AcDbLine
 10
1.2855752194
 20
-1.5320888862
 30
0.0
 11
2.4683044212
 21
-2.9416106616
 31
0.0
  0
LINE
  5
2AE
330
297
100
AcDbEntity
  8
0
  6
Continuous
 62
     0
370
     0
100
AcDbLine
 10
54.9444500594
 20
-4.8070165039
 30
0.0
 11
55.7104945025
 21
-4.1642288942
 31
0.0
  0
LINE
  5
2AF
330
297
100
AcDbEntity
  8
0
  6
Continuous
 62
     0
370
     0
100
AcDbLine
 10
54.9444500594
 20
-4.8070165039
 30
0.0
 11
54.1784056163
 21
-5.4498041136
 31
0.0
  0
LINE
  5
2B0
330
297
100
AcDbEntity
  8
0
  6
Continuous
 62
     0
370
     0
100
AcDbLine
 10
56.4765389457
 20
-3.5214412845
 30
0.0
 11
57.886060721
 21
-2.3387120827
 31
0.0
  0
LINE
  5
2B1
330
297
100
AcDbEntity
  8
0
  6
Continuous
 62
     0
370
     0
100
AcDbLine
 10
53.4123611732
 20
-6.0925917232
 30
0.0
 11
52.0028393978
 21
-7.2753209251
 31
0.0
  0
LINE
  5
2B2
330
297
100
AcDbEntity
  8
0
  6
Continuous
 62
     0
370
     0
100
AcDbLine
 10
50.1374335556
 20
-59.7514665633
 30
0.0
 11
50.7802211652
 21
-60.5175110064
 31
0.0
  0
LINE
  5
2B3
330
297
100
AcDbEntity
  8
0
  6
Continuous
 62
     0
370
     0
100
AcDbLine
 10
50.1374335556
 20
-59.7514665633
 30
0.0
 11
49.4946459459
 21
-58.9854221202
 31
0.0
  0
LINE
  5
2B4
330
297
100
AcDbEntity
  8
0
  6
Continuous
 62
     0
370
     0
100
AcDbLine
 10
51.4230087749
 20
-61.2835554495
 30
0.0
 11
52.6057379767
 21
-62.6930772249
 31
0.0
  0
LINE
  5
2B5
330
297
100
AcDbEntity
  8
0
  6
Continuous
 62
     0
370
     0
100
AcDbLine
 10
48.8518583362
 20
-58.219377677
 30
0.0
 11
47.6691291344
 21
-56.8098559017
 31
0.0
  0
LINE
  5
2B6
330
297
100
AcDbEntity
  8
0
  6
Continuous
 62
     0
370
     0
100
AcDbLine
 10
-4.8070165039
 20
-54.9444500594
 30
0.0
 11
-5.573060947
 21
-55.5872376691
 31
0.0
  0
LINE
  5
2B7
330
297
100
AcDbEntity
  8
0
  6
Continuous
 62
     0
370
     0
100
AcDbLine
 10
-4.8070165039
 20
-54.9444500594
 30
0.0
 11
-4.0409720607
 21
-54.3016624497
 31
0.0
  0
LINE
  5
2B8
330
297
100
AcDbEntity
  8
0
  6
Continuous
 62
     0
370
     0
100
AcDbLine
 10
-6.3391053901
 20
-56.2300252788
 30
0.0
 11
-7.7486271654
 21
-57.4127544806
 31
0.0
  0
LINE
  5
2B9
330
297
100
AcDbEntity
  8
0
  6
Continuous
 62
     0
370
     0
100
AcDbLine
 10
-3.2749276176
 20
-53.65887484
 30
0.0
 11
-1.8654058423
 21
-52.4761456382
 31
0.0
  0
ENDBLK
  5
299
330
297
100
AcDbEntity
  8
0
100
AcDbBlockEnd
  0
BLOCK
  5
2BC
330
2BB
100
AcDbEntity
  8
0
100
AcDbBlockBegin
  2
SW_CENTERMARKSYMBOL_6
 70
     0
 10
0.0
 20
0.0
 30
0.0
  3
SW_CENTERMARKSYMBOL_6
  1

  0
ARC
  5
2BE
330
2BB
100
AcDbEntity
  8
0
  6
Continuous
 62
     0
370
     0
100
AcDbCircle
 10
-19.329525905
 20
-27.6054238925
 30
0.0
 40
33.70000000000002
100
AcDbArc
 50
55.0
 51
58.4003429978
  0
ARC
  5
2BF
330
2BB
100
AcDbEntity
  8
0
  6
Continuous
 62
     0
370
     0
100
AcDbCircle
 10
-19.329525905
 20
-27.6054238925
 30
0.0
 40
33.70000000000002
100
AcDbArc
 50
51.5996570022
 51
55.0
  0
ARC
  5
2C0
330
2BB
100
AcDbEntity
  8
0
  6
Continuous
 62
     0
370
     0
100
AcDbCircle
 10
-19.329525905
 20
-27.6054238925
 30
0.0
 40
33.70000000000001
100
AcDbArc
 50
61.8006859956
 51
62.820788895
  0
ARC
  5
2C1
330
2BB
100
AcDbEntity
  8
0
  6
Continuous
 62
     0
370
     0
100
AcDbCircle
 10
-19.329525905
 20
-27.6054238925
 30
0.0
 40
33.70000000000001
100
AcDbArc
 50
47.179211105
 51
48.1993140044
  0
ARC
  5
2C2
330
2BB
100
AcDbEntity
  8
0
  6
Continuous
 62
     0
370
     0
100
AcDbCircle
 10
-19.329525905
 20
-27.6054238925
 30
0.0
 40
33.69999999999999
100
AcDbArc
 50
325.0
 51
328.4003429978
  0
ARC
  5
2C3
330
2BB
100
AcDbEntity
  8
0
  6
Continuous
 62
     0
370
     0
100
AcDbCircle
 10
-19.329525905
 20
-27.6054238925
 30
0.0
 40
33.69999999999999
100
AcDbArc
 50
321.5996570022
 51
325.0
  0
ARC
  5
2C4
330
2BB
100
AcDbEntity
  8
0
  6
Continuous
 62
     0
370
     0
100
AcDbCircle
 10
-19.329525905
 20
-27.6054238925
 30
0.0
 40
33.70000000000002
100
AcDbArc
 50
331.8006859956
 51
332.820788895
  0
ARC
  5
2C5
330
2BB
100
AcDbEntity
  8
0
  6
Continuous
 62
     0
370
     0
100
AcDbCircle
 10
-19.329525905
 20
-27.6054238925
 30
0.0
 40
33.7
100
AcDbArc
 50
317.179211105
 51
318.1993140044
  0
ARC
  5
2C6
330
2BB
100
AcDbEntity
  8
0
  6
Continuous
 62
     0
370
     0
100
AcDbCircle
 10
-19.329525905
 20
-27.6054238925
 30
0.0
 40
33.70000000000002
100
AcDbArc
 50
235.0
 51
238.4003429978
  0
ARC
  5
2C7
330
2BB
100
AcDbEntity
  8
0
  6
Continuous
 62
     0
370
     0
100
AcDbCircle
 10
-19.329525905
 20
-27.6054238925
 30
0.0
 40
33.70000000000002
100
AcDbArc
 50
231.5996570022
 51
235.0
  0
ARC
  5
2C8
330
2BB
100
AcDbEntity
  8
0
  6
Continuous
 62
     0
370
     0
100
AcDbCircle
 10
-19.329525905
 20
-27.6054238925
 30
0.0
 40
33.70000000000001
100
AcDbArc
 50
241.8006859956
 51
242.820788895
  0
ARC
  5
2C9
330
2BB
100
AcDbEntity
  8
0
  6
Continuous
 62
     0
370
     0
100
AcDbCircle
 10
-19.329525905
 20
-27.6054238925
 30
0.0
 40
33.7
100
AcDbArc
 50
227.179211105
 51
228.1993140044
  0
ARC
  5
2CA
330
2BB
100
AcDbEntity
  8
0
  6
Continuous
 62
     0
370
     0
100
AcDbCircle
 10
-19.329525905
 20
-27.6054238925
 30
0.0
 40
33.70000000000002
100
AcDbArc
 50
145.0
 51
148.4003429978
  0
ARC
  5
2CB
330
2BB
100
AcDbEntity
  8
0
  6
Continuous
 62
     0
370
     0
100
AcDbCircle
 10
-19.329525905
 20
-27.6054238925
 30
0.0
 40
33.70000000000001
100
AcDbArc
 50
141.5996570022
 51
145.0
  0
ARC
  5
2CC
330
2BB
100
AcDbEntity
  8
0
  6
Continuous
 62
     0
370
     0
100
AcDbCircle
 10
-19.329525905
 20
-27.6054238925
 30
0.0
 40
33.70000000000003
100
AcDbArc
 50
151.8006859956
 51
152.820788895
  0
ARC
  5
2CD
330
2BB
100
AcDbEntity
  8
0
  6
Continuous
 62
     0
370
     0
100
AcDbCircle
 10
-19.329525905
 20
-27.6054238925
 30
0.0
 40
33.7
100
AcDbArc
 50
137.179211105
 51
138.1993140044
  0
LINE
  5
2CE
330
2BB
100
AcDbEntity
  8
0
  6
Continuous
 62
     0
370
     0
100
AcDbLine
 10
0.0
 20
0.0
 30
0.0
 11
1.1471528727
 21
1.6383040886
 31
0.0
  0
LINE
  5
2CF
330
2BB
100
AcDbEntity
  8
0
  6
Continuous
 62
     0
370
     0
100
AcDbLine
 10
0.0
 20
0.0
 30
0.0
 11
-1.1471528727
 21
-1.6383040886
 31
0.0
  0
LINE
  5
2D0
330
2BB
100
AcDbEntity
  8
0
  6
Continuous
 62
     0
370
     0
100
AcDbLine
 10
2.2943057454
 20
3.2766081772
 30
0.0
 11
2.6384516072
 21
3.7680994037
 31
0.0
  0
LINE
  5
2D1
330
2BB
100
AcDbEntity
  8
0
  6
Continuous
 62
     0
370
     0
100
AcDbLine
 10
-2.2943057454
 20
-3.2766081772
 30
0.0
 11
-2.6384516072
 21
-3.7680994037
 31
0.0
  0
LINE
  5
2D2
330
2BB
100
AcDbEntity
  8
0
  6
Continuous
 62
     0
370
     0
100
AcDbLine
 10
8.2758979875
 20
-46.9349497976
 30
0.0
 11
9.9142020761
 21
-48.0821026703
 31
0.0
  0
LINE
  5
2D3
330
2BB
100
AcDbEntity
  8
0
  6
Continuous
 62
     0
370
     0
100
AcDbLine
 10
8.2758979875
 20
-46.9349497976
 30
0.0
 11
6.6375938989
 21
-45.7877969249
 31
0.0
  0
LINE
  5
2D4
330
2BB
100
AcDbEntity
  8
0
  6
Continuous
 62
     0
370
     0
100
AcDbLine
 10
11.5525061647
 20
-49.229255543
 30
0.0
 11
12.0439973912
 21
-49.5734014048
 31
0.0
  0
LINE
  5
2D5
330
2BB
100
AcDbEntity
  8
0
  6
Continuous
 62
     0
370
     0
100
AcDbLine
 10
4.9992898104
 20
-44.6406440522
 30
0.0
 11
4.5077985838
 21
-44.2964981904
 31
0.0
  0
LINE
  5
2D6
330
2BB
100
AcDbEntity
  8
0
  6
Continuous
 62
     0
370
     0
100
AcDbLine
 10
-38.6590518101
 20
-55.2108477851
 30
0.0
 11
-39.8062046828
 21
-56.8491518737
 31
0.0
  0
LINE
  5
2D7
330
2BB
100
AcDbEntity
  8
0
  6
Continuous
 62
     0
370
     0
100
AcDbLine
 10
-38.6590518101
 20
-55.2108477851
 30
0.0
 11
-37.5118989374
 21
-53.5725436965
 31
0.0
  0
LINE
  5
2D8
330
2BB
100
AcDbEntity
  8
0
  6
Continuous
 62
     0
370
     0
100
AcDbLine
 10
-40.9533575555
 20
-58.4874559622
 30
0.0
 11
-41.2975034173
 21
-58.9789471888
 31
0.0
  0
LINE
  5
2D9
330
2BB
100
AcDbEntity
  8
0
  6
Continuous
 62
     0
370
     0
100
AcDbLine
 10
-36.3647460647
 20
-51.9342396079
 30
0.0
 11
-36.0206002028
 21
-51.4427483813
 31
0.0
  0
LINE
  5
2DA
330
2BB
100
AcDbEntity
  8
0
  6
Continuous
 62
     0
370
     0
100
AcDbLine
 10
-46.9349497976
 20
-8.2758979875
 30
0.0
 11
-48.5732538861
 21
-7.1287451148
 31
0.0
  0
LINE
  5
2DB
330
2BB
100
AcDbEntity
  8
0
  6
Continuous
 62
     0
370
     0
100
AcDbLine
 10
-46.9349497976
 20
-8.2758979875
 30
0.0
 11
-45.296645709
 21
-9.4230508602
 31
0.0
  0
LINE
  5
2DC
330
2BB
100
AcDbEntity
  8
0
  6
Continuous
 62
     0
370
     0
100
AcDbLine
 10
-50.2115579747
 20
-5.9815922421
 30
0.0
 11
-50.7030492013
 21
-5.6374463803
 31
0.0
  0
LINE
  5
2DD
330
2BB
100
AcDbEntity
  8
0
  6
Continuous
 62
     0
370
     0
100
AcDbLine
 10
-43.6583416204
 20
-10.5702037329
 30
0.0
 11
-43.1668503938
 21
-10.9143495947
 31
0.0
  0
ENDBLK
  5
2BD
330
2BB
100
AcDbEntity
  8
0
100
AcDbBlockEnd
  0
BLOCK
  5
2E0
330
2DF
100
AcDbEntity
  8
0
100
AcDbBlockBegin
  2
SW_CENTERMARKSYMBOL_7
 70
     0
 10
0.0
 20
0.0
 30
0.0
  3
SW_CENTERMARKSYMBOL_7
  1

  0
LINE
  5
2E2
330
2DF
100
AcDbEntity
  8
0
  6
Continuous
 62
     0
370
     0
100
AcDbLine
 10
0.0
 20
0.0
 30
0.0
 11
0.0
 21
1.0
 31
0.0
  0
LINE
  5
2E3
330
2DF
100
AcDbEntity
  8
0
  6
Continuous
 62
     0
370
     0
100
AcDbLine
 10
0.0
 20
0.0
 30
0.0
 11
-1.0
 21
0.0
 31
0.0
  0
LINE
  5
2E4
330
2DF
100
AcDbEntity
  8
0
  6
Continuous
 62
     0
370
     0
100
AcDbLine
 10
0.0
 20
0.0
 30
0.0
 11
0.0
 21
-1.0
 31
0.0
  0
LINE
  5
2E5
330
2DF
100
AcDbEntity
  8
0
  6
Continuous
 62
     0
370
     0
100
AcDbLine
 10
0.0
 20
0.0
 30
0.0
 11
1.0
 21
0.0
 31
0.0
  0
LINE
  5
2E6
330
2DF
100
AcDbEntity
  8
0
  6
Continuous
 62
     0
370
     0
100
AcDbLine
 10
0.0
 20
2.0
 30
0.0
 11
0.0
 21
57.8314748367
 31
0.0
  0
LINE
  5
2E7
330
2DF
100
AcDbEntity
  8
0
  6
Continuous
 62
     0
370
     0
100
AcDbLine
 10
-2.0
 20
0.0
 30
0.0
 11
-48.1479797703
 21
0.0
 31
0.0
  0
LINE
  5
2E8
330
2DF
100
AcDbEntity
  8
0
  6
Continuous
 62
     0
370
     0
100
AcDbLine
 10
0.0
 20
-2.0
 30
0.0
 11
0.0
 21
-48.5951711501
 31
0.0
  0
LINE
  5
2E9
330
2DF
100
AcDbEntity
  8
0
  6
Continuous
 62
     0
370
     0
100
AcDbLine
 10
2.0
 20
0.0
 30
0.0
 11
48.6255573672
 21
0.0
 31
0.0
  0
ENDBLK
  5
2E1
330
2DF
100
AcDbEntity
  8
0
100
AcDbBlockEnd
  0
BLOCK
  5
2EC
330
2EB
100
AcDbEntity
  8
0
100
AcDbBlockBegin
  2
SW_CENTERMARKSYMBOL_8
 70
     0
 10
0.0
 20
0.0
 30
0.0
  3
SW_CENTERMARKSYMBOL_8
  1

  0
ARC
  5
2EE
330
2EB
100
AcDbEntity
  8
0
  6
Continuous
 62
     0
370
     0
100
AcDbCircle
 10
36.0313017679
 20
14.9246538622
 30
0.0
 40
39.00000000000001
100
AcDbArc
 50
202.5
 51
203.9691225516
  0
ARC
  5
2EF
330
2EB
100
AcDbEntity
  8
0
  6
Continuous
 62
     0
370
     0
100
AcDbCircle
 10
36.0313017679
 20
14.9246538622
 30
0.0
 40
38.99999999999999
100
AcDbArc
 50
201.0308774484
 51
202.5
  0
ARC
  5
2F0
330
2EB
100
AcDbEntity
  8
0
  6
Continuous
 62
     0
370
     0
100
AcDbCircle
 10
36.0313017679
 20
14.9246538622
 30
0.0
 40
39.0
100
AcDbArc
 50
292.5
 51
293.9691225516
  0
ARC
  5
2F1
330
2EB
100
AcDbEntity
  8
0
  6
Continuous
 62
     0
370
     0
100
AcDbCircle
 10
36.0313017679
 20
14.9246538622
 30
0.0
 40
38.99999999999999
100
AcDbArc
 50
291.0308774484
 51
292.5
  0
ARC
  5
2F2
330
2EB
100
AcDbEntity
  8
0
  6
Continuous
 62
     0
370
     0
100
AcDbCircle
 10
36.0313017679
 20
14.9246538622
 30
0.0
 40
39.00000000000001
100
AcDbArc
 50
337.5
 51
338.9691225516
  0
ARC
  5
2F3
330
2EB
100
AcDbEntity
  8
0
  6
Continuous
 62
     0
370
     0
100
AcDbCircle
 10
36.0313017679
 20
14.9246538622
 30
0.0
 40
39.00000000000002
100
AcDbArc
 50
336.0308774484
 51
337.5
  0
ARC
  5
2F4
330
2EB
100
AcDbEntity
  8
0
  6
Continuous
 62
     0
370
     0
100
AcDbCircle
 10
36.0313017679
 20
14.9246538622
 30
0.0
 40
39.00000000000001
100
AcDbArc
 50
22.5
 51
23.9691225516
  0
ARC
  5
2F5
330
2EB
100
AcDbEntity
  8
0
  6
Continuous
 62
     0
370
     0
100
AcDbCircle
 10
36.0313017679
 20
14.9246538622
 30
0.0
 40
38.99999999999999
100
AcDbArc
 50
21.0308774484
 51
22.5
  0
ARC
  5
2F6
330
2EB
100
AcDbEntity
  8
0
  6
Continuous
 62
     0
370
     0
100
AcDbCircle
 10
36.0313017679
 20
14.9246538622
 30
0.0
 40
38.99999999999999
100
AcDbArc
 50
67.5
 51
68.9691225516
  0
ARC
  5
2F7
330
2EB
100
AcDbEntity
  8
0
  6
Continuous
 62
     0
370
     0
100
AcDbCircle
 10
36.0313017679
 20
14.9246538622
 30
0.0
 40
39.0
100
AcDbArc
 50
66.0308774484
 51
67.5
  0
ARC
  5
2F8
330
2EB
100
AcDbEntity
  8
0
  6
Continuous
 62
     0
370
     0
100
AcDbCircle
 10
36.0313017679
 20
14.9246538622
 30
0.0
 40
39.0
100
AcDbArc
 50
112.5
 51
113.9691225516
  0
ARC
  5
2F9
330
2EB
100
AcDbEntity
  8
0
  6
Continuous
 62
     0
370
     0
100
AcDbCircle
 10
36.0313017679
 20
14.9246538622
 30
0.0
 40
39.00000000000001
100
AcDbArc
 50
111.0308774484
 51
112.5
  0
ARC
  5
2FA
330
2EB
100
AcDbEntity
  8
0
  6
Continuous
 62
     0
370
     0
100
AcDbCircle
 10
36.0313017679
 20
14.9246538622
 30
0.0
 40
39.00000000000002
100
AcDbArc
 50
157.5
 51
158.9691225516
  0
ARC
  5
2FB
330
2EB
100
AcDbEntity
  8
0
  6
Continuous
 62
     0
370
     0
100
AcDbCircle
 10
36.0313017679
 20
14.9246538622
 30
0.0
 40
39.00000000000002
100
AcDbArc
 50
156.0308774484
 51
157.5
  0
ARC
  5
2FC
330
2EB
100
AcDbEntity
  8
0
  6
Continuous
 62
     0
370
     0
100
AcDbCircle
 10
36.0313017679
 20
14.9246538622
 30
0.0
 40
39.0
100
AcDbArc
 50
247.5
 51
248.9691225516
  0
ARC
  5
2FD
330
2EB
100
AcDbEntity
  8
0
  6
Continuous
 62
     0
370
     0
100
AcDbCircle
 10
36.0313017679
 20
14.9246538622
 30
0.0
 40
38.99999999999999
100
AcDbArc
 50
246.0308774484
 51
247.5
  0
ARC
  5
2FE
330
2EB
100
AcDbEntity
  8
0
  6
CENTERX2
 62
     0
370
     0
100
AcDbCircle
 10
36.0313017679
 20
14.9246538622
 30
0.0
 40
39.00000000000002
100
AcDbArc
 50
115.4382451032
 51
154.5617548968
  0
ARC
  5
2FF
330
2EB
100
AcDbEntity
  8
0
  6
CENTERX2
 62
     0
370
     0
100
AcDbCircle
 10
36.0313017679
 20
14.9246538622
 30
0.0
 40
39.0
100
AcDbArc
 50
160.4382451032
 51
199.5617548968
  0
ARC
  5
300
330
2EB
100
AcDbEntity
  8
0
  6
CENTERX2
 62
     0
370
     0
100
AcDbCircle
 10
36.0313017679
 20
14.9246538622
 30
0.0
 40
39.00000000000001
100
AcDbArc
 50
205.4382451032
 51
244.5617548968
  0
ARC
  5
301
330
2EB
100
AcDbEntity
  8
0
  6
CENTERX2
 62
     0
370
     0
100
AcDbCircle
 10
36.0313017679
 20
14.9246538622
 30
0.0
 40
39.00000000000003
100
AcDbArc
 50
295.4382451032
 51
334.5617548968
  0
ARC
  5
302
330
2EB
100
AcDbEntity
  8
0
  6
CENTERX2
 62
     0
370
     0
100
AcDbCircle
 10
36.0313017679
 20
14.9246538622
 30
0.0
 40
39.00000000000001
100
AcDbArc
 50
340.4382451032
 51
19.5617548968
  0
ARC
  5
303
330
2EB
100
AcDbEntity
  8
0
  6
CENTERX2
 62
     0
370
     0
100
AcDbCircle
 10
36.0313017679
 20
14.9246538622
 30
0.0
 40
38.99999999999999
100
AcDbArc
 50
25.4382451032
 51
64.5617548968
  0
ARC
  5
304
330
2EB
100
AcDbEntity
  8
0
  6
CENTERX2
 62
     0
370
     0
100
AcDbCircle
 10
36.0313017679
 20
14.9246538622
 30
0.0
 40
38.99999999999999
100
AcDbArc
 50
70.4382451032
 51
109.5617548968
  0
ARC
  5
305
330
2EB
100
AcDbEntity
  8
0
  6
CENTERX2
 62
     0
370
     0
100
AcDbCircle
 10
36.0313017679
 20
14.9246538622
 30
0.0
 40
39.00000000000001
100
AcDbArc
 50
250.4382451032
 51
289.5617548968
  0
LINE
  5
306
330
2EB
100
AcDbEntity
  8
0
  6
Continuous
 62
     0
370
     0
100
AcDbLine
 10
0.0
 20
0.0
 30
0.0
 11
-0.9238795325
 21
-0.3826834324
 31
0.0
  0
LINE
  5
307
330
2EB
100
AcDbEntity
  8
0
  6
Continuous
 62
     0
370
     0
100
AcDbLine
 10
0.0
 20
0.0
 30
0.0
 11
0.9238795325
 21
0.3826834324
 31
0.0
  0
LINE
  5
308
330
2EB
100
AcDbEntity
  8
0
  6
Continuous
 62
     0
370
     0
100
AcDbLine
 10
-1.847759065
 20
-0.7653668647
 30
0.0
 11
-2.4944747378
 21
-1.0332452674
 31
0.0
  0
LINE
  5
309
330
2EB
100
AcDbEntity
  8
0
  6
Continuous
 62
     0
370
     0
100
AcDbLine
 10
1.847759065
 20
0.7653668647
 30
0.0
 11
2.4944747378
 21
1.0332452674
 31
0.0
  0
LINE
  5
30A
330
2EB
100
AcDbEntity
  8
0
  6
Continuous
 62
     0
370
     0
100
AcDbLine
 10
50.9559556302
 20
-21.1066479057
 30
0.0
 11
51.3386390625
 21
-22.0305274382
 31
0.0
  0
LINE
  5
30B
330
2EB
100
AcDbEntity
  8
0
  6
Continuous
 62
     0
370
     0
100
AcDbLine
 10
50.9559556302
 20
-21.1066479057
 30
0.0
 11
50.5732721978
 21
-20.1827683732
 31
0.0
  0
LINE
  5
30C
330
2EB
100
AcDbEntity
  8
0
  6
Continuous
 62
     0
370
     0
100
AcDbLine
 10
51.7213224949
 20
-22.9544069707
 30
0.0
 11
51.9892008976
 21
-23.6011226435
 31
0.0
  0
LINE
  5
30D
330
2EB
100
AcDbEntity
  8
0
  6
Continuous
 62
     0
370
     0
100
AcDbLine
 10
50.1905887654
 20
-19.2588888407
 30
0.0
 11
49.9227103628
 21
-18.6121731679
 31
0.0
  0
LINE
  5
30E
330
2EB
100
AcDbEntity
  8
0
  6
Continuous
 62
     0
370
     0
100
AcDbLine
 10
72.0626035359
 20
0.0
 30
0.0
 11
72.9864830684
 21
-0.3826834324
 31
0.0
  0
LINE
  5
30F
330
2EB
100
AcDbEntity
  8
0
  6
Continuous
 62
     0
370
     0
100
AcDbLine
 10
72.0626035359
 20
0.0
 30
0.0
 11
71.1387240034
 21
0.3826834324
 31
0.0
  0
LINE
  5
310
330
2EB
100
AcDbEntity
  8
0
  6
Continuous
 62
     0
370
     0
100
AcDbLine
 10
73.9103626009
 20
-0.7653668647
 30
0.0
 11
74.5570782737
 21
-1.0332452674
 31
0.0
  0
LINE
  5
311
330
2EB
100
AcDbEntity
  8
0
  6
Continuous
 62
     0
370
     0
100
AcDbLine
 10
70.2148444709
 20
0.7653668647
 30
0.0
 11
69.5681287981
 21
1.0332452674
 31
0.0
  0
LINE
  5
312
330
2EB
100
AcDbEntity
  8
0
  6
Continuous
 62
     0
370
     0
100
AcDbLine
 10
72.0626035359
 20
29.8493077245
 30
0.0
 11
72.9864830684
 21
30.2319911568
 31
0.0
  0
LINE
  5
313
330
2EB
100
AcDbEntity
  8
0
  6
Continuous
 62
     0
370
     0
100
AcDbLine
 10
72.0626035359
 20
29.8493077245
 30
0.0
 11
71.1387240034
 21
29.4666242921
 31
0.0
  0
LINE
  5
314
330
2EB
100
AcDbEntity
  8
0
  6
Continuous
 62
     0
370
     0
100
AcDbLine
 10
73.9103626009
 20
30.6146745892
 30
0.0
 11
74.5570782737
 21
30.8825529919
 31
0.0
  0
LINE
  5
315
330
2EB
100
AcDbEntity
  8
0
  6
Continuous
 62
     0
370
     0
100
AcDbLine
 10
70.2148444709
 20
29.0839408597
 30
0.0
 11
69.5681287981
 21
28.8160624571
 31
0.0
  0
LINE
  5
316
330
2EB
100
AcDbEntity
  8
0
  6
Continuous
 62
     0
370
     0
100
AcDbLine
 10
50.9559556302
 20
50.9559556302
 30
0.0
 11
51.3386390625
 21
51.8798351627
 31
0.0
  0
LINE
  5
317
330
2EB
100
AcDbEntity
  8
0
  6
Continuous
 62
     0
370
     0
100
AcDbLine
 10
50.9559556302
 20
50.9559556302
 30
0.0
 11
50.5732721978
 21
50.0320760977
 31
0.0
  0
LINE
  5
318
330
2EB
100
AcDbEntity
  8
0
  6
Continuous
 62
     0
370
     0
100
AcDbLine
 10
51.7213224949
 20
52.8037146952
 30
0.0
 11
51.9892008976
 21
53.450430368
 31
0.0
  0
LINE
  5
319
330
2EB
100
AcDbEntity
  8
0
  6
Continuous
 62
     0
370
     0
100
AcDbLine
 10
50.1905887654
 20
49.1081965652
 30
0.0
 11
49.9227103628
 21
48.4614808924
 31
0.0
  0
LINE
  5
31A
330
2EB
100
AcDbEntity
  8
0
  6
Continuous
 62
     0
370
     0
100
AcDbLine
 10
21.1066479057
 20
50.9559556302
 30
0.0
 11
20.7239644733
 21
51.8798351627
 31
0.0
  0
LINE
  5
31B
330
2EB
100
AcDbEntity
  8
0
  6
Continuous
 62
     0
370
     0
100
AcDbLine
 10
21.1066479057
 20
50.9559556302
 30
0.0
 11
21.4893313381
 21
50.0320760977
 31
0.0
  0
LINE
  5
31C
330
2EB
100
AcDbEntity
  8
0
  6
Continuous
 62
     0
370
     0
100
AcDbLine
 10
20.341281041
 20
52.8037146952
 30
0.0
 11
20.0734026383
 21
53.450430368
 31
0.0
  0
LINE
  5
31D
330
2EB
100
AcDbEntity
  8
0
  6
Continuous
 62
     0
370
     0
100
AcDbLine
 10
21.8720147704
 20
49.1081965652
 30
0.0
 11
22.1398931731
 21
48.4614808924
 31
0.0
  0
LINE
  5
31E
330
2EB
100
AcDbEntity
  8
0
  6
Continuous
 62
     0
370
     0
100
AcDbLine
 10
0.0
 20
29.8493077245
 30
0.0
 11
-0.9238795325
 21
30.2319911568
 31
0.0
  0
LINE
  5
31F
330
2EB
100
AcDbEntity
  8
0
  6
Continuous
 62
     0
370
     0
100
AcDbLine
 10
0.0
 20
29.8493077245
 30
0.0
 11
0.9238795325
 21
29.4666242921
 31
0.0
  0
LINE
  5
320
330
2EB
100
AcDbEntity
  8
0
  6
Continuous
 62
     0
370
     0
100
AcDbLine
 10
-1.847759065
 20
30.6146745892
 30
0.0
 11
-2.4944747378
 21
30.8825529919
 31
0.0
  0
LINE
  5
321
330
2EB
100
AcDbEntity
  8
0
  6
Continuous
 62
     0
370
     0
100
AcDbLine
 10
1.847759065
 20
29.0839408597
 30
0.0
 11
2.4944747378
 21
28.8160624571
 31
0.0
  0
LINE
  5
322
330
2EB
100
AcDbEntity
  8
0
  6
Continuous
 62
     0
370
     0
100
AcDbLine
 10
21.1066479057
 20
-21.1066479057
 30
0.0
 11
20.7239644733
 21
-22.0305274382
 31
0.0
  0
LINE
  5
323
330
2EB
100
AcDbEntity
  8
0
  6
Continuous
 62
     0
370
     0
100
AcDbLine
 10
21.1066479057
 20
-21.1066479057
 30
0.0
 11
21.4893313381
 21
-20.1827683732
 31
0.0
  0
LINE
  5
324
330
2EB
100
AcDbEntity
  8
0
  6
Continuous
 62
     0
370
     0
100
AcDbLine
 10
20.341281041
 20
-22.9544069707
 30
0.0
 11
20.0734026383
 21
-23.6011226435
 31
0.0
  0
LINE
  5
325
330
2EB
100
AcDbEntity
  8
0
  6
Continuous
 62
     0
370
     0
100
AcDbLine
 10
21.8720147704
 20
-19.2588888407
 30
0.0
 11
22.1398931731
 21
-18.6121731679
 31
0.0
  0
ENDBLK
  5
2ED
330
2EB
100
AcDbEntity
  8
0
100
AcDbBlockEnd
  0
BLOCK
  5
328
330
327
100
AcDbEntity
  8
0
100
AcDbBlockBegin
  2
SW_CENTERMARKSYMBOL_9
 70
     0
 10
0.0
 20
0.0
 30
0.0
  3
SW_CENTERMARKSYMBOL_9
  1

  0
ARC
  5
32A
330
327
100
AcDbEntity
  8
0
  6
Continuous
 62
     0
370
     0
100
AcDbCircle
 10
6.772278929
 20
-38.4075023675
 30
0.0
 40
39.0
100
AcDbArc
 50
100.0
 51
101.4691225516
  0
ARC
  5
32B
330
327
100
AcDbEntity
  8
0
  6
Continuous
 62
     0
370
     0
100
AcDbCircle
 10
6.772278929
 20
-38.4075023675
 30
0.0
 40
39.0
100
AcDbArc
 50
98.5308774484
 51
100.0
  0
ARC
  5
32C
330
327
100
AcDbEntity
  8
0
  6
Continuous
 62
     0
370
     0
100
AcDbCircle
 10
6.772278929
 20
-38.4075023675
 30
0.0
 40
39.00000000000001
100
AcDbArc
 50
102.9382451032
 51
103.3055257411
  0
ARC
  5
32D
330
327
100
AcDbEntity
  8
0
  6
Continuous
 62
     0
370
     0
100
AcDbCircle
 10
6.772278929
 20
-38.4075023675
 30
0.0
 40
39.00000000000001
100
AcDbArc
 50
96.6944742589
 51
97.0617548968
  0
LINE
  5
32E
330
327
100
AcDbEntity
  8
0
  6
Continuous
 62
     0
370
     0
100
AcDbLine
 10
0.0
 20
0.0
 30
0.0
 11
-0.1736481777
 21
0.984807753
 31
0.0
  0
LINE
  5
32F
330
327
100
AcDbEntity
  8
0
  6
Continuous
 62
     0
370
     0
100
AcDbLine
 10
0.0
 20
0.0
 30
0.0
 11
0.1736481777
 21
-0.984807753
 31
0.0
  0
LINE
  5
330
330
327
100
AcDbEntity
  8
0
  6
Continuous
 62
     0
370
     0
100
AcDbLine
 10
-0.3472963553
 20
1.969615506
 30
0.0
 11
-0.3907083998
 21
2.2158174443
 31
0.0
  0
LINE
  5
331
330
327
100
AcDbEntity
  8
0
  6
Continuous
 62
     0
370
     0
100
AcDbLine
 10
0.3472963553
 20
-1.969615506
 30
0.0
 11
0.3907083998
 21
-2.2158174443
 31
0.0
  0
ENDBLK
  5
329
330
327
100
AcDbEntity
  8
0
100
AcDbBlockEnd
  0
ENDSEC
  0
SECTION
  2
ENTITIES
  0
HATCH
  5
78
330
1F
100
AcDbEntity
  8
0
  6
Continuous
 62
     7
100
AcDbHatch
 10
0.0
 20
0.0
 30
0.0
210
0.0
220
0.0
230
1.0
  2
ANSI31
 70
     0
 71
     0
 91
        1
 92
        0
 93
        3
 72
     1
 10
211.3369240125399
 20
296.9357798165137
 11
209.0275229357797
 21
292.9357798165139
 72
     1
 10
209.0275229357797
 20
292.9357798165139
 11
206.7181218590195
 21
296.9357798165137
 72
     1
 10
206.7181218590195
 20
296.9357798165137
 11
211.3369240125399
 21
296.9357798165137
 97
        0
 75
     0
 76
     1
 52
360.0
 41
0.0037200074
 77
     0
 78
     1
 53
405.0000000000007
 43
0.0
 44
0.0
 45
-0.0083516548959042
 46
0.008351654895904
 79
     0
 98
        1
 10
0.0
 20
0.0
  0
LINE
  5
79
330
1F
100
AcDbEntity
  8
SLD-0
 62
     7
100
AcDbLine
 10
206.718121859
 20
296.9357798165
 30
0.0
 11
211.3369240125
 21
296.9357798165
 31
0.0
  0
LINE
  5
7A
330
1F
100
AcDbEntity
  8
1
  6
PHANTOM
 62
     7
100
AcDbLine
 10
206.718121859
 20
296.9357798165
 30
0.0
 11
211.3369240125
 21
296.9357798165
 31
0.0
  0
MTEXT
  5
7C
330
1F
100
AcDbEntity
  8
注記
100
AcDbMText
 10
78.7752314687
 20
86.3807613883
 30
0.0
 40
5.2916666667
 41
0.0
 71
     2
 72
     1
  1
FLA-14A-xxFB-H-xx
  7
SLDTEXTSTYLE0
 73
     1
 44
1.0
  0
LINE
  5
7D
330
1F
100
AcDbEntity
  8
0
  6
Continuous
 62
     7
370
    30
100
AcDbLine
 10
77.9946375355
 20
209.6691412646
 30
0.0
 11
77.9946375355
 21
202.0376956416
 31
0.0
  0
LINE
  5
7E
330
1F
100
AcDbEntity
  8
0
  6
Continuous
 62
     7
370
    30
100
AcDbLine
 10
79.4746375355
 20
202.1284205801
 30
0.0
 11
79.4746375355
 21
209.6691412646
 31
0.0
  0
LINE
  5
7F
330
1F
100
AcDbEntity
  8
0
  6
Continuous
 62
     7
370
    30
100
AcDbLine
 10
79.1346375355
 20
209.6691412646
 30
0.0
 11
79.1346375355
 21
214.6691412646
 31
0.0
  0
LINE
  5
80
330
1F
100
AcDbEntity
  8
0
  6
Continuous
 62
     7
370
    30
100
AcDbLine
 10
80.5946375355
 20
209.6691412646
 30
0.0
 11
80.5946375355
 21
202.1626984232
 31
0.0
  0
LINE
  5
81
330
1F
100
AcDbEntity
  8
0
  6
Continuous
 62
     7
370
    30
100
AcDbLine
 10
82.0746375355
 20
202.1626984232
 30
0.0
 11
82.0746375355
 21
209.6691412646
 31
0.0
  0
LINE
  5
82
330
1F
100
AcDbEntity
  8
0
  6
Continuous
 62
     7
370
    30
100
AcDbLine
 10
81.7346375355
 20
209.6691412646
 30
0.0
 11
81.7346375355
 21
214.6691412646
 31
0.0
  0
LINE
  5
83
330
1F
100
AcDbEntity
  8
0
  6
Continuous
 62
     7
370
    30
100
AcDbLine
 10
80.9346375355
 20
214.6691412646
 30
0.0
 11
80.9346375355
 21
209.6691412646
 31
0.0
  0
LINE
  5
84
330
1F
100
AcDbEntity
  8
0
  6
Continuous
 62
     7
370
    30
100
AcDbLine
 10
76.7296375355
 20
209.6691412646
 30
0.0
 11
76.7296375355
 21
201.9189220332
 31
0.0
  0
LINE
  5
85
330
1F
100
AcDbEntity
  8
0
  6
Continuous
 62
     7
370
    30
100
AcDbLine
 10
77.5396375355
 20
201.9993665769
 30
0.0
 11
77.5396375355
 21
209.6691412646
 31
0.0
  0
LINE
  5
86
330
1F
100
AcDbEntity
  8
0
  6
Continuous
 62
     7
370
    30
100
AcDbLine
 10
77.3346375355
 20
209.6691412646
 30
0.0
 11
77.3346375355
 21
214.6691412646
 31
0.0
  0
LINE
  5
87
330
1F
100
AcDbEntity
  8
0
  6
Continuous
 62
     7
370
    30
100
AcDbLine
 10
76.9346375355
 20
214.6691412646
 30
0.0
 11
76.9346375355
 21
209.6691412646
 31
0.0
  0
LINE
  5
88
330
1F
100
AcDbEntity
  8
0
  6
Continuous
 62
     7
370
    30
100
AcDbLine
 10
83.1946375355
 20
209.6691412646
 30
0.0
 11
83.1946375355
 21
202.1284205801
 31
0.0
  0
LINE
  5
89
330
1F
100
AcDbEntity
  8
0
  6
Continuous
 62
     7
370
    30
100
AcDbLine
 10
84.6746375355
 20
202.0376956416
 30
0.0
 11
84.6746375355
 21
209.6691412646
 31
0.0
  0
LINE
  5
8A
330
1F
100
AcDbEntity
  8
0
  6
Continuous
 62
     7
370
    30
100
AcDbLine
 10
83.5346375355
 20
214.6691412646
 30
0.0
 11
83.5346375355
 21
209.6691412646
 31
0.0
  0
LINE
  5
8B
330
1F
100
AcDbEntity
  8
0
  6
Continuous
 62
     7
370
    30
100
AcDbLine
 10
78.1296375355
 20
209.6691412646
 30
0.0
 11
78.1296375355
 21
202.0481216086
 31
0.0
  0
LINE
  5
8C
330
1F
100
AcDbEntity
  8
0
  6
Continuous
 62
     7
370
    30
100
AcDbLine
 10
78.9396375355
 20
202.1016049568
 30
0.0
 11
78.9396375355
 21
209.6691412646
 31
0.0
  0
LINE
  5
8D
330
1F
100
AcDbEntity
  8
0
  6
Continuous
 62
     7
370
    30
100
AcDbLine
 10
78.7346375355
 20
209.6691412646
 30
0.0
 11
78.7346375355
 21
214.6691412646
 31
0.0
  0
LINE
  5
8E
330
1F
100
AcDbEntity
  8
0
  6
Continuous
 62
     7
370
    30
100
AcDbLine
 10
78.3346375355
 20
214.6691412646
 30
0.0
 11
78.3346375355
 21
209.6691412646
 31
0.0
  0
LINE
  5
8F
330
1F
100
AcDbEntity
  8
0
  6
Continuous
 62
     7
370
    30
100
AcDbLine
 10
82.3296375355
 20
209.6691412646
 30
0.0
 11
82.3296375355
 21
202.1574923152
 31
0.0
  0
LINE
  5
90
330
1F
100
AcDbEntity
  8
0
  6
Continuous
 62
     7
370
    30
100
AcDbLine
 10
83.1396375355
 20
202.1307942587
 30
0.0
 11
83.1396375355
 21
209.6691412646
 31
0.0
  0
LINE
  5
91
330
1F
100
AcDbEntity
  8
0
  6
Continuous
 62
     7
370
    30
100
AcDbLine
 10
82.9346375355
 20
209.6691412646
 30
0.0
 11
82.9346375355
 21
214.6691412646
 31
0.0
  0
LINE
  5
92
330
1F
100
AcDbEntity
  8
0
  6
Continuous
 62
     7
370
    30
100
AcDbLine
 10
82.5346375355
 20
214.6691412646
 30
0.0
 11
82.5346375355
 21
209.6691412646
 31
0.0
  0
LINE
  5
93
330
1F
100
AcDbEntity
  8
0
  6
Continuous
 62
     7
370
    30
100
AcDbLine
 10
83.7296375355
 20
209.6691412646
 30
0.0
 11
83.7296375355
 21
202.1016049568
 31
0.0
  0
LINE
  5
94
330
1F
100
AcDbEntity
  8
0
  6
Continuous
 62
     7
370
    30
100
AcDbLine
 10
84.5396375355
 20
202.0481216086
 30
0.0
 11
84.5396375355
 21
209.6691412646
 31
0.0
  0
LINE
  5
95
330
1F
100
AcDbEntity
  8
0
  6
Continuous
 62
     7
370
    30
100
AcDbLine
 10
84.3346375355
 20
209.6691412646
 30
0.0
 11
84.3346375355
 21
214.6691412646
 31
0.0
  0
LINE
  5
96
330
1F
100
AcDbEntity
  8
0
  6
Continuous
 62
     7
370
    30
100
AcDbLine
 10
83.9346375355
 20
214.6691412646
 30
0.0
 11
83.9346375355
 21
209.6691412646
 31
0.0
  0
LINE
  5
97
330
1F
100
AcDbEntity
  8
0
  6
Continuous
 62
     7
370
    30
100
AcDbLine
 10
79.5296375355
 20
209.6691412646
 30
0.0
 11
79.5296375355
 21
202.1307942587
 31
0.0
  0
LINE
  5
98
330
1F
100
AcDbEntity
  8
0
  6
Continuous
 62
     7
370
    30
100
AcDbLine
 10
80.3396375355
 20
202.1574923152
 30
0.0
 11
80.3396375355
 21
209.6691412646
 31
0.0
  0
LINE
  5
99
330
1F
100
AcDbEntity
  8
0
  6
Continuous
 62
     7
370
    30
100
AcDbLine
 10
80.1346375355
 20
209.6691412646
 30
0.0
 11
80.1346375355
 21
214.6691412646
 31
0.0
  0
LINE
  5
9A
330
1F
100
AcDbEntity
  8
0
  6
Continuous
 62
     7
370
    30
100
AcDbLine
 10
79.7346375355
 20
214.6691412646
 30
0.0
 11
79.7346375355
 21
209.6691412646
 31
0.0
  0
LINE
  5
9B
330
1F
100
AcDbEntity
  8
0
  6
Continuous
 62
     7
370
    30
100
AcDbLine
 10
85.1296375355
 20
209.6691412646
 30
0.0
 11
85.1296375355
 21
201.9993665769
 31
0.0
  0
LINE
  5
9C
330
1F
100
AcDbEntity
  8
0
  6
Continuous
 62
     7
370
    30
100
AcDbLine
 10
85.9396375355
 20
201.9189220332
 30
0.0
 11
85.9396375355
 21
209.6691412646
 31
0.0
  0
LINE
  5
9D
330
1F
100
AcDbEntity
  8
0
  6
Continuous
 62
     7
370
    30
100
AcDbLine
 10
85.7346375355
 20
209.6691412646
 30
0.0
 11
85.7346375355
 21
214.6691412646
 31
0.0
  0
LINE
  5
9E
330
1F
100
AcDbEntity
  8
0
  6
Continuous
 62
     7
370
    30
100
AcDbLine
 10
85.3346375355
 20
214.6691412646
 30
0.0
 11
85.3346375355
 21
209.6691412646
 31
0.0
  0
CIRCLE
  5
9F
330
1F
100
AcDbEntity
  8
0
  6
Continuous
 62
     7
370
    30
100
AcDbCircle
 10
81.3346375355
 20
159.6691412646
 30
0.0
 40
35.01272467535892
  0
CIRCLE
  5
A0
330
1F
100
AcDbEntity
  8
0
  6
Continuous
 62
     7
370
    30
100
AcDbCircle
 10
81.3346375355
 20
159.6691412646
 30
0.0
 40
35.41272467535893
  0
CIRCLE
  5
A1
330
1F
100
AcDbEntity
  8
0
  6
Continuous
 62
     7
370
    30
100
AcDbCircle
 10
81.3346375355
 20
159.6691412646
 30
0.0
 40
33.09999999999999
  0
CIRCLE
  5
A2
330
1F
100
AcDbEntity
  8
0
  6
Continuous
 62
     7
370
    30
100
AcDbCircle
 10
81.3346375355
 20
159.6691412646
 30
0.0
 40
35.49999999999996
  0
CIRCLE
  5
A3
330
1F
100
AcDbEntity
  8
0
  6
Continuous
 62
     7
370
    30
100
AcDbCircle
 10
81.3346375355
 20
159.6691412646
 30
0.0
 40
35.69999999999998
  0
CIRCLE
  5
A4
330
1F
100
AcDbEntity
  8
0
  6
Continuous
 62
     7
370
    30
100
AcDbCircle
 10
81.3346375355
 20
159.6691412646
 30
0.0
 40
36.0
  0
CIRCLE
  5
A5
330
1F
100
AcDbEntity
  8
0
  6
Continuous
 62
     7
370
    30
100
AcDbCircle
 10
66.4099836733
 20
195.7004430326
 30
0.0
 40
2.050000000000001
  0
CIRCLE
  5
A6
330
1F
100
AcDbEntity
  8
0
  6
Continuous
 62
     7
370
    30
100
AcDbCircle
 10
96.2592913977
 20
195.7004430326
 30
0.0
 40
2.050000000000001
  0
CIRCLE
  5
A7
330
1F
100
AcDbEntity
  8
0
  6
Continuous
 62
     7
370
    30
100
AcDbCircle
 10
117.3659393034
 20
174.5937951269
 30
0.0
 40
2.050000000000001
  0
CIRCLE
  5
A8
330
1F
100
AcDbEntity
  8
0
  6
Continuous
 62
     7
370
    30
100
AcDbCircle
 10
117.3659393034
 20
144.7444874024
 30
0.0
 40
2.04999999999999
  0
CIRCLE
  5
A9
330
1F
100
AcDbEntity
  8
0
  6
Continuous
 62
     7
370
    30
100
AcDbCircle
 10
96.2592913977
 20
123.6378394967
 30
0.0
 40
2.050000000000001
  0
CIRCLE
  5
AA
330
1F
100
AcDbEntity
  8
0
  6
Continuous
 62
     7
370
    30
100
AcDbCircle
 10
66.4099836733
 20
123.6378394967
 30
0.0
 40
2.050000000000001
  0
CIRCLE
  5
AB
330
1F
100
AcDbEntity
  8
0
  6
Continuous
 62
     7
370
    30
100
AcDbCircle
 10
45.3033357676
 20
144.7444874024
 30
0.0
 40
2.050000000000007
  0
CIRCLE
  5
AC
330
1F
100
AcDbEntity
  8
0
  6
Continuous
 62
     7
370
    30
100
AcDbCircle
 10
45.3033357676
 20
174.5937951269
 30
0.0
 40
2.050000000000007
  0
CIRCLE
  5
AD
330
1F
100
AcDbEntity
  8
0
  6
Continuous
 62
     7
370
    30
100
AcDbCircle
 10
51.4589042539
 20
184.7378580424
 30
0.0
 40
1.799999999999987
  0
CIRCLE
  5
AE
330
1F
100
AcDbEntity
  8
0
  6
Continuous
 62
     7
370
    30
100
AcDbCircle
 10
106.4033543133
 20
189.5448745463
 30
0.0
 40
1.8
  0
CIRCLE
  5
AF
330
1F
100
AcDbEntity
  8
0
  6
Continuous
 62
     7
370
    30
100
AcDbCircle
 10
111.2103708171
 20
134.6004244869
 30
0.0
 40
1.799999999999987
  0
CIRCLE
  5
B0
330
1F
100
AcDbEntity
  8
0
  6
Continuous
 62
     7
370
    30
100
AcDbCircle
 10
56.2659207577
 20
129.793407983
 30
0.0
 40
1.799999999999998
  0
CIRCLE
  5
B1
330
1F
100
AcDbEntity
  8
0
  6
Continuous
 62
     7
370
    30
100
AcDbCircle
 10
81.3346375355
 20
159.6691412646
 30
0.0
 40
42.19999999999995
  0
CIRCLE
  5
B2
330
1F
100
AcDbEntity
  8
0
  6
Continuous
 62
     7
370
    30
100
AcDbCircle
 10
45.3033357676
 20
144.7444874024
 30
0.0
 40
1.749999999999994
  0
CIRCLE
  5
B3
330
1F
100
AcDbEntity
  8
0
  6
Continuous
 62
     7
370
    30
100
AcDbCircle
 10
45.3033357676
 20
174.5937951269
 30
0.0
 40
1.750000000000022
  0
CIRCLE
  5
B4
330
1F
100
AcDbEntity
  8
0
  6
Continuous
 62
     7
370
    30
100
AcDbCircle
 10
56.2659207577
 20
129.793407983
 30
0.0
 40
1.250000000000006
  0
CIRCLE
  5
B5
330
1F
100
AcDbEntity
  8
0
  6
Continuous
 62
     7
370
    30
100
AcDbCircle
 10
117.3659393034
 20
144.7444874024
 30
0.0
 40
1.750000000000007
  0
CIRCLE
  5
B6
330
1F
100
AcDbEntity
  8
0
  6
Continuous
 62
     7
370
    30
100
AcDbCircle
 10
81.3346375355
 20
159.6691412646
 30
0.0
 40
42.50000000000001
  0
CIRCLE
  5
B7
330
1F
100
AcDbEntity
  8
0
  6
Continuous
 62
     7
370
    30
100
AcDbCircle
 10
66.4099836733
 20
123.6378394967
 30
0.0
 40
1.750000000000013
  0
CIRCLE
  5
B8
330
1F
100
AcDbEntity
  8
0
  6
Continuous
 62
     7
370
    30
100
AcDbCircle
 10
51.4589042539
 20
184.7378580424
 30
0.0
 40
1.249999999999995
  0
CIRCLE
  5
B9
330
1F
100
AcDbEntity
  8
0
  6
Continuous
 62
     7
370
    30
100
AcDbCircle
 10
96.2592913977
 20
123.6378394967
 30
0.0
 40
1.749999999999986
  0
CIRCLE
  5
BA
330
1F
100
AcDbEntity
  8
0
  6
Continuous
 62
     7
370
    30
100
AcDbCircle
 10
106.4033543133
 20
189.5448745463
 30
0.0
 40
1.249999999999988
  0
CIRCLE
  5
BB
330
1F
100
AcDbEntity
  8
0
  6
Continuous
 62
     7
370
    30
100
AcDbCircle
 10
117.3659393034
 20
174.5937951269
 30
0.0
 40
1.749999999999994
  0
CIRCLE
  5
BC
330
1F
100
AcDbEntity
  8
0
  6
Continuous
 62
     7
370
    30
100
AcDbCircle
 10
96.2592913977
 20
195.7004430326
 30
0.0
 40
1.750000000000005
  0
CIRCLE
  5
BD
330
1F
100
AcDbEntity
  8
0
  6
Continuous
 62
     7
370
    30
100
AcDbCircle
 10
66.4099836733
 20
195.7004430326
 30
0.0
 40
1.749999999999994
  0
CIRCLE
  5
BE
330
1F
100
AcDbEntity
  8
0
  6
Continuous
 62
     7
370
    30
100
AcDbCircle
 10
111.2103708171
 20
134.6004244869
 30
0.0
 40
1.250000000000001
  0
CIRCLE
  5
BF
330
1F
100
AcDbEntity
  8
0
  6
Continuous
 62
     7
370
    30
100
AcDbCircle
 10
81.3346375355
 20
159.6691412646
 30
0.0
 40
16.57735026918962
  0
CIRCLE
  5
C0
330
1F
100
AcDbEntity
  8
0
  6
Continuous
 62
     7
370
    30
100
AcDbCircle
 10
65.4247349588
 20
175.5790438413
 30
0.0
 40
1.249999999999986
  0
CIRCLE
  5
C1
330
1F
100
AcDbEntity
  8
0
  6
Continuous
 62
     7
370
    30
100
AcDbCircle
 10
58.8346375355
 20
159.6691412646
 30
0.0
 40
1.249999999999986
  0
CIRCLE
  5
C2
330
1F
100
AcDbEntity
  8
0
  6
Continuous
 62
     7
370
    30
100
AcDbCircle
 10
89.9450147637
 20
180.4564307461
 30
0.0
 40
1.5
  0
CIRCLE
  5
C3
330
1F
100
AcDbEntity
  8
0
  6
Continuous
 62
     7
370
    30
100
AcDbCircle
 10
81.3346375355
 20
182.1691412646
 30
0.0
 40
1.249999999999986
  0
CIRCLE
  5
C4
330
1F
100
AcDbEntity
  8
0
  6
Continuous
 62
     7
370
    30
100
AcDbCircle
 10
65.4247349588
 20
143.7592386879
 30
0.0
 40
1.249999999999986
  0
CIRCLE
  5
C5
330
1F
100
AcDbEntity
  8
0
  6
Continuous
 62
     7
370
    30
100
AcDbCircle
 10
97.2445401122
 20
143.7592386879
 30
0.0
 40
1.25
  0
CIRCLE
  5
C6
330
1F
100
AcDbEntity
  8
0
  6
Continuous
 62
     7
370
    30
100
AcDbCircle
 10
103.8346375355
 20
159.6691412646
 30
0.0
 40
1.249999999999972
  0
CIRCLE
  5
C7
330
1F
100
AcDbEntity
  8
0
  6
Continuous
 62
     7
370
    30
100
AcDbCircle
 10
81.3346375355
 20
137.1691412646
 30
0.0
 40
1.249999999999986
  0
CIRCLE
  5
C8
330
1F
100
AcDbEntity
  8
0
  6
Continuous
 62
     7
370
    30
100
AcDbCircle
 10
97.2445401122
 20
175.5790438413
 30
0.0
 40
1.249999999999986
  0
CIRCLE
  5
C9
330
1F
100
AcDbEntity
  8
0
  6
Continuous
 62
     7
370
    30
100
AcDbCircle
 10
81.3346375355
 20
159.6691412646
 30
0.0
 40
27.0
  0
CIRCLE
  5
CA
330
1F
100
AcDbEntity
  8
0
  6
Continuous
 62
     7
370
    30
100
AcDbCircle
 10
81.3346375355
 20
159.6691412646
 30
0.0
 40
16.0
  0
CIRCLE
  5
CB
330
1F
100
AcDbEntity
  8
0
  6
Continuous
 62
     7
370
    30
100
AcDbCircle
 10
111.2103708171
 20
134.6004244869
 30
0.0
 40
1.229500000000009
  0
CIRCLE
  5
CC
330
1F
100
AcDbEntity
  8
0
  6
Continuous
 62
     7
370
    30
100
AcDbCircle
 10
56.2659207577
 20
129.793407983
 30
0.0
 40
1.229499999999989
  0
CIRCLE
  5
CD
330
1F
100
AcDbEntity
  8
0
  6
Continuous
 62
     7
370
    30
100
AcDbCircle
 10
106.4033543133
 20
189.5448745463
 30
0.0
 40
1.2295
  0
CIRCLE
  5
CE
330
1F
100
AcDbEntity
  8
0
  6
Continuous
 62
     7
370
    30
100
AcDbCircle
 10
51.4589042539
 20
184.7378580424
 30
0.0
 40
1.229500000000005
  0
CIRCLE
  5
CF
330
1F
100
AcDbEntity
  8
0
  6
Continuous
 62
     7
370
    30
100
AcDbCircle
 10
81.3346375355
 20
159.6691412646
 30
0.0
 40
31.95017662390524
  0
CIRCLE
  5
D0
330
1F
100
AcDbEntity
  8
0
  6
Continuous
 62
     7
370
    30
100
AcDbCircle
 10
81.3346375355
 20
159.6691412646
 30
0.0
 40
32.20000000000003
  0
CIRCLE
  5
D1
330
1F
100
AcDbEntity
  8
0
  6
Continuous
 62
     7
370
    30
100
AcDbCircle
 10
81.3346375355
 20
159.6691412646
 30
0.0
 40
32.60000000000001
  0
CIRCLE
  5
D2
330
1F
100
AcDbEntity
  8
0
  6
Continuous
 62
     7
370
    30
100
AcDbCircle
 10
81.3346375355
 20
159.6691412646
 30
0.0
 40
30.08350995723858
  0
CIRCLE
  5
D3
330
1F
100
AcDbEntity
  8
0
  6
Continuous
 62
     7
370
    30
100
AcDbCircle
 10
81.3346375355
 20
159.6691412646
 30
0.0
 40
27.11666666666666
  0
CIRCLE
  5
D4
330
1F
100
AcDbEntity
  8
0
  6
Continuous
 62
     7
370
    30
100
AcDbCircle
 10
81.3346375355
 20
159.6691412646
 30
0.0
 40
27.6516722542346
  0
CIRCLE
  5
D5
330
1F
100
AcDbEntity
  8
0
  6
Continuous
 62
     7
370
    30
100
AcDbCircle
 10
117.3659393034
 20
174.5937951269
 30
0.0
 40
1.699999999999974
  0
CIRCLE
  5
D6
330
1F
100
AcDbEntity
  8
0
  6
Continuous
 62
     7
370
    30
100
AcDbCircle
 10
45.3033357676
 20
144.7444874024
 30
0.0
 40
1.699999999999982
  0
CIRCLE
  5
D7
330
1F
100
AcDbEntity
  8
0
  6
Continuous
 62
     7
370
    30
100
AcDbCircle
 10
66.4099836733
 20
123.6378394967
 30
0.0
 40
1.699999999999989
  0
CIRCLE
  5
D8
330
1F
100
AcDbEntity
  8
0
  6
Continuous
 62
     7
370
    30
100
AcDbCircle
 10
96.2592913977
 20
195.7004430326
 30
0.0
 40
1.699999999999974
  0
CIRCLE
  5
D9
330
1F
100
AcDbEntity
  8
0
  6
Continuous
 62
     7
370
    30
100
AcDbCircle
 10
117.3659393034
 20
144.7444874024
 30
0.0
 40
1.699999999999974
  0
CIRCLE
  5
DA
330
1F
100
AcDbEntity
  8
0
  6
Continuous
 62
     7
370
    30
100
AcDbCircle
 10
66.4099836733
 20
195.7004430326
 30
0.0
 40
1.699999999999989
  0
CIRCLE
  5
DB
330
1F
100
AcDbEntity
  8
0
  6
Continuous
 62
     7
370
    30
100
AcDbCircle
 10
96.2592913977
 20
123.6378394967
 30
0.0
 40
1.700000000000003
  0
CIRCLE
  5
DC
330
1F
100
AcDbEntity
  8
0
  6
Continuous
 62
     7
370
    30
100
AcDbCircle
 10
45.3033357676
 20
174.5937951269
 30
0.0
 40
1.699999999999989
  0
LINE
  5
DD
330
1F
100
AcDbEntity
  8
0
  6
Continuous
 62
     7
370
    30
100
AcDbLine
 10
78.9396375355
 20
209.6691412646
 30
0.0
 11
79.4746375355
 21
209.6691412646
 31
0.0
  0
LINE
  5
DE
330
1F
100
AcDbEntity
  8
0
  6
Continuous
 62
     7
370
    30
100
AcDbLine
 10
77.9946375355
 20
209.6691412646
 30
0.0
 11
78.1296375355
 21
209.6691412646
 31
0.0
  0
LINE
  5
DF
330
1F
100
AcDbEntity
  8
0
  6
Continuous
 62
     7
370
    30
100
AcDbLine
 10
78.7346375355
 20
214.6691412646
 30
0.0
 11
79.1346375355
 21
214.6691412646
 31
0.0
  0
LINE
  5
E0
330
1F
100
AcDbEntity
  8
0
  6
Continuous
 62
     7
370
    30
100
AcDbLine
 10
81.3346375355
 20
209.6691412646
 30
0.0
 11
82.0746375355
 21
209.6691412646
 31
0.0
  0
LINE
  5
E1
330
1F
100
AcDbEntity
  8
0
  6
Continuous
 62
     7
370
    30
100
AcDbLine
 10
80.5946375355
 20
209.6691412646
 30
0.0
 11
81.3346375355
 21
209.6691412646
 31
0.0
  0
LINE
  5
E2
330
1F
100
AcDbEntity
  8
0
  6
Continuous
 62
     7
370
    30
100
AcDbLine
 10
81.3346375355
 20
214.6691412646
 30
0.0
 11
81.7346375355
 21
214.6691412646
 31
0.0
  0
LINE
  5
E3
330
1F
100
AcDbEntity
  8
0
  6
Continuous
 62
     7
370
    30
100
AcDbLine
 10
80.9346375355
 20
214.6691412646
 30
0.0
 11
81.3346375355
 21
214.6691412646
 31
0.0
  0
LINE
  5
E4
330
1F
100
AcDbEntity
  8
0
  6
Continuous
 62
     7
370
    30
100
AcDbLine
 10
77.1346375355
 20
209.6691412646
 30
0.0
 11
77.5396375355
 21
209.6691412646
 31
0.0
  0
LINE
  5
E5
330
1F
100
AcDbEntity
  8
0
  6
Continuous
 62
     7
370
    30
100
AcDbLine
 10
76.7296375355
 20
209.6691412646
 30
0.0
 11
77.1346375355
 21
209.6691412646
 31
0.0
  0
LINE
  5
E6
330
1F
100
AcDbEntity
  8
0
  6
Continuous
 62
     7
370
    30
100
AcDbLine
 10
77.1346375355
 20
214.6691412646
 30
0.0
 11
77.3346375355
 21
214.6691412646
 31
0.0
  0
LINE
  5
E7
330
1F
100
AcDbEntity
  8
0
  6
Continuous
 62
     7
370
    30
100
AcDbLine
 10
76.9346375355
 20
214.6691412646
 30
0.0
 11
77.1346375355
 21
214.6691412646
 31
0.0
  0
LINE
  5
E8
330
1F
100
AcDbEntity
  8
0
  6
Continuous
 62
     7
370
    30
100
AcDbLine
 10
84.5396375355
 20
209.6691412646
 30
0.0
 11
84.6746375355
 21
209.6691412646
 31
0.0
  0
LINE
  5
E9
330
1F
100
AcDbEntity
  8
0
  6
Continuous
 62
     7
370
    30
100
AcDbLine
 10
83.1946375355
 20
209.6691412646
 30
0.0
 11
83.7296375355
 21
209.6691412646
 31
0.0
  0
LINE
  5
EA
330
1F
100
AcDbEntity
  8
0
  6
Continuous
 62
     7
370
    30
100
AcDbLine
 10
83.5346375355
 20
214.6691412646
 30
0.0
 11
83.9346375355
 21
214.6691412646
 31
0.0
  0
LINE
  5
EB
330
1F
100
AcDbEntity
  8
0
  6
Continuous
 62
     7
370
    30
100
AcDbLine
 10
78.5346375355
 20
209.6691412646
 30
0.0
 11
78.9396375355
 21
209.6691412646
 31
0.0
  0
LINE
  5
EC
330
1F
100
AcDbEntity
  8
0
  6
Continuous
 62
     7
370
    30
100
AcDbLine
 10
78.1296375355
 20
209.6691412646
 30
0.0
 11
78.5346375355
 21
209.6691412646
 31
0.0
  0
LINE
  5
ED
330
1F
100
AcDbEntity
  8
0
  6
Continuous
 62
     7
370
    30
100
AcDbLine
 10
78.5346375355
 20
214.6691412646
 30
0.0
 11
78.7346375355
 21
214.6691412646
 31
0.0
  0
LINE
  5
EE
330
1F
100
AcDbEntity
  8
0
  6
Continuous
 62
     7
370
    30
100
AcDbLine
 10
78.3346375355
 20
214.6691412646
 30
0.0
 11
78.5346375355
 21
214.6691412646
 31
0.0
  0
LINE
  5
EF
330
1F
100
AcDbEntity
  8
0
  6
Continuous
 62
     7
370
    30
100
AcDbLine
 10
82.7346375355
 20
209.6691412646
 30
0.0
 11
83.1396375355
 21
209.6691412646
 31
0.0
  0
LINE
  5
F0
330
1F
100
AcDbEntity
  8
0
  6
Continuous
 62
     7
370
    30
100
AcDbLine
 10
82.3296375355
 20
209.6691412646
 30
0.0
 11
82.7346375355
 21
209.6691412646
 31
0.0
  0
LINE
  5
F1
330
1F
100
AcDbEntity
  8
0
  6
Continuous
 62
     7
370
    30
100
AcDbLine
 10
82.7346375355
 20
214.6691412646
 30
0.0
 11
82.9346375355
 21
214.6691412646
 31
0.0
  0
LINE
  5
F2
330
1F
100
AcDbEntity
  8
0
  6
Continuous
 62
     7
370
    30
100
AcDbLine
 10
82.5346375355
 20
214.6691412646
 30
0.0
 11
82.7346375355
 21
214.6691412646
 31
0.0
  0
LINE
  5
F3
330
1F
100
AcDbEntity
  8
0
  6
Continuous
 62
     7
370
    30
100
AcDbLine
 10
84.1346375355
 20
209.6691412646
 30
0.0
 11
84.5396375355
 21
209.6691412646
 31
0.0
  0
LINE
  5
F4
330
1F
100
AcDbEntity
  8
0
  6
Continuous
 62
     7
370
    30
100
AcDbLine
 10
83.7296375355
 20
209.6691412646
 30
0.0
 11
84.1346375355
 21
209.6691412646
 31
0.0
  0
LINE
  5
F5
330
1F
100
AcDbEntity
  8
0
  6
Continuous
 62
     7
370
    30
100
AcDbLine
 10
84.1346375355
 20
214.6691412646
 30
0.0
 11
84.3346375355
 21
214.6691412646
 31
0.0
  0
LINE
  5
F6
330
1F
100
AcDbEntity
  8
0
  6
Continuous
 62
     7
370
    30
100
AcDbLine
 10
83.9346375355
 20
214.6691412646
 30
0.0
 11
84.1346375355
 21
214.6691412646
 31
0.0
  0
LINE
  5
F7
330
1F
100
AcDbEntity
  8
0
  6
Continuous
 62
     7
370
    30
100
AcDbLine
 10
79.9346375355
 20
209.6691412646
 30
0.0
 11
80.3396375355
 21
209.6691412646
 31
0.0
  0
LINE
  5
F8
330
1F
100
AcDbEntity
  8
0
  6
Continuous
 62
     7
370
    30
100
AcDbLine
 10
79.5296375355
 20
209.6691412646
 30
0.0
 11
79.9346375355
 21
209.6691412646
 31
0.0
  0
LINE
  5
F9
330
1F
100
AcDbEntity
  8
0
  6
Continuous
 62
     7
370
    30
100
AcDbLine
 10
79.9346375355
 20
214.6691412646
 30
0.0
 11
80.1346375355
 21
214.6691412646
 31
0.0
  0
LINE
  5
FA
330
1F
100
AcDbEntity
  8
0
  6
Continuous
 62
     7
370
    30
100
AcDbLine
 10
79.7346375355
 20
214.6691412646
 30
0.0
 11
79.9346375355
 21
214.6691412646
 31
0.0
  0
LINE
  5
FB
330
1F
100
AcDbEntity
  8
0
  6
Continuous
 62
     7
370
    30
100
AcDbLine
 10
85.5346375355
 20
209.6691412646
 30
0.0
 11
85.9396375355
 21
209.6691412646
 31
0.0
  0
LINE
  5
FC
330
1F
100
AcDbEntity
  8
0
  6
Continuous
 62
     7
370
    30
100
AcDbLine
 10
85.1296375355
 20
209.6691412646
 30
0.0
 11
85.5346375355
 21
209.6691412646
 31
0.0
  0
LINE
  5
FD
330
1F
100
AcDbEntity
  8
0
  6
Continuous
 62
     7
370
    30
100
AcDbLine
 10
85.5346375355
 20
214.6691412646
 30
0.0
 11
85.7346375355
 21
214.6691412646
 31
0.0
  0
LINE
  5
FE
330
1F
100
AcDbEntity
  8
0
  6
Continuous
 62
     7
370
    30
100
AcDbLine
 10
85.3346375355
 20
214.6691412646
 30
0.0
 11
85.5346375355
 21
214.6691412646
 31
0.0
  0
SPLINE
  5
FF
330
1F
100
AcDbEntity
  8
0
  6
Continuous
 62
     1
370
    15
100
AcDbSpline
210
0.0
220
0.0
230
1.0
 70
     8
 71
     3
 72
     8
 73
     4
 74
     0
 42
0.000000001
 43
0.00000001
 40
0.0
 40
0.0
 40
0.0
 40
0.0
 40
1.0
 40
1.0
 40
1.0
 40
1.0
 10
75.75474675009448
 20
208.7436803191895
 30
0.0
 10
79.49676578516718
 20
205.5756444884417
 30
0.0
 10
83.81461121408591
 20
210.9250164389814
 30
0.0
 10
87.78487617176053
 20
207.6520995777151
 30
0.0
  0
SPLINE
  5
100
330
1F
100
AcDbEntity
  8
0
  6
Continuous
 62
     1
370
    15
100
AcDbSpline
210
0.0
220
0.0
230
1.0
 70
     8
 71
     3
 72
    17
 73
    13
 74
     0
 42
0.000000001
 43
0.00000001
 40
0.0
 40
0.0
 40
0.0
 40
0.0
 40
0.0625
 40
0.125
 40
0.25
 40
0.375
 40
0.5
 40
0.625
 40
0.75
 40
0.875
 40
0.9375
 40
1.0
 40
1.0
 40
1.0
 40
1.0
 10
75.43167389633918
 20
208.3620732815626
 30
0.0
 10
75.67544420000883
 20
208.1556945728336
 30
0.0
 10
76.21674975210207
 20
207.7746525389294
 30
0.0
 10
77.28884242890246
 20
207.3020269907826
 30
0.0
 10
78.66646927678943
 20
207.1238818010949
 30
0.0
 10
80.26428683598152
 20
207.3480105570713
 30
0.0
 10
81.8178893210444
 20
207.7568873378977
 30
0.0
 10
83.32559004373039
 20
208.1446113166658
 30
0.0
 10
84.76505632421733
 20
208.3206898385759
 30
0.0
 10
85.90131099120966
 20
208.153633434943
 30
0.0
 10
86.78304617430858
 20
207.766551875405
 30
0.0
 10
87.25551084406729
 20
207.4404955939895
 30
0.0
 10
87.46683225969419
 20
207.2662912444749
 30
0.0
  0
INSERT
  5
13C
330
1F
100
AcDbEntity
  8
0
  6
Continuous
 62
     7
370
     0
100
AcDbBlockReference
  2
SW_CENTERMARKSYMBOL_0
 10
66.4099836733
 20
195.7004430326
 30
0.0
  0
INSERT
  5
160
330
1F
100
AcDbEntity
  8
0
  6
Continuous
 62
     7
370
     0
100
AcDbBlockReference
  2
SW_CENTERMARKSYMBOL_1
 10
51.4589042539
 20
184.7378580424
 30
0.0
  0
INSERT
  5
19C
330
1F
100
AcDbEntity
  8
0
  6
Continuous
 62
     7
370
     0
100
AcDbBlockReference
  2
SW_CENTERMARKSYMBOL_2
 10
81.3346375355
 20
182.1691412646
 30
0.0
  0
INSERT
  5
1A8
330
1F
100
AcDbEntity
  8
0
  6
Continuous
 62
     7
370
     0
100
AcDbBlockReference
  2
SW_CENTERMARKSYMBOL_3
 10
81.3346375355
 20
159.6691412646
 30
0.0
  0
INSERT
  5
1B4
330
1F
100
AcDbEntity
  8
0
  6
Continuous
 62
     7
370
     0
100
AcDbBlockReference
  2
SW_CENTERMARKSYMBOL_4
 10
89.9450147637
 20
180.4564307461
 30
0.0
  0
CIRCLE
  5
1B5
330
1F
100
AcDbEntity
  8
0
  6
Continuous
 62
     7
370
     0
100
AcDbCircle
 10
51.4589042539
 20
184.7378580424
 30
0.0
 40
1.499999637869465
  0
CIRCLE
  5
1B6
330
1F
100
AcDbEntity
  8
0
  6
Continuous
 62
     7
370
     0
100
AcDbCircle
 10
106.4033543133
 20
189.5448745463
 30
0.0
 40
1.499999614145381
  0
CIRCLE
  5
1B7
330
1F
100
AcDbEntity
  8
0
  6
Continuous
 62
     7
370
     0
100
AcDbCircle
 10
111.2103708171
 20
134.6004244869
 30
0.0
 40
1.499998991223762
  0
CIRCLE
  5
1B8
330
1F
100
AcDbEntity
  8
0
  6
Continuous
 62
     7
370
     0
100
AcDbCircle
 10
56.2659207577
 20
129.793407983
 30
0.0
 40
1.500000877593237
  0
CIRCLE
  5
1B9
330
1F
100
AcDbEntity
  8
0
  6
Continuous
 62
     7
370
     0
100
AcDbCircle
 10
106.4033543133
 20
189.5448745463
 30
0.0
 40
1.229500749829114
  0
CIRCLE
  5
1BA
330
1F
100
AcDbEntity
  8
0
  6
Continuous
 62
     7
370
     0
100
AcDbCircle
 10
111.2103708171
 20
134.6004244869
 30
0.0
 40
1.229500749828972
  0
CIRCLE
  5
1BB
330
1F
100
AcDbEntity
  8
0
  6
Continuous
 62
     7
370
     0
100
AcDbCircle
 10
56.2659207577
 20
129.793407983
 30
0.0
 40
1.229500749828844
  0
CIRCLE
  5
1BC
330
1F
100
AcDbEntity
  8
0
  6
Continuous
 62
     7
370
     0
100
AcDbCircle
 10
51.4589042539
 20
184.7378580424
 30
0.0
 40
1.229500749828709
  0
CIRCLE
  5
1BD
330
1F
100
AcDbEntity
  8
0
  6
Continuous
 62
     7
370
     0
100
AcDbCircle
 10
81.3346375355
 20
182.1691412646
 30
0.0
 40
1.500000013038772
  0
CIRCLE
  5
1BE
330
1F
100
AcDbEntity
  8
0
  6
Continuous
 62
     7
370
     0
100
AcDbCircle
 10
65.4247349588
 20
175.5790438413
 30
0.0
 40
1.499999094513214
  0
CIRCLE
  5
1BF
330
1F
100
AcDbEntity
  8
0
  6
Continuous
 62
     7
370
     0
100
AcDbCircle
 10
58.8346375355
 20
159.6691412646
 30
0.0
 40
1.500000013038864
  0
CIRCLE
  5
1C0
330
1F
100
AcDbEntity
  8
0
  6
Continuous
 62
     7
370
     0
100
AcDbCircle
 10
65.4247349588
 20
143.7592386879
 30
0.0
 40
1.499999094513313
  0
CIRCLE
  5
1C1
330
1F
100
AcDbEntity
  8
0
  6
Continuous
 62
     7
370
     0
100
AcDbCircle
 10
81.3346375355
 20
137.1691412646
 30
0.0
 40
1.500000013038772
  0
CIRCLE
  5
1C2
330
1F
100
AcDbEntity
  8
0
  6
Continuous
 62
     7
370
     0
100
AcDbCircle
 10
97.2445401122
 20
143.7592386879
 30
0.0
 40
1.499999094513385
  0
CIRCLE
  5
1C3
330
1F
100
AcDbEntity
  8
0
  6
Continuous
 62
     7
370
     0
100
AcDbCircle
 10
103.8346375355
 20
159.6691412646
 30
0.0
 40
1.500000013038999
  0
CIRCLE
  5
1C4
330
1F
100
AcDbEntity
  8
0
  6
Continuous
 62
     7
370
     0
100
AcDbCircle
 10
97.2445401122
 20
175.5790438413
 30
0.0
 40
1.49999909451347
  0
INSERT
  5
1CB
330
1F
100
AcDbEntity
  8
0
  6
Continuous
 62
     7
370
     0
100
AcDbBlockReference
  2
SW_DOWELSYMBOL_0
 10
89.9450147637
 20
180.4564307461
 30
0.0
  0
CIRCLE
  5
1CC
330
1F
100
AcDbEntity
  8
0
  6
Continuous
 62
     7
100
AcDbCircle
 10
342.6049106127
 20
198.6453835184
 30
0.0
 40
2.000000000000049
  0
LINE
  5
1CD
330
1F
100
AcDbEntity
  8
0
  6
Continuous
 62
     7
370
    30
100
AcDbLine
 10
345.8259909841
 20
209.6691412646
 30
0.0
 11
345.8259909841
 21
192.1158729952
 31
0.0
  0
LINE
  5
1CE
330
1F
100
AcDbEntity
  8
0
  6
Continuous
 62
     7
370
    30
100
AcDbLine
 10
347.3059909841
 20
191.9972207092
 30
0.0
 11
347.3059909841
 21
209.6691412646
 31
0.0
  0
LINE
  5
1CF
330
1F
100
AcDbEntity
  8
0
  6
Continuous
 62
     7
370
    30
100
AcDbLine
 10
346.9659909841
 20
209.6691412646
 30
0.0
 11
346.9659909841
 21
214.6691412646
 31
0.0
  0
LINE
  5
1D0
330
1F
100
AcDbEntity
  8
0
  6
Continuous
 62
     7
370
    30
100
AcDbLine
 10
346.1659909841
 20
214.6691412646
 30
0.0
 11
346.1659909841
 21
209.6691412646
 31
0.0
  0
LINE
  5
1D1
330
1F
100
AcDbEntity
  8
0
  6
Continuous
 62
     7
370
    30
100
AcDbLine
 10
343.2259909841
 20
209.6691412646
 30
0.0
 11
343.2259909841
 21
192.1609290236
 31
0.0
  0
LINE
  5
1D2
330
1F
100
AcDbEntity
  8
0
  6
Continuous
 62
     7
370
    30
100
AcDbLine
 10
344.7059909841
 20
192.1607429227
 30
0.0
 11
344.7059909841
 21
209.6691412646
 31
0.0
  0
LINE
  5
1D3
330
1F
100
AcDbEntity
  8
0
  6
Continuous
 62
     7
370
    30
100
AcDbLine
 10
344.3659909841
 20
209.6691412646
 30
0.0
 11
344.3659909841
 21
214.6691412646
 31
0.0
  0
LINE
  5
1D4
330
1F
100
AcDbEntity
  8
0
  6
Continuous
 62
     7
370
    30
100
AcDbLine
 10
343.5659909841
 20
214.6691412646
 30
0.0
 11
343.5659909841
 21
209.6691412646
 31
0.0
  0
LINE
  5
1D5
330
1F
100
AcDbEntity
  8
0
  6
Continuous
 62
     7
370
    30
100
AcDbLine
 10
347.7609909841
 20
209.6691412646
 30
0.0
 11
347.7609909841
 21
191.9468111773
 31
0.0
  0
LINE
  5
1D6
330
1F
100
AcDbEntity
  8
0
  6
Continuous
 62
     7
370
    30
100
AcDbLine
 10
348.5709909841
 20
191.8414042934
 30
0.0
 11
348.5709909841
 21
209.6691412646
 31
0.0
  0
LINE
  5
1D7
330
1F
100
AcDbEntity
  8
0
  6
Continuous
 62
     7
370
    30
100
AcDbLine
 10
348.3659909841
 20
209.6691412646
 30
0.0
 11
348.3659909841
 21
214.6691412646
 31
0.0
  0
LINE
  5
1D8
330
1F
100
AcDbEntity
  8
0
  6
Continuous
 62
     7
370
    30
100
AcDbLine
 10
347.9659909841
 20
214.6691412646
 30
0.0
 11
347.9659909841
 21
209.6691412646
 31
0.0
  0
LINE
  5
1D9
330
1F
100
AcDbEntity
  8
0
  6
Continuous
 62
     7
370
    30
100
AcDbLine
 10
340.6259909841
 20
209.6691412646
 30
0.0
 11
340.6259909841
 21
191.9980462975
 31
0.0
  0
LINE
  5
1DA
330
1F
100
AcDbEntity
  8
0
  6
Continuous
 62
     7
370
    30
100
AcDbLine
 10
342.1059909841
 20
192.1158729952
 30
0.0
 11
342.1059909841
 21
209.6691412646
 31
0.0
  0
LINE
  5
1DB
330
1F
100
AcDbEntity
  8
0
  6
Continuous
 62
     7
370
    30
100
AcDbLine
 10
341.7659909841
 20
209.6691412646
 30
0.0
 11
341.7659909841
 21
214.6691412646
 31
0.0
  0
LINE
  5
1DC
330
1F
100
AcDbEntity
  8
0
  6
Continuous
 62
     7
370
    30
100
AcDbLine
 10
340.9659909841
 20
214.6691412646
 30
0.0
 11
340.9659909841
 21
209.6691412646
 31
0.0
  0
LINE
  5
1DD
330
1F
100
AcDbEntity
  8
0
  6
Continuous
 62
     7
370
    30
100
AcDbLine
 10
342.1609909841
 20
209.6691412646
 30
0.0
 11
342.1609909841
 21
192.1192674794
 31
0.0
  0
LINE
  5
1DE
330
1F
100
AcDbEntity
  8
0
  6
Continuous
 62
     7
370
    30
100
AcDbLine
 10
342.9709909841
 20
192.15390654
 30
0.0
 11
342.9709909841
 21
209.6691412646
 31
0.0
  0
LINE
  5
1DF
330
1F
100
AcDbEntity
  8
0
  6
Continuous
 62
     7
370
    30
100
AcDbLine
 10
342.7659909841
 20
209.6691412646
 30
0.0
 11
342.7659909841
 21
214.6691412646
 31
0.0
  0
LINE
  5
1E0
330
1F
100
AcDbEntity
  8
0
  6
Continuous
 62
     7
370
    30
100
AcDbLine
 10
342.3659909841
 20
214.6691412646
 30
0.0
 11
342.3659909841
 21
209.6691412646
 31
0.0
  0
LINE
  5
1E1
330
1F
100
AcDbEntity
  8
0
  6
Continuous
 62
     7
370
    30
100
AcDbLine
 10
344.9609909841
 20
209.6691412646
 30
0.0
 11
344.9609909841
 21
192.15390654
 31
0.0
  0
LINE
  5
1E2
330
1F
100
AcDbEntity
  8
0
  6
Continuous
 62
     7
370
    30
100
AcDbLine
 10
345.7709909841
 20
192.1190202359
 30
0.0
 11
345.7709909841
 21
209.6691412646
 31
0.0
  0
LINE
  5
1E3
330
1F
100
AcDbEntity
  8
0
  6
Continuous
 62
     7
370
    30
100
AcDbLine
 10
345.5659909841
 20
209.6691412646
 30
0.0
 11
345.5659909841
 21
214.6691412646
 31
0.0
  0
LINE
  5
1E4
330
1F
100
AcDbEntity
  8
0
  6
Continuous
 62
     7
370
    30
100
AcDbLine
 10
345.1659909841
 20
214.6691412646
 30
0.0
 11
345.1659909841
 21
209.6691412646
 31
0.0
  0
LINE
  5
1E5
330
1F
100
AcDbEntity
  8
0
  6
Continuous
 62
     7
370
    30
100
AcDbLine
 10
339.3609909841
 20
209.6691412646
 30
0.0
 11
339.3609909841
 21
191.8419964464
 31
0.0
  0
LINE
  5
1E6
330
1F
100
AcDbEntity
  8
0
  6
Continuous
 62
     7
370
    30
100
AcDbLine
 10
340.1709909841
 20
191.9468111773
 30
0.0
 11
340.1709909841
 21
209.6691412646
 31
0.0
  0
LINE
  5
1E7
330
1F
100
AcDbEntity
  8
0
  6
Continuous
 62
     7
370
    30
100
AcDbLine
 10
339.9659909841
 20
209.6691412646
 30
0.0
 11
339.9659909841
 21
214.6691412646
 31
0.0
  0
LINE
  5
1E8
330
1F
100
AcDbEntity
  8
0
  6
Continuous
 62
     7
370
    30
100
AcDbLine
 10
339.5659909841
 20
214.6691412646
 30
0.0
 11
339.5659909841
 21
209.6691412646
 31
0.0
  0
ARC
  5
1E9
330
1F
100
AcDbEntity
  8
0
  6
Continuous
 62
     7
370
    30
100
AcDbCircle
 10
360.4659909841
 20
148.1691412646
 30
0.0
 40
1.0
100
AcDbArc
 50
270.0
 51
0.0
  0
LINE
  5
1EA
330
1F
100
AcDbEntity
  8
0
  6
Continuous
 62
     7
370
    30
100
AcDbLine
 10
327.4659909841
 20
147.1691412646
 30
0.0
 11
360.4659909841
 21
147.1691412646
 31
0.0
  0
ARC
  5
1EB
330
1F
100
AcDbEntity
  8
0
  6
Continuous
 62
     7
370
    30
100
AcDbCircle
 10
327.4659909841
 20
148.1691412646
 30
0.0
 40
1.0
100
AcDbArc
 50
180.0
 51
270.0
  0
LINE
  5
1EC
330
1F
100
AcDbEntity
  8
0
  6
Continuous
 62
     7
370
    30
100
AcDbLine
 10
361.4659909841
 20
148.1691412646
 30
0.0
 11
361.4659909841
 21
171.1691412646
 31
0.0
  0
ARC
  5
1ED
330
1F
100
AcDbEntity
  8
0
  6
Continuous
 62
     7
370
    30
100
AcDbCircle
 10
327.4659909841
 20
171.1691412646
 30
0.0
 40
1.0
100
AcDbArc
 50
90.0
 51
180.0
  0
ARC
  5
1EE
330
1F
100
AcDbEntity
  8
0
  6
Continuous
 62
     7
370
    30
100
AcDbCircle
 10
360.4659909841
 20
171.1691412646
 30
0.0
 40
1.0
100
AcDbArc
 50
0.0
 51
90.0
  0
LINE
  5
1EF
330
1F
100
AcDbEntity
  8
0
  6
Continuous
 62
     7
370
    30
100
AcDbLine
 10
360.4659909841
 20
172.1691412646
 30
0.0
 11
327.4659909841
 21
172.1691412646
 31
0.0
  0
LINE
  5
1F0
330
1F
100
AcDbEntity
  8
0
  6
Continuous
 62
     7
370
    30
100
AcDbLine
 10
326.4659909841
 20
171.1691412646
 30
0.0
 11
326.4659909841
 21
148.1691412646
 31
0.0
  0
LINE
  5
1F1
330
1F
100
AcDbEntity
  8
0
  6
Continuous
 62
     7
370
    30
100
AcDbLine
 10
315.4791390786
 20
134.094913007
 30
0.0
 11
315.222484174
 21
135.5504753015
 31
0.0
  0
LINE
  5
1F2
330
1F
100
AcDbEntity
  8
0
  6
Continuous
 62
     7
370
    30
100
AcDbLine
 10
314.3469126071
 20
133.1448621923
 30
0.0
 11
315.4791390786
 21
134.094913007
 31
0.0
  0
LINE
  5
1F3
330
1F
100
AcDbEntity
  8
0
  6
Continuous
 62
     7
370
    30
100
AcDbLine
 10
312.9580312309
 20
133.6503736722
 30
0.0
 11
314.3469126071
 21
133.1448621923
 31
0.0
  0
LINE
  5
1F4
330
1F
100
AcDbEntity
  8
0
  6
Continuous
 62
     7
370
    30
100
AcDbLine
 10
313.8336027978
 20
136.0559867814
 30
0.0
 11
312.7013763263
 21
135.1059359667
 31
0.0
  0
LINE
  5
1F5
330
1F
100
AcDbEntity
  8
0
  6
Continuous
 62
     7
370
    30
100
AcDbLine
 10
312.7013763263
 20
135.1059359667
 30
0.0
 11
312.9580312309
 21
133.6503736722
 31
0.0
  0
LINE
  5
1F6
330
1F
100
AcDbEntity
  8
0
  6
Continuous
 62
     7
370
    30
100
AcDbLine
 10
315.222484174
 20
135.5504753015
 30
0.0
 11
313.8336027978
 21
136.0559867814
 31
0.0
  0
CIRCLE
  5
1F7
330
1F
100
AcDbEntity
  8
0
  6
Continuous
 62
     7
370
    30
100
AcDbCircle
 10
314.0902577025
 20
134.6004244869
 30
0.0
 40
2.840000000000004
  0
LINE
  5
1F8
330
1F
100
AcDbEntity
  8
0
  6
Continuous
 62
     7
370
    30
100
AcDbLine
 10
370.4902700564
 20
130.0500628876
 30
0.0
 11
369.5402192417
 21
131.1822893592
 31
0.0
  0
LINE
  5
1F9
330
1F
100
AcDbEntity
  8
0
  6
Continuous
 62
     7
370
    30
100
AcDbLine
 10
369.5402192417
 20
131.1822893592
 30
0.0
 11
368.0846569472
 21
130.9256344545
 31
0.0
  0
LINE
  5
1FA
330
1F
100
AcDbEntity
  8
0
  6
Continuous
 62
     7
370
    30
100
AcDbLine
 10
367.5791454673
 20
129.5367530784
 30
0.0
 11
368.529196282
 21
128.4045266068
 31
0.0
  0
LINE
  5
1FB
330
1F
100
AcDbEntity
  8
0
  6
Continuous
 62
     7
370
    30
100
AcDbLine
 10
369.9847585766
 20
128.6611815115
 30
0.0
 11
370.4902700564
 21
130.0500628876
 31
0.0
  0
LINE
  5
1FC
330
1F
100
AcDbEntity
  8
0
  6
Continuous
 62
     7
370
    30
100
AcDbLine
 10
368.529196282
 20
128.4045266068
 30
0.0
 11
369.9847585766
 21
128.6611815115
 31
0.0
  0
LINE
  5
1FD
330
1F
100
AcDbEntity
  8
0
  6
Continuous
 62
     7
370
    30
100
AcDbLine
 10
368.0846569472
 20
130.9256344545
 30
0.0
 11
367.5791454673
 21
129.5367530784
 31
0.0
  0
CIRCLE
  5
1FE
330
1F
100
AcDbEntity
  8
0
  6
Continuous
 62
     7
370
    30
100
AcDbCircle
 10
369.0347077619
 20
129.793407983
 30
0.0
 40
2.83999999999996
  0
LINE
  5
1FF
330
1F
100
AcDbEntity
  8
0
  6
Continuous
 62
     7
370
    30
100
AcDbLine
 10
320.3528365009
 20
189.8015294509
 30
0.0
 11
319.4027856862
 21
190.9337559225
 31
0.0
  0
LINE
  5
200
330
1F
100
AcDbEntity
  8
0
  6
Continuous
 62
     7
370
    30
100
AcDbLine
 10
319.4027856862
 20
190.9337559225
 30
0.0
 11
317.9472233917
 21
190.6771010178
 31
0.0
  0
LINE
  5
201
330
1F
100
AcDbEntity
  8
0
  6
Continuous
 62
     7
370
    30
100
AcDbLine
 10
317.4417119118
 20
189.2882196417
 30
0.0
 11
318.3917627265
 21
188.1559931701
 31
0.0
  0
LINE
  5
202
330
1F
100
AcDbEntity
  8
0
  6
Continuous
 62
     7
370
    30
100
AcDbLine
 10
317.9472233917
 20
190.6771010178
 30
0.0
 11
317.4417119118
 21
189.2882196417
 31
0.0
  0
LINE
  5
203
330
1F
100
AcDbEntity
  8
0
  6
Continuous
 62
     7
370
    30
100
AcDbLine
 10
318.3917627265
 20
188.1559931701
 30
0.0
 11
319.847325021
 21
188.4126480747
 31
0.0
  0
LINE
  5
204
330
1F
100
AcDbEntity
  8
0
  6
Continuous
 62
     7
370
    30
100
AcDbLine
 10
319.847325021
 20
188.4126480747
 30
0.0
 11
320.3528365009
 21
189.8015294509
 31
0.0
  0
CIRCLE
  5
205
330
1F
100
AcDbEntity
  8
0
  6
Continuous
 62
     7
370
    30
100
AcDbCircle
 10
318.8972742063
 20
189.5448745463
 30
0.0
 40
2.840000000000065
  0
LINE
  5
206
330
1F
100
AcDbEntity
  8
0
  6
Continuous
 62
     7
370
    30
100
AcDbLine
 10
372.7094977942
 20
183.7878072277
 30
0.0
 11
374.0983791704
 21
183.2822957479
 31
0.0
  0
LINE
  5
207
330
1F
100
AcDbEntity
  8
0
  6
Continuous
 62
     7
370
    30
100
AcDbLine
 10
374.0983791704
 20
183.2822957479
 30
0.0
 11
375.2306056419
 21
184.2323465626
 31
0.0
  0
LINE
  5
208
330
1F
100
AcDbEntity
  8
0
  6
Continuous
 62
     7
370
    30
100
AcDbLine
 10
374.9739507373
 20
185.6879088571
 30
0.0
 11
373.5850693611
 21
186.193420337
 31
0.0
  0
LINE
  5
209
330
1F
100
AcDbEntity
  8
0
  6
Continuous
 62
     7
370
    30
100
AcDbLine
 10
373.5850693611
 20
186.193420337
 30
0.0
 11
372.4528428896
 21
185.2433695223
 31
0.0
  0
LINE
  5
20A
330
1F
100
AcDbEntity
  8
0
  6
Continuous
 62
     7
370
    30
100
AcDbLine
 10
372.4528428896
 20
185.2433695223
 30
0.0
 11
372.7094977942
 21
183.7878072277
 31
0.0
  0
LINE
  5
20B
330
1F
100
AcDbEntity
  8
0
  6
Continuous
 62
     7
370
    30
100
AcDbLine
 10
375.2306056419
 20
184.2323465626
 30
0.0
 11
374.9739507373
 21
185.6879088571
 31
0.0
  0
CIRCLE
  5
20C
330
1F
100
AcDbEntity
  8
0
  6
Continuous
 62
     7
370
    30
100
AcDbCircle
 10
373.8417242657
 20
184.7378580424
 30
0.0
 40
2.839999999999982
  0
ARC
  5
20D
330
1F
100
AcDbEntity
  8
0
  6
Continuous
 62
     7
370
    30
100
AcDbCircle
 10
338.4659909841
 20
178.1691412646
 30
0.0
 40
1.5
100
AcDbArc
 50
180.0
 51
270.0
  0
LINE
  5
20E
330
1F
100
AcDbEntity
  8
0
  6
Continuous
 62
     7
370
    30
100
AcDbLine
 10
338.4659909841
 20
176.6691412646
 30
0.0
 11
349.4659909841
 21
176.6691412646
 31
0.0
  0
ARC
  5
20F
330
1F
100
AcDbEntity
  8
0
  6
Continuous
 62
     7
370
    30
100
AcDbCircle
 10
349.4659909841
 20
178.1691412646
 30
0.0
 40
1.5
100
AcDbArc
 50
270.0
 51
0.0
  0
ARC
  5
210
330
1F
100
AcDbEntity
  8
0
  6
Continuous
 62
     7
370
    30
100
AcDbCircle
 10
343.9659909841
 20
159.6691412646
 30
0.0
 40
30.5
100
AcDbArc
 50
76.7318810294
 51
103.2681189706
  0
LINE
  5
211
330
1F
100
AcDbEntity
  8
0
  6
Continuous
 62
     7
370
    30
100
AcDbLine
 10
350.9659909841
 20
189.3549964822
 30
0.0
 11
350.9659909841
 21
178.1691412646
 31
0.0
  0
LINE
  5
212
330
1F
100
AcDbEntity
  8
0
  6
Continuous
 62
     7
370
    30
100
AcDbLine
 10
336.9659909841
 20
189.3549964822
 30
0.0
 11
336.9659909841
 21
178.1691412646
 31
0.0
  0
LINE
  5
213
330
1F
100
AcDbEntity
  8
0
  6
Continuous
 62
     7
370
    30
100
AcDbLine
 10
349.4659909841
 20
189.6691412646
 30
0.0
 11
349.4659909841
 21
191.7003760207
 31
0.0
  0
ARC
  5
214
330
1F
100
AcDbEntity
  8
0
  6
Continuous
 62
     7
370
    30
100
AcDbCircle
 10
343.9659909841
 20
159.6691412646
 30
0.0
 40
32.50000000000001
100
AcDbArc
 50
80.2569026232
 51
99.7430973768
  0
LINE
  5
215
330
1F
100
AcDbEntity
  8
0
  6
Continuous
 62
     7
370
    30
100
AcDbLine
 10
338.4659909841
 20
191.7003760207
 30
0.0
 11
338.4659909841
 21
189.6691412646
 31
0.0
  0
ARC
  5
216
330
1F
100
AcDbEntity
  8
0
  6
Continuous
 62
     7
370
    30
100
AcDbCircle
 10
343.9659909841
 20
159.6691412646
 30
0.0
 40
30.5
100
AcDbArc
 50
103.2681189706
 51
76.7318810294
  0
LINE
  5
217
330
1F
100
AcDbEntity
  8
0
  6
Continuous
 62
     7
370
    30
100
AcDbLine
 10
316.2574123389
 20
177.8196029516
 30
0.0
 11
317.3300892808
 21
178.3198004243
 31
0.0
  0
LINE
  5
218
330
1F
100
AcDbEntity
  8
0
  6
Continuous
 62
     7
370
    30
100
AcDbLine
 10
317.3300892808
 20
178.3198004243
 30
0.0
 11
317.4332440334
 21
179.4988646424
 31
0.0
  0
LINE
  5
219
330
1F
100
AcDbEntity
  8
0
  6
Continuous
 62
     7
370
    30
100
AcDbLine
 10
317.4332440334
 20
179.4988646424
 30
0.0
 11
316.4637218442
 21
180.1777313877
 31
0.0
  0
LINE
  5
21A
330
1F
100
AcDbEntity
  8
0
  6
Continuous
 62
     7
370
    30
100
AcDbLine
 10
316.4637218442
 20
180.1777313877
 30
0.0
 11
315.3910449023
 21
179.677533915
 31
0.0
  0
LINE
  5
21B
330
1F
100
AcDbEntity
  8
0
  6
Continuous
 62
     7
370
    30
100
AcDbLine
 10
315.3910449023
 20
179.677533915
 30
0.0
 11
315.2878901497
 21
178.498469697
 31
0.0
  0
LINE
  5
21C
330
1F
100
AcDbEntity
  8
0
  6
Continuous
 62
     7
370
    30
100
AcDbLine
 10
315.2878901497
 20
178.498469697
 30
0.0
 11
316.2574123389
 21
177.8196029516
 31
0.0
  0
LINE
  5
21D
330
1F
100
AcDbEntity
  8
0
  6
Continuous
 62
     7
370
    30
100
AcDbLine
 10
363.7957143619
 20
186.2018882153
 30
0.0
 11
364.4745811072
 21
187.1714104045
 31
0.0
  0
LINE
  5
21E
330
1F
100
AcDbEntity
  8
0
  6
Continuous
 62
     7
370
    30
100
AcDbLine
 10
364.4745811072
 20
187.1714104045
 30
0.0
 11
363.9743836345
 21
188.2440873464
 31
0.0
  0
LINE
  5
21F
330
1F
100
AcDbEntity
  8
0
  6
Continuous
 62
     7
370
    30
100
AcDbLine
 10
363.9743836345
 20
188.2440873464
 30
0.0
 11
362.7953194164
 21
188.3472420991
 31
0.0
  0
LINE
  5
220
330
1F
100
AcDbEntity
  8
0
  6
Continuous
 62
     7
370
    30
100
AcDbLine
 10
362.7953194164
 20
188.3472420991
 30
0.0
 11
362.1164526711
 21
187.3777199098
 31
0.0
  0
LINE
  5
221
330
1F
100
AcDbEntity
  8
0
  6
Continuous
 62
     7
370
    30
100
AcDbLine
 10
362.1164526711
 20
187.3777199098
 30
0.0
 11
362.6166501438
 21
186.305042968
 31
0.0
  0
LINE
  5
222
330
1F
100
AcDbEntity
  8
0
  6
Continuous
 62
     7
370
    30
100
AcDbLine
 10
362.6166501438
 20
186.305042968
 30
0.0
 11
363.7957143619
 21
186.2018882153
 31
0.0
  0
LINE
  5
223
330
1F
100
AcDbEntity
  8
0
  6
Continuous
 62
     7
370
    30
100
AcDbLine
 10
325.3153318244
 20
133.0332395613
 30
0.0
 11
324.1362676064
 21
133.136394314
 31
0.0
  0
LINE
  5
224
330
1F
100
AcDbEntity
  8
0
  6
Continuous
 62
     7
370
    30
100
AcDbLine
 10
323.457400861
 20
132.1668721248
 30
0.0
 11
323.9575983337
 21
131.0941951829
 31
0.0
  0
LINE
  5
225
330
1F
100
AcDbEntity
  8
0
  6
Continuous
 62
     7
370
    30
100
AcDbLine
 10
325.1366625518
 20
130.9910404302
 30
0.0
 11
325.8155292971
 21
131.9605626195
 31
0.0
  0
LINE
  5
226
330
1F
100
AcDbEntity
  8
0
  6
Continuous
 62
     7
370
    30
100
AcDbLine
 10
323.9575983337
 20
131.0941951829
 30
0.0
 11
325.1366625518
 21
130.9910404302
 31
0.0
  0
LINE
  5
227
330
1F
100
AcDbEntity
  8
0
  6
Continuous
 62
     7
370
    30
100
AcDbLine
 10
324.1362676064
 20
133.136394314
 30
0.0
 11
323.457400861
 21
132.1668721248
 31
0.0
  0
LINE
  5
228
330
1F
100
AcDbEntity
  8
0
  6
Continuous
 62
     7
370
    30
100
AcDbLine
 10
325.8155292971
 20
131.9605626195
 30
0.0
 11
325.3153318244
 21
133.0332395613
 31
0.0
  0
CIRCLE
  5
229
330
1F
100
AcDbEntity
  8
0
  6
Continuous
 62
     7
370
    30
100
AcDbCircle
 10
371.5714148766
 20
140.3396153596
 30
0.0
 40
2.339999999999975
  0
CIRCLE
  5
22A
330
1F
100
AcDbEntity
  8
0
  6
Continuous
 62
     7
370
    30
100
AcDbCircle
 10
324.6364650791
 20
132.0637173721
 30
0.0
 40
2.340000000000032
  0
LINE
  5
22B
330
1F
100
AcDbEntity
  8
0
  6
Continuous
 62
     7
370
    30
100
AcDbLine
 10
370.6018926874
 20
141.018482105
 30
0.0
 11
370.4987379348
 21
139.8394178869
 31
0.0
  0
LINE
  5
22C
330
1F
100
AcDbEntity
  8
0
  6
Continuous
 62
     7
370
    30
100
AcDbLine
 10
371.468260124
 20
139.1605511415
 30
0.0
 11
372.5409370659
 21
139.6607486143
 31
0.0
  0
LINE
  5
22D
330
1F
100
AcDbEntity
  8
0
  6
Continuous
 62
     7
370
    30
100
AcDbLine
 10
371.6745696293
 20
141.5186795777
 30
0.0
 11
370.6018926874
 21
141.018482105
 31
0.0
  0
LINE
  5
22E
330
1F
100
AcDbEntity
  8
0
  6
Continuous
 62
     7
370
    30
100
AcDbLine
 10
370.4987379348
 20
139.8394178869
 30
0.0
 11
371.468260124
 21
139.1605511415
 31
0.0
  0
LINE
  5
22F
330
1F
100
AcDbEntity
  8
0
  6
Continuous
 62
     7
370
    30
100
AcDbLine
 10
372.5409370659
 20
139.6607486143
 30
0.0
 11
372.6440918185
 21
140.8398128323
 31
0.0
  0
LINE
  5
230
330
1F
100
AcDbEntity
  8
0
  6
Continuous
 62
     7
370
    30
100
AcDbLine
 10
372.6440918185
 20
140.8398128323
 30
0.0
 11
371.6745696293
 21
141.5186795777
 31
0.0
  0
CIRCLE
  5
231
330
1F
100
AcDbEntity
  8
0
  6
Continuous
 62
     7
370
    30
100
AcDbCircle
 10
316.3605670916
 20
178.9986671697
 30
0.0
 40
2.340000000000032
  0
CIRCLE
  5
232
330
1F
100
AcDbEntity
  8
0
  6
Continuous
 62
     7
370
    30
100
AcDbCircle
 10
363.2955168891
 20
187.2745651572
 30
0.0
 40
2.340000000000032
  0
CIRCLE
  5
233
330
1F
100
AcDbEntity
  8
0
  6
Continuous
 62
     7
370
    30
100
AcDbCircle
 10
316.3605670916
 20
178.9986671697
 30
0.0
 40
2.599999999999994
  0
CIRCLE
  5
234
330
1F
100
AcDbEntity
  8
0
  6
Continuous
 62
     7
370
    30
100
AcDbCircle
 10
371.5714148766
 20
140.3396153596
 30
0.0
 40
2.599999999999994
  0
CIRCLE
  5
235
330
1F
100
AcDbEntity
  8
0
  6
Continuous
 62
     7
370
    30
100
AcDbCircle
 10
324.6364650791
 20
132.0637173721
 30
0.0
 40
2.600000000000023
  0
CIRCLE
  5
236
330
1F
100
AcDbEntity
  8
0
  6
Continuous
 62
     7
370
    30
100
AcDbCircle
 10
363.2955168891
 20
187.2745651572
 30
0.0
 40
2.599999999999966
  0
ARC
  5
237
330
1F
100
AcDbEntity
  8
0
  6
Continuous
 62
     7
370
    30
100
AcDbCircle
 10
316.3605670916
 20
178.9986671697
 30
0.0
 40
3.250000000000004
100
AcDbArc
 50
334.5684733696
 51
315.4315266304
  0
ARC
  5
238
330
1F
100
AcDbEntity
  8
0
  6
Continuous
 62
     7
370
    30
100
AcDbCircle
 10
324.6364650791
 20
132.0637173721
 30
0.0
 40
3.250000000000016
100
AcDbArc
 50
64.5684733696
 51
45.4315266304
  0
ARC
  5
239
330
1F
100
AcDbEntity
  8
0
  6
Continuous
 62
     7
370
    30
100
AcDbCircle
 10
363.2955168891
 20
187.2745651572
 30
0.0
 40
3.25000000000006
100
AcDbArc
 50
244.5684733696
 51
225.4315266304
  0
ARC
  5
23A
330
1F
100
AcDbEntity
  8
0
  6
Continuous
 62
     7
370
    30
100
AcDbCircle
 10
371.5714148766
 20
140.3396153596
 30
0.0
 40
3.25
100
AcDbArc
 50
154.5684733696
 51
135.4315266304
  0
ARC
  5
23B
330
1F
100
AcDbEntity
  8
0
  6
Continuous
 62
     7
370
    30
100
AcDbCircle
 10
332.9628254649
 20
120.6924771109
 30
0.0
 40
9.99999999999998
100
AcDbArc
 50
74.2355543624
 51
127.3751296378
  0
ARC
  5
23C
330
1F
100
AcDbEntity
  8
0
  6
Continuous
 62
     7
370
    30
100
AcDbCircle
 10
324.4643921482
 20
131.8179717588
 30
0.0
 40
4.000000000000015
100
AcDbArc
 50
162.6248703622
 51
307.3751296378
  0
ARC
  5
23D
330
1F
100
AcDbEntity
  8
0
  6
Continuous
 62
     7
370
    30
100
AcDbCircle
 10
311.1032115439
 20
135.9987435607
 30
0.0
 40
10.0
100
AcDbArc
 50
342.6248703622
 51
35.7644456376
  0
ARC
  5
23E
330
1F
100
AcDbEntity
  8
0
  6
Continuous
 62
     7
370
    30
100
AcDbCircle
 10
354.9691565033
 20
198.6458054184
 30
0.0
 40
10.0
100
AcDbArc
 50
254.2355543624
 51
307.3751296378
  0
ARC
  5
23F
330
1F
100
AcDbEntity
  8
0
  6
Continuous
 62
     7
370
    30
100
AcDbCircle
 10
363.46758982
 20
187.5203107705
 30
0.0
 40
4.000000000000037
100
AcDbArc
 50
342.6248703622
 51
127.3751296378
  0
ARC
  5
240
330
1F
100
AcDbEntity
  8
0
  6
Continuous
 62
     7
370
    30
100
AcDbCircle
 10
376.8287704243
 20
183.3395389686
 30
0.0
 40
10.0
100
AcDbArc
 50
162.6248703622
 51
215.7644456376
  0
ARC
  5
241
330
1F
100
AcDbEntity
  8
0
  6
Continuous
 62
     7
370
    30
100
AcDbCircle
 10
320.2955932802
 20
192.5319207049
 30
0.0
 40
9.999999999999968
100
AcDbArc
 50
252.6248703622
 51
305.7644456376
  0
ARC
  5
242
330
1F
100
AcDbEntity
  8
0
  6
Continuous
 62
     7
370
    30
100
AcDbCircle
 10
316.1148214783
 20
179.1707401006
 30
0.0
 40
4.000000000000038
100
AcDbArc
 50
72.6248703622
 51
217.3751296378
  0
ARC
  5
243
330
1F
100
AcDbEntity
  8
0
  6
Continuous
 62
     7
370
    30
100
AcDbCircle
 10
304.9893268303
 20
170.6723067839
 30
0.0
 40
10.00000000000005
100
AcDbArc
 50
344.2355543624
 51
37.3751296378
  0
ARC
  5
244
330
1F
100
AcDbEntity
  8
0
  6
Continuous
 62
     7
370
    30
100
AcDbCircle
 10
371.8171604899
 20
140.1675424287
 30
0.0
 40
3.999999999999984
100
AcDbArc
 50
252.6248703622
 51
37.3751296378
  0
ARC
  5
245
330
1F
100
AcDbEntity
  8
0
  6
Continuous
 62
     7
370
    30
100
AcDbCircle
 10
382.9426551379
 20
148.6659757454
 30
0.0
 40
10.00000000000004
100
AcDbArc
 50
164.2355543624
 51
217.3751296378
  0
ARC
  5
246
330
1F
100
AcDbEntity
  8
0
  6
Continuous
 62
     7
370
    30
100
AcDbCircle
 10
367.636388688
 20
126.8063618244
 30
0.0
 40
10.0
100
AcDbArc
 50
72.6248703622
 51
125.7644456376
  0
SPLINE
  5
247
330
1F
100
AcDbEntity
  8
0
  6
Continuous
 62
     7
370
    30
100
AcDbSpline
210
0.0
220
0.0
230
1.0
 70
     8
 71
     3
 72
    11
 73
     7
 74
     0
 42
0.000000001
 43
0.00000001
 40
0.0
 40
0.0
 40
0.0
 40
0.0
 40
0.2544551420224385
 40
0.5150640501724891
 40
0.7540054025895907
 40
1.0
 40
1.0
 40
1.0
 40
1.0
 10
312.9359692406114
 20
188.2694515881039
 30
0.0
 10
312.8405145114485
 20
188.2313365905314
 30
0.0
 10
312.6472965673345
 20
188.154184818844
 30
0.0
 10
312.373256897171
 20
187.9893616116864
 30
0.0
 10
312.1161450887705
 20
187.7923979380212
 30
0.0
 10
311.970117516764
 20
187.6366477058292
 30
0.0
 10
311.8960417675866
 20
187.5576399200004
 30
0.0
  0
ARC
  5
248
330
1F
100
AcDbEntity
  8
0
  6
Continuous
 62
     7
370
    30
100
AcDbCircle
 10
343.9659909841
 20
159.6691412646
 30
0.0
 40
42.19999999999998
100
AcDbArc
 50
137.3332964789
 51
212.6667035211
  0
ARC
  5
249
330
1F
100
AcDbEntity
  8
0
  6
Continuous
 62
     7
370
    30
100
AcDbCircle
 10
343.9659909841
 20
159.6691412646
 30
0.0
 40
42.50000000000002
100
AcDbArc
 50
138.9892993452
 51
211.0107006548
  0
SPLINE
  5
24A
330
1F
100
AcDbEntity
  8
0
  6
Continuous
 62
     7
370
    30
100
AcDbSpline
210
0.0
220
0.0
230
1.0
 70
     8
 71
     3
 72
    11
 73
     7
 74
     0
 42
0.000000001
 43
0.00000001
 40
0.0
 40
0.0
 40
0.0
 40
0.0
 40
0.2521000688773165
 40
0.5127414983056364
 40
0.7536134637531364
 40
1.0
 40
1.0
 40
1.0
 40
1.0
 10
307.5404693876008
 20
137.7732198082976
 30
0.0
 10
307.6012716040913
 20
137.6803603490315
 30
0.0
 10
307.7249360668681
 20
137.4914952745871
 30
0.0
 10
307.9485629333494
 20
137.2525347573064
 30
0.0
 10
308.188973102328
 20
137.0472954086646
 30
0.0
 10
308.3563550674444
 20
136.9439155704459
 30
0.0
 10
308.4409932265978
 20
136.8916406482682
 30
0.0
  0
SPLINE
  5
24B
330
1F
100
AcDbEntity
  8
0
  6
Continuous
 62
     7
370
    30
100
AcDbSpline
210
0.0
220
0.0
230
1.0
 70
     8
 71
     3
 72
    11
 73
     7
 74
     0
 42
0.000000001
 43
0.00000001
 40
0.0
 40
0.0
 40
0.0
 40
0.0
 40
0.2521000688773189
 40
0.5127414983056364
 40
0.7536134637531312
 40
1.0
 40
1.0
 40
1.0
 40
1.0
 10
322.0700695277605
 20
196.0946628611498
 30
0.0
 10
321.9772100684944
 20
196.0338606446592
 30
0.0
 10
321.78834499405
 20
195.9101961818825
 30
0.0
 10
321.5493844767693
 20
195.6865693154012
 30
0.0
 10
321.3441451281275
 20
195.4461591464226
 30
0.0
 10
321.2407652899088
 20
195.2787771813061
 30
0.0
 10
321.1884903677311
 20
195.1941390221528
 30
0.0
  0
ARC
  5
24C
330
1F
100
AcDbEntity
  8
0
  6
Continuous
 62
     7
370
    30
100
AcDbCircle
 10
343.9659909841
 20
159.6691412646
 30
0.0
 40
42.49999999999999
100
AcDbArc
 50
96.2203785418
 51
121.0107006548
  0
LINE
  5
24D
330
1F
100
AcDbEntity
  8
0
  6
Continuous
 62
     7
370
    30
100
AcDbLine
 10
340.1709909841
 20
201.9993665771
 30
0.0
 11
340.6259909841
 21
202.0376956417
 31
0.0
  0
LINE
  5
24E
330
1F
100
AcDbEntity
  8
0
  6
Continuous
 62
     7
370
    30
100
AcDbLine
 10
342.1059909841
 20
202.1284205802
 30
0.0
 11
342.1609909841
 21
202.1307942588
 31
0.0
  0
LINE
  5
24F
330
1F
100
AcDbEntity
  8
0
  6
Continuous
 62
     7
370
    30
100
AcDbLine
 10
342.9709909841
 20
202.1574923153
 30
0.0
 11
343.2259909841
 21
202.1626984233
 31
0.0
  0
LINE
  5
250
330
1F
100
AcDbEntity
  8
0
  6
Continuous
 62
     7
370
    30
100
AcDbLine
 10
344.7059909841
 20
202.1626984233
 30
0.0
 11
344.9609909841
 21
202.1574923153
 31
0.0
  0
LINE
  5
251
330
1F
100
AcDbEntity
  8
0
  6
Continuous
 62
     7
370
    30
100
AcDbLine
 10
345.7709909841
 20
202.1307942588
 30
0.0
 11
345.8259909841
 21
202.1284205802
 31
0.0
  0
LINE
  5
252
330
1F
100
AcDbEntity
  8
0
  6
Continuous
 62
     7
370
    30
100
AcDbLine
 10
347.3059909841
 20
202.0376956417
 30
0.0
 11
347.7609909841
 21
201.9993665771
 31
0.0
  0
ARC
  5
253
330
1F
100
AcDbEntity
  8
0
  6
Continuous
 62
     7
370
    30
100
AcDbCircle
 10
343.9659909841
 20
159.6691412646
 30
0.0
 40
42.50000000000001
100
AcDbArc
 50
48.9892993452
 51
83.7796214582
  0
SPLINE
  5
254
330
1F
100
AcDbEntity
  8
0
  6
Continuous
 62
     7
370
    30
100
AcDbSpline
210
0.0
220
0.0
230
1.0
 70
     8
 71
     3
 72
    11
 73
     7
 74
     0
 42
0.000000001
 43
0.00000001
 40
0.0
 40
0.0
 40
0.0
 40
0.0
 40
0.2544551420224289
 40
0.5150640501724865
 40
0.7540054025895874
 40
1.0
 40
1.0
 40
1.0
 40
1.0
 10
372.5663013075663
 20
190.6991630081394
 30
0.0
 10
372.5281863099938
 20
190.7946177373024
 30
0.0
 10
372.4510345383065
 20
190.9878356814163
 30
0.0
 10
372.2862113311488
 20
191.2618753515798
 30
0.0
 10
372.0892476574836
 20
191.5189871599803
 30
0.0
 10
371.9334974252916
 20
191.6650147319867
 30
0.0
 10
371.8544896394629
 20
191.7390904811642
 30
0.0
  0
ARC
  5
255
330
1F
100
AcDbEntity
  8
0
  6
Continuous
 62
     7
370
    30
100
AcDbCircle
 10
343.9659909841
 20
159.6691412646
 30
0.0
 40
42.20000000000002
100
AcDbArc
 50
47.3332964789
 51
83.7352243182
  0
LINE
  5
256
330
1F
100
AcDbEntity
  8
0
  6
Continuous
 62
     7
370
    30
100
AcDbLine
 10
347.7609909841
 20
201.6981547553
 30
0.0
 11
347.3059909841
 21
201.7367582639
 31
0.0
  0
LINE
  5
257
330
1F
100
AcDbEntity
  8
0
  6
Continuous
 62
     7
370
    30
100
AcDbLine
 10
345.8259909841
 20
201.8281308161
 30
0.0
 11
345.7709909841
 21
201.830521401
 31
0.0
  0
LINE
  5
258
330
1F
100
AcDbEntity
  8
0
  6
Continuous
 62
     7
370
    30
100
AcDbLine
 10
344.9609909841
 20
201.8574094799
 30
0.0
 11
344.7059909841
 21
201.8626526141
 31
0.0
  0
LINE
  5
259
330
1F
100
AcDbEntity
  8
0
  6
Continuous
 62
     7
370
    30
100
AcDbLine
 10
343.2259909841
 20
201.8626526141
 30
0.0
 11
342.9709909841
 21
201.8574094799
 31
0.0
  0
LINE
  5
25A
330
1F
100
AcDbEntity
  8
0
  6
Continuous
 62
     7
370
    30
100
AcDbLine
 10
342.1609909841
 20
201.830521401
 30
0.0
 11
342.1059909841
 21
201.8281308161
 31
0.0
  0
LINE
  5
25B
330
1F
100
AcDbEntity
  8
0
  6
Continuous
 62
     7
370
    30
100
AcDbLine
 10
340.6259909841
 20
201.7367582639
 30
0.0
 11
340.1709909841
 21
201.6981547553
 31
0.0
  0
ARC
  5
25C
330
1F
100
AcDbEntity
  8
0
  6
Continuous
 62
     7
370
    30
100
AcDbCircle
 10
343.9659909841
 20
159.6691412646
 30
0.0
 40
42.2
100
AcDbArc
 50
96.2647756818
 51
122.6667035211
  0
SPLINE
  5
25D
330
1F
100
AcDbEntity
  8
0
  6
Continuous
 62
     7
370
    30
100
AcDbSpline
210
0.0
220
0.0
230
1.0
 70
     8
 71
     3
 72
    11
 73
     7
 74
     0
 42
0.000000001
 43
0.00000001
 40
0.0
 40
0.0
 40
0.0
 40
0.0
 40
0.25445514202243
 40
0.5150640501724856
 40
0.7540054025895851
 40
1.0
 40
1.0
 40
1.0
 40
1.0
 10
315.3656806606467
 20
128.6391195211485
 30
0.0
 10
315.4037956582192
 20
128.5436647919855
 30
0.0
 10
315.4809474299066
 20
128.3504468478716
 30
0.0
 10
315.6457706370642
 20
128.0764071777081
 30
0.0
 10
315.8427343107294
 20
127.8192953693076
 30
0.0
 10
315.9984845429214
 20
127.6732677973012
 30
0.0
 10
316.0774923287502
 20
127.5991920481237
 30
0.0
  0
ARC
  5
25E
330
1F
100
AcDbEntity
  8
0
  6
Continuous
 62
     7
370
    30
100
AcDbCircle
 10
343.9659909841
 20
159.6691412646
 30
0.0
 40
42.20000000000005
100
AcDbArc
 50
227.3332964789
 51
302.6667035211
  0
ARC
  5
25F
330
1F
100
AcDbEntity
  8
0
  6
Continuous
 62
     7
370
    30
100
AcDbCircle
 10
343.9659909841
 20
159.6691412646
 30
0.0
 40
42.5
100
AcDbArc
 50
228.9892993452
 51
301.0107006548
  0
SPLINE
  5
260
330
1F
100
AcDbEntity
  8
0
  6
Continuous
 62
     7
370
    30
100
AcDbSpline
210
0.0
220
0.0
230
1.0
 70
     8
 71
     3
 72
    11
 73
     7
 74
     0
 42
0.000000001
 43
0.00000001
 40
0.0
 40
0.0
 40
0.0
 40
0.0
 40
0.2521000688773189
 40
0.5127414983056364
 40
0.7536134637531312
 40
1.0
 40
1.0
 40
1.0
 40
1.0
 10
365.8619124404527
 20
123.2436196681379
 30
0.0
 10
365.9547718997189
 20
123.3044218846285
 30
0.0
 10
366.1436369741633
 20
123.4280863474052
 30
0.0
 10
366.3825974914439
 20
123.6517132138865
 30
0.0
 10
366.5878368400857
 20
123.8921233828651
 30
0.0
 10
366.6912166783044
 20
124.0595053479815
 30
0.0
 10
366.7434916004821
 20
124.1441435071349
 30
0.0
  0
SPLINE
  5
261
330
1F
100
AcDbEntity
  8
0
  6
Continuous
 62
     7
370
    30
100
AcDbSpline
210
0.0
220
0.0
230
1.0
 70
     8
 71
     3
 72
    11
 73
     7
 74
     0
 42
0.000000001
 43
0.00000001
 40
0.0
 40
0.0
 40
0.0
 40
0.0
 40
0.2544551420224385
 40
0.5150640501724891
 40
0.7540054025895907
 40
1.0
 40
1.0
 40
1.0
 40
1.0
 10
374.9960127276019
 20
131.0688309411838
 30
0.0
 10
375.0914674567648
 20
131.1069459387563
 30
0.0
 10
375.2846854008788
 20
131.1840977104436
 30
0.0
 10
375.5587250710423
 20
131.3489209176013
 30
0.0
 10
375.8158368794428
 20
131.5458845912665
 30
0.0
 10
375.9618644514492
 20
131.7016348234585
 30
0.0
 10
376.0359402006267
 20
131.7806426092873
 30
0.0
  0
ARC
  5
262
330
1F
100
AcDbEntity
  8
0
  6
Continuous
 62
     7
370
    30
100
AcDbCircle
 10
343.9659909841
 20
159.6691412646
 30
0.0
 40
42.20000000000002
100
AcDbArc
 50
317.3332964789
 51
32.6667035211
  0
SPLINE
  5
263
330
1F
100
AcDbEntity
  8
0
  6
Continuous
 62
     7
370
    30
100
AcDbSpline
210
0.0
220
0.0
230
1.0
 70
     8
 71
     3
 72
    11
 73
     7
 74
     0
 42
0.000000001
 43
0.00000001
 40
0.0
 40
0.0
 40
0.0
 40
0.0
 40
0.2521000688773157
 40
0.5127414983056319
 40
0.753613463753132
 40
0.9999999999999999
 40
0.9999999999999999
 40
0.9999999999999999
 40
0.9999999999999999
 10
380.3915125806123
 20
181.5650627209903
 30
0.0
 10
380.3307103641217
 20
181.6579221802564
 30
0.0
 10
380.207045901345
 20
181.8467872547009
 30
0.0
 10
379.9834190348637
 20
182.0857477719815
 30
0.0
 10
379.7430088658851
 20
182.2909871206233
 30
0.0
 10
379.5756269007687
 20
182.394366958842
 30
0.0
 10
379.4909887416154
 20
182.4466418810197
 30
0.0
  0
ARC
  5
264
330
1F
100
AcDbEntity
  8
0
  6
Continuous
 62
     7
370
    30
100
AcDbCircle
 10
343.9659909841
 20
159.6691412646
 30
0.0
 40
42.50000000000002
100
AcDbArc
 50
318.9892993452
 51
31.0107006548
  0
ARC
  5
265
330
1F
100
AcDbEntity
  8
0
  6
Continuous
 62
     7
370
    30
100
AcDbCircle
 10
373.8417242657
 20
184.7378580424
 30
0.0
 40
3.750000000000038
100
AcDbArc
 50
130.0
 51
310.0
  0
LINE
  5
266
330
1F
100
AcDbEntity
  8
0
  6
Continuous
 62
     7
370
    30
100
AcDbLine
 10
376.2521778021
 20
181.8651913807
 30
0.0
 11
376.6418658154
 21
182.192178449
 31
0.0
  0
LINE
  5
267
330
1F
100
AcDbEntity
  8
0
  6
Continuous
 62
     7
370
    30
100
AcDbLine
 10
372.2343614919
 20
131.814173506
 30
0.0
 11
371.9073744236
 21
132.2038615193
 31
0.0
  0
ARC
  5
268
330
1F
100
AcDbEntity
  8
0
  6
Continuous
 62
     7
370
    30
100
AcDbCircle
 10
369.0347077619
 20
129.793407983
 30
0.0
 40
3.750000000000001
100
AcDbArc
 50
40.0
 51
220.0
  0
LINE
  5
269
330
1F
100
AcDbEntity
  8
0
  6
Continuous
 62
     7
370
    30
100
AcDbLine
 10
366.1620411002
 20
127.3829544467
 30
0.0
 11
366.4890281685
 21
126.9932664333
 31
0.0
  0
LINE
  5
26A
330
1F
100
AcDbEntity
  8
0
  6
Continuous
 62
     7
370
    30
100
AcDbLine
 10
316.1110232254
 20
131.4007707569
 30
0.0
 11
316.5007112388
 21
131.7277578252
 31
0.0
  0
ARC
  5
26B
330
1F
100
AcDbEntity
  8
0
  6
Continuous
 62
     7
370
    30
100
AcDbCircle
 10
314.0902577025
 20
134.6004244869
 30
0.0
 40
3.750000000000001
100
AcDbArc
 50
310.0
 51
130.0
  0
LINE
  5
26C
330
1F
100
AcDbEntity
  8
0
  6
Continuous
 62
     7
370
    30
100
AcDbLine
 10
311.6798041661
 20
137.4730911486
 30
0.0
 11
311.2901161528
 21
137.1461040803
 31
0.0
  0
LINE
  5
26D
330
1F
100
AcDbEntity
  8
0
  6
Continuous
 62
     7
370
    30
100
AcDbLine
 10
315.6976204764
 20
187.5241090233
 30
0.0
 11
316.0246075446
 21
187.13442101
 31
0.0
  0
ARC
  5
26E
330
1F
100
AcDbEntity
  8
0
  6
Continuous
 62
     7
370
    30
100
AcDbCircle
 10
318.8972742063
 20
189.5448745463
 30
0.0
 40
3.750000000000027
100
AcDbArc
 50
220.0
 51
40.0
  0
LINE
  5
26F
330
1F
100
AcDbEntity
  8
0
  6
Continuous
 62
     7
370
    30
100
AcDbLine
 10
321.769940868
 20
191.9553280826
 30
0.0
 11
321.4429537997
 21
192.345016096
 31
0.0
  0
LINE
  5
270
330
1F
100
AcDbEntity
  8
0
  6
Continuous
 62
     7
370
    30
100
AcDbLine
 10
371.8209587428
 20
187.9375117724
 30
0.0
 11
371.4312707294
 21
187.6105247041
 31
0.0
  0
CIRCLE
  5
271
330
1F
100
AcDbEntity
  8
0
  6
Continuous
 62
     7
370
    30
100
AcDbCircle
 10
358.8906448463
 20
123.6378394967
 30
0.0
 40
1.699999999999989
  0
CIRCLE
  5
272
330
1F
100
AcDbEntity
  8
0
  6
Continuous
 62
     7
370
    30
100
AcDbCircle
 10
379.997292752
 20
144.7444874024
 30
0.0
 40
1.699999999999989
  0
CIRCLE
  5
273
330
1F
100
AcDbEntity
  8
0
  6
Continuous
 62
     7
370
    30
100
AcDbCircle
 10
379.997292752
 20
174.5937951269
 30
0.0
 40
1.699999999999989
  0
CIRCLE
  5
274
330
1F
100
AcDbEntity
  8
0
  6
Continuous
 62
     7
370
    30
100
AcDbCircle
 10
358.8906448463
 20
195.7004430326
 30
0.0
 40
1.699999999999989
  0
CIRCLE
  5
275
330
1F
100
AcDbEntity
  8
0
  6
Continuous
 62
     7
370
    30
100
AcDbCircle
 10
329.0413371219
 20
195.7004430326
 30
0.0
 40
1.699999999999989
  0
CIRCLE
  5
276
330
1F
100
AcDbEntity
  8
0
  6
Continuous
 62
     7
370
    30
100
AcDbCircle
 10
307.9346892162
 20
174.5937951269
 30
0.0
 40
1.699999999999989
  0
CIRCLE
  5
277
330
1F
100
AcDbEntity
  8
0
  6
Continuous
 62
     7
370
    30
100
AcDbCircle
 10
307.9346892162
 20
144.7444874024
 30
0.0
 40
1.699999999999989
  0
CIRCLE
  5
278
330
1F
100
AcDbEntity
  8
0
  6
Continuous
 62
     7
370
    30
100
AcDbCircle
 10
329.0413371219
 20
123.6378394967
 30
0.0
 40
1.699999999999989
  0
CIRCLE
  5
279
330
1F
100
AcDbEntity
  8
0
  6
Continuous
 62
     7
370
    30
100
AcDbCircle
 10
337.1937120551
 20
198.0766436321
 30
0.0
 40
1.25
  0
ARC
  5
27A
330
1F
100
AcDbEntity
  8
0
  6
Continuous
 62
     7
370
    30
100
AcDbCircle
 10
370.2139897186
 20
189.8526228802
 30
0.0
 40
2.500000000000013
100
AcDbArc
 50
310.0
 51
19.7925788467
  0
ARC
  5
27B
330
1F
100
AcDbEntity
  8
0
  6
Continuous
 62
     7
370
    30
100
AcDbCircle
 10
317.7179922497
 20
129.4856596491
 30
0.0
 40
2.500000000000067
100
AcDbArc
 50
130.0
 51
199.7925788467
  0
ARC
  5
27C
330
1F
100
AcDbEntity
  8
0
  6
Continuous
 62
     7
370
    30
100
AcDbCircle
 10
313.7825093686
 20
185.9171399991
 30
0.0
 40
2.500000000000001
100
AcDbArc
 50
40.0
 51
109.7925788467
  0
ARC
  5
27D
330
1F
100
AcDbEntity
  8
0
  6
Continuous
 62
     7
370
    30
100
AcDbCircle
 10
374.1494725997
 20
133.4211425302
 30
0.0
 40
2.500000000000026
100
AcDbArc
 50
220.0
 51
289.7925788467
  0
ARC
  5
27E
330
1F
100
AcDbEntity
  8
0
  6
Continuous
 62
     7
370
    30
100
AcDbCircle
 10
378.2488348396
 20
180.2770673412
 30
0.0
 40
2.500000000000005
100
AcDbArc
 50
60.2074211533
 51
130.0
  0
ARC
  5
27F
330
1F
100
AcDbEntity
  8
0
  6
Continuous
 62
     7
370
    30
100
AcDbCircle
 10
323.3580649075
 20
193.9519851202
 30
0.0
 40
2.500000000000023
100
AcDbArc
 50
150.2074211533
 51
220.0
  0
ARC
  5
280
330
1F
100
AcDbEntity
  8
0
  6
Continuous
 62
     7
370
    30
100
AcDbCircle
 10
364.5739170607
 20
125.3862974091
 30
0.0
 40
2.499999999999966
100
AcDbArc
 50
330.2074211533
 51
40.0
  0
ARC
  5
281
330
1F
100
AcDbEntity
  8
0
  6
Continuous
 62
     7
370
    30
100
AcDbCircle
 10
309.6831471286
 20
139.0612151881
 30
0.0
 40
2.500000000000033
100
AcDbArc
 50
240.2074211533
 51
310.0
  0
ARC
  5
282
330
1F
100
AcDbEntity
  8
0
  6
Continuous
 62
     7
370
    30
100
AcDbCircle
 10
343.9659909841
 20
159.6691412646
 30
0.0
 40
42.50000000000002
100
AcDbArc
 50
121.0107006548
 51
138.9892993452
  0
ARC
  5
283
330
1F
100
AcDbEntity
  8
0
  6
Continuous
 62
     7
370
    30
100
AcDbCircle
 10
343.9659909841
 20
159.6691412646
 30
0.0
 40
42.50000000000002
100
AcDbArc
 50
301.0107006548
 51
318.9892993452
  0
ARC
  5
284
330
1F
100
AcDbEntity
  8
0
  6
Continuous
 62
     7
370
    30
100
AcDbCircle
 10
343.9659909841
 20
159.6691412646
 30
0.0
 40
42.5
100
AcDbArc
 50
211.0107006548
 51
228.9892993452
  0
ARC
  5
285
330
1F
100
AcDbEntity
  8
0
  6
Continuous
 62
     7
370
    30
100
AcDbCircle
 10
343.9659909841
 20
159.6691412646
 30
0.0
 40
42.50000000000001
100
AcDbArc
 50
31.0107006548
 51
48.9892993452
  0
LINE
  5
286
330
1F
100
AcDbEntity
  8
0
  6
Continuous
 62
     7
370
    30
100
AcDbLine
 10
345.8259909841
 20
209.6691412646
 30
0.0
 11
347.3059909841
 21
209.6691412646
 31
0.0
  0
LINE
  5
287
330
1F
100
AcDbEntity
  8
0
  6
Continuous
 62
     7
370
    30
100
AcDbLine
 10
346.1659909841
 20
214.6691412646
 30
0.0
 11
346.9659909841
 21
214.6691412646
 31
0.0
  0
LINE
  5
288
330
1F
100
AcDbEntity
  8
0
  6
Continuous
 62
     7
370
    30
100
AcDbLine
 10
343.2259909841
 20
209.6691412646
 30
0.0
 11
344.7059909841
 21
209.6691412646
 31
0.0
  0
LINE
  5
289
330
1F
100
AcDbEntity
  8
0
  6
Continuous
 62
     7
370
    30
100
AcDbLine
 10
343.5659909841
 20
214.6691412646
 30
0.0
 11
344.3659909841
 21
214.6691412646
 31
0.0
  0
LINE
  5
28A
330
1F
100
AcDbEntity
  8
0
  6
Continuous
 62
     7
370
    30
100
AcDbLine
 10
347.7609909841
 20
209.6691412646
 30
0.0
 11
348.5709909841
 21
209.6691412646
 31
0.0
  0
LINE
  5
28B
330
1F
100
AcDbEntity
  8
0
  6
Continuous
 62
     7
370
    30
100
AcDbLine
 10
347.9659909841
 20
214.6691412646
 30
0.0
 11
348.3659909841
 21
214.6691412646
 31
0.0
  0
LINE
  5
28C
330
1F
100
AcDbEntity
  8
0
  6
Continuous
 62
     7
370
    30
100
AcDbLine
 10
340.6259909841
 20
209.6691412646
 30
0.0
 11
342.1059909841
 21
209.6691412646
 31
0.0
  0
LINE
  5
28D
330
1F
100
AcDbEntity
  8
0
  6
Continuous
 62
     7
370
    30
100
AcDbLine
 10
340.9659909841
 20
214.6691412646
 30
0.0
 11
341.7659909841
 21
214.6691412646
 31
0.0
  0
LINE
  5
28E
330
1F
100
AcDbEntity
  8
0
  6
Continuous
 62
     7
370
    30
100
AcDbLine
 10
342.1609909841
 20
209.6691412646
 30
0.0
 11
342.9709909841
 21
209.6691412646
 31
0.0
  0
LINE
  5
28F
330
1F
100
AcDbEntity
  8
0
  6
Continuous
 62
     7
370
    30
100
AcDbLine
 10
342.3659909841
 20
214.6691412646
 30
0.0
 11
342.7659909841
 21
214.6691412646
 31
0.0
  0
LINE
  5
290
330
1F
100
AcDbEntity
  8
0
  6
Continuous
 62
     7
370
    30
100
AcDbLine
 10
344.9609909841
 20
209.6691412646
 30
0.0
 11
345.7709909841
 21
209.6691412646
 31
0.0
  0
LINE
  5
291
330
1F
100
AcDbEntity
  8
0
  6
Continuous
 62
     7
370
    30
100
AcDbLine
 10
345.1659909841
 20
214.6691412646
 30
0.0
 11
345.5659909841
 21
214.6691412646
 31
0.0
  0
LINE
  5
292
330
1F
100
AcDbEntity
  8
0
  6
Continuous
 62
     7
370
    30
100
AcDbLine
 10
339.3609909841
 20
209.6691412646
 30
0.0
 11
340.1709909841
 21
209.6691412646
 31
0.0
  0
LINE
  5
293
330
1F
100
AcDbEntity
  8
0
  6
Continuous
 62
     7
370
    30
100
AcDbLine
 10
339.5659909841
 20
214.6691412646
 30
0.0
 11
339.9659909841
 21
214.6691412646
 31
0.0
  0
CIRCLE
  5
294
330
1F
100
AcDbEntity
  8
0
  6
HIDDEN
 62
     7
370
     0
100
AcDbCircle
 10
337.1937120551
 20
198.0766436321
 30
0.0
 40
1.25
  0
SPLINE
  5
295
330
1F
100
AcDbEntity
  8
0
  6
Continuous
 62
     1
370
    15
100
AcDbSpline
210
0.0
220
0.0
230
1.0
 70
     8
 71
     3
 72
     8
 73
     4
 74
     0
 42
0.000000001
 43
0.00000001
 40
0.0
 40
0.0
 40
0.0
 40
0.0
 40
1.0
 40
1.0
 40
1.0
 40
1.0
 10
337.9554772153781
 20
207.5846597032491
 30
0.0
 10
341.8166430161982
 20
211.2138696456315
 30
0.0
 10
345.5770155154971
 20
204.341995268632
 30
0.0
 10
349.5424101075101
 20
208.3571218960579
 30
0.0
  0
SPLINE
  5
296
330
1F
100
AcDbEntity
  8
0
  6
Continuous
 62
     1
370
    15
100
AcDbSpline
210
0.0
220
0.0
230
1.0
 70
     8
 71
     3
 72
    21
 73
    17
 74
     0
 42
0.000000001
 43
0.00000001
 40
0.0
 40
0.0
 40
0.0
 40
0.0
 40
0.03125
 40
0.0625
 40
0.125
 40
0.1875
 40
0.25
 40
0.375
 40
0.5
 40
0.625
 40
0.75
 40
0.8125
 40
0.875
 40
0.9375
 40
0.96875
 40
1.0
 40
1.0
 40
1.0
 40
1.0
 10
338.2979178971398
 20
207.2203324060635
 30
0.0
 10
338.4022100604329
 20
207.3183593169658
 30
0.0
 10
338.6275022613186
 20
207.5116348122448
 30
0.0
 10
339.0488437614147
 20
207.8041273295406
 30
0.0
 10
339.5658656796265
 20
208.0497343746815
 30
0.0
 10
340.1738398549004
 20
208.1839660173988
 30
0.0
 10
341.0032447851076
 20
208.1939954545869
 30
0.0
 10
342.1043150263526
 20
207.9318699849231
 30
0.0
 10
343.5134430345505
 20
207.3633993716739
 30
0.0
 10
344.9930779341388
 20
206.7836667077805
 30
0.0
 10
346.3088582270159
 20
206.5111334105433
 30
0.0
 10
347.416130462118
 20
206.582346438053
 30
0.0
 10
348.2573531039442
 20
206.8220448571043
 30
0.0
 10
348.95247640548
 20
207.2027862513122
 30
0.0
 10
349.4935603317986
 20
207.618608205529
 30
0.0
 10
349.7691613354058
 20
207.8751622364062
 30
0.0
 10
349.8981598213615
 20
208.0057785581466
 30
0.0
  0
INSERT
  5
2BA
330
1F
100
AcDbEntity
  8
0
  6
Continuous
 62
     7
370
     0
100
AcDbBlockReference
  2
SW_CENTERMARKSYMBOL_5
 10
318.8972742063
 20
189.5448745463
 30
0.0
  0
INSERT
  5
2DE
330
1F
100
AcDbEntity
  8
0
  6
Continuous
 62
     7
370
     0
100
AcDbBlockReference
  2
SW_CENTERMARKSYMBOL_6
 10
363.2955168891
 20
187.2745651572
 30
0.0
  0
INSERT
  5
2EA
330
1F
100
AcDbEntity
  8
0
  6
Continuous
 62
     7
370
     0
100
AcDbBlockReference
  2
SW_CENTERMARKSYMBOL_7
 10
343.9659909841
 20
159.6691412646
 30
0.0
  0
INSERT
  5
326
330
1F
100
AcDbEntity
  8
0
  6
Continuous
 62
     7
370
     0
100
AcDbBlockReference
  2
SW_CENTERMARKSYMBOL_8
 10
307.9346892162
 20
144.7444874024
 30
0.0
  0
INSERT
  5
332
330
1F
100
AcDbEntity
  8
0
  6
Continuous
 62
     7
370
     0
100
AcDbBlockReference
  2
SW_CENTERMARKSYMBOL_9
 10
337.1937120551
 20
198.0766436321
 30
0.0
  0
CIRCLE
  5
333
330
1F
100
AcDbEntity
  8
0
  6
Continuous
 62
     7
370
     0
100
AcDbCircle
 10
337.1937120551
 20
198.0766436321
 30
0.0
 40
1.500000124916994
  0
LINE
  5
334
330
1F
100
AcDbEntity
  8
0
  6
Continuous
 62
     7
370
    30
100
AcDbLine
 10
216.9697428591
 20
117.1691412646
 30
0.0
 11
224.3697428591
 21
117.1691412646
 31
0.0
  0
LINE
  5
335
330
1F
100
AcDbEntity
  8
0
  6
Continuous
 62
     7
370
    30
100
AcDbLine
 10
224.3697428591
 20
202.1691412646
 30
0.0
 11
216.9697428591
 21
202.1691412646
 31
0.0
  0
LINE
  5
336
330
1F
100
AcDbEntity
  8
0
  6
Continuous
 62
     7
370
    30
100
AcDbLine
 10
216.9697428591
 20
202.1691412646
 30
0.0
 11
216.6697428591
 21
201.8691412646
 31
0.0
  0
LINE
  5
337
330
1F
100
AcDbEntity
  8
0
  6
Continuous
 62
     7
370
    30
100
AcDbLine
 10
216.6697428591
 20
117.4691412646
 30
0.0
 11
216.9697428591
 21
117.1691412646
 31
0.0
  0
LINE
  5
338
330
1F
100
AcDbEntity
  8
0
  6
Continuous
 62
     7
370
    30
100
AcDbLine
 10
220.6697428591
 20
136.5612151881
 30
0.0
 11
224.6697428591
 21
136.5612151881
 31
0.0
  0
LINE
  5
339
330
1F
100
AcDbEntity
  8
0
  6
Continuous
 62
     7
370
    30
100
AcDbLine
 10
224.6697428591
 20
188.4171399991
 30
0.0
 11
220.6697428591
 21
188.4171399991
 31
0.0
  0
LINE
  5
33A
330
1F
100
AcDbEntity
  8
0
  6
Continuous
 62
     7
370
    30
100
AcDbLine
 10
234.5697428591
 20
183.1707401006
 30
0.0
 11
224.6697428591
 21
183.1707401006
 31
0.0
  0
LINE
  5
33B
330
1F
100
AcDbEntity
  8
0
  6
Continuous
 62
     7
370
    30
100
AcDbLine
 10
234.5697428591
 20
175.7486671697
 30
0.0
 11
235.0697428591
 21
175.7486671697
 31
0.0
  0
LINE
  5
33C
330
1F
100
AcDbEntity
  8
0
  6
Continuous
 62
     7
370
    30
100
AcDbLine
 10
235.0697428591
 20
182.2486671697
 30
0.0
 11
234.5697428591
 21
182.2486671697
 31
0.0
  0
LINE
  5
33D
330
1F
100
AcDbEntity
  8
0
  6
Continuous
 62
     7
370
    30
100
AcDbLine
 10
235.0697428591
 20
129.1691412646
 30
0.0
 11
241.6697428591
 21
129.1691412646
 31
0.0
  0
LINE
  5
33E
330
1F
100
AcDbEntity
  8
0
  6
Continuous
 62
     7
370
    30
100
AcDbLine
 10
235.9197428591
 20
190.1691412646
 30
0.0
 11
224.6697428591
 21
190.1691412646
 31
0.0
  0
LINE
  5
33F
330
1F
100
AcDbEntity
  8
0
  6
Continuous
 62
     7
370
    30
100
AcDbLine
 10
242.4197428591
 20
190.1691412646
 30
0.0
 11
241.9197428591
 21
190.1691412646
 31
0.0
  0
LINE
  5
340
330
1F
100
AcDbEntity
  8
0
  6
Continuous
 62
     7
370
    30
100
AcDbLine
 10
235.0697428591
 20
176.3986671697
 30
0.0
 11
235.6697428591
 21
176.3986671697
 31
0.0
  0
LINE
  5
341
330
1F
100
AcDbEntity
  8
0
  6
Continuous
 62
     7
370
    30
100
AcDbLine
 10
235.6697428591
 20
181.5986671697
 30
0.0
 11
235.0697428591
 21
181.5986671697
 31
0.0
  0
LINE
  5
342
330
1F
100
AcDbEntity
  8
0
  6
Continuous
 62
     7
370
    30
100
AcDbLine
 10
235.6697428591
 20
176.6586671697
 30
0.0
 11
238.0447428591
 21
176.6586671697
 31
0.0
  0
LINE
  5
343
330
1F
100
AcDbEntity
  8
0
  6
Continuous
 62
     7
370
    30
100
AcDbLine
 10
238.0447428591
 20
181.3386671697
 30
0.0
 11
235.6697428591
 21
181.3386671697
 31
0.0
  0
ARC
  5
344
330
1F
100
AcDbEntity
  8
0
  6
Continuous
 62
     7
370
    30
100
AcDbCircle
 10
238.0447428591
 20
176.7836671697
 30
0.0
 40
0.125
100
AcDbArc
 50
270.0
 51
0.0
  0
ARC
  5
345
330
1F
100
AcDbEntity
  8
0
  6
Continuous
 62
     7
370
    30
100
AcDbCircle
 10
238.0447428591
 20
181.2136671697
 30
0.0
 40
0.125
100
AcDbArc
 50
0.0
 51
90.0
  0
LINE
  5
346
330
1F
100
AcDbEntity
  8
0
  6
Continuous
 62
     7
370
    30
100
AcDbLine
 10
224.3697428591
 20
117.1691412646
 30
0.0
 11
224.6697428591
 21
117.4691412646
 31
0.0
  0
LINE
  5
347
330
1F
100
AcDbEntity
  8
0
  6
Continuous
 62
     7
370
    30
100
AcDbLine
 10
224.6697428591
 20
127.8179717588
 30
0.0
 11
234.5697428591
 21
127.8179717588
 31
0.0
  0
LINE
  5
348
330
1F
100
AcDbEntity
  8
0
  6
Continuous
 62
     7
370
    30
100
AcDbLine
 10
224.6697428591
 20
201.8691412646
 30
0.0
 11
224.3697428591
 21
202.1691412646
 31
0.0
  0
LINE
  5
349
330
1F
100
AcDbEntity
  8
0
  6
Continuous
 62
     7
370
    30
100
AcDbLine
 10
234.5697428591
 20
128.8137173721
 30
0.0
 11
235.0697428591
 21
128.8137173721
 31
0.0
  0
LINE
  5
34A
330
1F
100
AcDbEntity
  8
0
  6
Continuous
 62
     7
370
    30
100
AcDbLine
 10
235.0697428591
 20
135.3137173721
 30
0.0
 11
234.5697428591
 21
135.3137173721
 31
0.0
  0
LINE
  5
34B
330
1F
100
AcDbEntity
  8
0
  6
Continuous
 62
     7
370
    30
100
AcDbLine
 10
235.0697428591
 20
129.4637173721
 30
0.0
 11
235.6697428591
 21
129.4637173721
 31
0.0
  0
LINE
  5
34C
330
1F
100
AcDbEntity
  8
0
  6
Continuous
 62
     7
370
    30
100
AcDbLine
 10
235.6697428591
 20
134.6637173721
 30
0.0
 11
235.0697428591
 21
134.6637173721
 31
0.0
  0
LINE
  5
34D
330
1F
100
AcDbEntity
  8
0
  6
Continuous
 62
     7
370
    30
100
AcDbLine
 10
235.6697428591
 20
129.7237173721
 30
0.0
 11
238.0447428591
 21
129.7237173721
 31
0.0
  0
LINE
  5
34E
330
1F
100
AcDbEntity
  8
0
  6
Continuous
 62
     7
370
    30
100
AcDbLine
 10
238.0447428591
 20
134.4037173721
 30
0.0
 11
235.6697428591
 21
134.4037173721
 31
0.0
  0
ARC
  5
34F
330
1F
100
AcDbEntity
  8
0
  6
Continuous
 62
     7
370
    30
100
AcDbCircle
 10
238.0447428591
 20
129.8487173721
 30
0.0
 40
0.125
100
AcDbArc
 50
270.0
 51
0.0
  0
ARC
  5
350
330
1F
100
AcDbEntity
  8
0
  6
Continuous
 62
     7
370
    30
100
AcDbCircle
 10
238.0447428591
 20
134.2787173721
 30
0.0
 40
0.125
100
AcDbArc
 50
0.0
 51
90.0
  0
LINE
  5
351
330
1F
100
AcDbEntity
  8
0
  6
Continuous
 62
     7
370
    30
100
AcDbLine
 10
241.9197428591
 20
192.1691412646
 30
0.0
 11
241.1097428591
 21
192.1691412646
 31
0.0
  0
LINE
  5
352
330
1F
100
AcDbEntity
  8
0
  6
Continuous
 62
     7
370
    30
100
AcDbLine
 10
239.6297428591
 20
192.1691412646
 30
0.0
 11
238.2247428591
 21
192.1691412646
 31
0.0
  0
LINE
  5
353
330
1F
100
AcDbEntity
  8
0
  6
Continuous
 62
     7
370
    30
100
AcDbLine
 10
237.4147428591
 20
192.1691412646
 30
0.0
 11
235.9197428591
 21
192.1691412646
 31
0.0
  0
LINE
  5
354
330
1F
100
AcDbEntity
  8
0
  6
Continuous
 62
     7
370
    30
100
AcDbLine
 10
235.0697428591
 20
190.5245651572
 30
0.0
 11
234.5697428591
 21
190.5245651572
 31
0.0
  0
LINE
  5
355
330
1F
100
AcDbEntity
  8
0
  6
Continuous
 62
     7
370
    30
100
AcDbLine
 10
234.5697428591
 20
191.5203107705
 30
0.0
 11
224.6697428591
 21
191.5203107705
 31
0.0
  0
ARC
  5
356
330
1F
100
AcDbEntity
  8
0
  6
Continuous
 62
     7
370
    30
100
AcDbCircle
 10
197.6697428591
 20
186.1691412646
 30
0.0
 40
0.5
100
AcDbArc
 50
90.0
 51
180.0
  0
ARC
  5
357
330
1F
100
AcDbEntity
  8
0
  6
Continuous
 62
     7
370
    30
100
AcDbCircle
 10
197.6697428591
 20
133.1691412646
 30
0.0
 40
0.5
100
AcDbArc
 50
180.0
 51
270.0
  0
LINE
  5
358
330
1F
100
AcDbEntity
  8
0
  6
Continuous
 62
     7
370
    30
100
AcDbLine
 10
197.6697428591
 20
132.6691412646
 30
0.0
 11
200.1697428591
 21
132.6691412646
 31
0.0
  0
LINE
  5
359
330
1F
100
AcDbEntity
  8
0
  6
Continuous
 62
     7
370
    30
100
AcDbLine
 10
200.1697428591
 20
186.6691412646
 30
0.0
 11
197.6697428591
 21
186.6691412646
 31
0.0
  0
LINE
  5
35A
330
1F
100
AcDbEntity
  8
0
  6
Continuous
 62
     7
370
    30
100
AcDbLine
 10
216.3697428591
 20
117.1691412646
 30
0.0
 11
216.6697428591
 21
117.4691412646
 31
0.0
  0
LINE
  5
35B
330
1F
100
AcDbEntity
  8
0
  6
Continuous
 62
     7
370
    30
100
AcDbLine
 10
216.6697428591
 20
201.8691412646
 30
0.0
 11
216.3697428591
 21
202.1691412646
 31
0.0
  0
LINE
  5
35C
330
1F
100
AcDbEntity
  8
0
  6
Continuous
 62
     7
370
    30
100
AcDbLine
 10
212.4697428591
 20
202.1691412646
 30
0.0
 11
212.1697428591
 21
201.8691412646
 31
0.0
  0
LINE
  5
35D
330
1F
100
AcDbEntity
  8
0
  6
Continuous
 62
     7
370
    30
100
AcDbLine
 10
212.1697428591
 20
117.4691412646
 30
0.0
 11
212.4697428591
 21
117.1691412646
 31
0.0
  0
LINE
  5
35E
330
1F
100
AcDbEntity
  8
0
  6
Continuous
 62
     7
370
    30
100
AcDbLine
 10
212.4697428591
 20
117.1691412646
 30
0.0
 11
216.3697428591
 21
117.1691412646
 31
0.0
  0
LINE
  5
35F
330
1F
100
AcDbEntity
  8
0
  6
Continuous
 62
     7
370
    30
100
AcDbLine
 10
216.3697428591
 20
202.1691412646
 30
0.0
 11
212.4697428591
 21
202.1691412646
 31
0.0
  0
ARC
  5
360
330
1F
100
AcDbEntity
  8
0
  6
Continuous
 62
     7
370
    30
100
AcDbCircle
 10
211.7697428591
 20
123.2691412646
 30
0.0
 40
0.3999999999999773
100
AcDbArc
 50
0.0
 51
90.0
  0
ARC
  5
361
330
1F
100
AcDbEntity
  8
0
  6
Continuous
 62
     7
370
    30
100
AcDbCircle
 10
211.7697428591
 20
196.0691412646
 30
0.0
 40
0.3999999999999773
100
AcDbArc
 50
270.0
 51
0.0
  0
LINE
  5
362
330
1F
100
AcDbEntity
  8
0
  6
Continuous
 62
     7
370
    30
100
AcDbLine
 10
207.4697428591
 20
123.6691412646
 30
0.0
 11
211.7697428591
 21
123.6691412646
 31
0.0
  0
LINE
  5
363
330
1F
100
AcDbEntity
  8
0
  6
Continuous
 62
     7
370
    30
100
AcDbLine
 10
211.7697428591
 20
195.6691412646
 30
0.0
 11
207.4697428591
 21
195.6691412646
 31
0.0
  0
LINE
  5
364
330
1F
100
AcDbEntity
  8
0
  6
Continuous
 62
     7
370
    30
100
AcDbLine
 10
207.4697428591
 20
195.6691412646
 30
0.0
 11
207.1697428591
 21
195.3691412646
 31
0.0
  0
LINE
  5
365
330
1F
100
AcDbEntity
  8
0
  6
Continuous
 62
     7
370
    30
100
AcDbLine
 10
207.1697428591
 20
123.9691412646
 30
0.0
 11
207.4697428591
 21
123.6691412646
 31
0.0
  0
LINE
  5
366
330
1F
100
AcDbEntity
  8
0
  6
Continuous
 62
     7
370
    30
100
AcDbLine
 10
206.1697428591
 20
124.1691412646
 30
0.0
 11
207.1697428591
 21
124.1691412646
 31
0.0
  0
LINE
  5
367
330
1F
100
AcDbEntity
  8
0
  6
Continuous
 62
     7
370
    30
100
AcDbLine
 10
207.1697428591
 20
195.1691412646
 30
0.0
 11
206.1697428591
 21
195.1691412646
 31
0.0
  0
LINE
  5
368
330
1F
100
AcDbEntity
  8
0
  6
Continuous
 62
     7
370
    30
100
AcDbLine
 10
206.1697428591
 20
195.1691412646
 30
0.0
 11
201.1697428591
 21
195.08186594
 31
0.0
  0
LINE
  5
369
330
1F
100
AcDbEntity
  8
0
  6
Continuous
 62
     7
370
    30
100
AcDbLine
 10
201.1697428591
 20
124.2564165893
 30
0.0
 11
206.1697428591
 21
124.1691412646
 31
0.0
  0
LINE
  5
36A
330
1F
100
AcDbEntity
  8
0
  6
Continuous
 62
     7
370
    30
100
AcDbLine
 10
200.5697428591
 20
195.08186594
 30
0.0
 11
200.1697428591
 21
194.68186594
 31
0.0
  0
LINE
  5
36B
330
1F
100
AcDbEntity
  8
0
  6
Continuous
 62
     7
370
    30
100
AcDbLine
 10
200.1697428591
 20
124.6564165893
 30
0.0
 11
200.5697428591
 21
124.2564165893
 31
0.0
  0
LINE
  5
36C
330
1F
100
AcDbEntity
  8
0
  6
Continuous
 62
     7
370
    30
100
AcDbLine
 10
200.5697428591
 20
124.2564165893
 30
0.0
 11
201.1697428591
 21
124.2564165893
 31
0.0
  0
LINE
  5
36D
330
1F
100
AcDbEntity
  8
0
  6
Continuous
 62
     7
370
    30
100
AcDbLine
 10
201.1697428591
 20
195.08186594
 30
0.0
 11
200.5697428591
 21
195.08186594
 31
0.0
  0
ARC
  5
36E
330
1F
100
AcDbEntity
  8
0
  6
Continuous
 62
     7
370
    30
100
AcDbCircle
 10
223.5197428591
 20
131.9104244869
 30
0.0
 40
0.1500000000000341
100
AcDbArc
 50
270.0
 51
0.0
  0
LINE
  5
36F
330
1F
100
AcDbEntity
  8
0
  6
Continuous
 62
     7
370
    30
100
AcDbLine
 10
220.6697428591
 20
131.7604244869
 30
0.0
 11
223.5197428591
 21
131.7604244869
 31
0.0
  0
ARC
  5
370
330
1F
100
AcDbEntity
  8
0
  6
Continuous
 62
     7
370
    30
100
AcDbCircle
 10
223.5197428591
 20
192.2348745463
 30
0.0
 40
0.1500000000000057
100
AcDbArc
 50
0.0
 51
90.0
  0
LINE
  5
371
330
1F
100
AcDbEntity
  8
0
  6
Continuous
 62
     7
370
    30
100
AcDbLine
 10
223.5197428591
 20
192.3848745463
 30
0.0
 11
220.6697428591
 21
192.3848745463
 31
0.0
  0
LINE
  5
372
330
1F
100
AcDbEntity
  8
0
  6
Continuous
 62
     7
370
    30
100
AcDbLine
 10
239.6297428591
 20
209.6691412646
 30
0.0
 11
239.6297428591
 21
192.06497433
 31
0.0
  0
LINE
  5
373
330
1F
100
AcDbEntity
  8
0
  6
Continuous
 62
     7
370
    30
100
AcDbLine
 10
241.1097428591
 20
192.06497433
 30
0.0
 11
241.1097428591
 21
209.6691412646
 31
0.0
  0
LINE
  5
374
330
1F
100
AcDbEntity
  8
0
  6
Continuous
 62
     7
370
    30
100
AcDbLine
 10
240.7697428591
 20
209.6691412646
 30
0.0
 11
240.7697428591
 21
214.6691412646
 31
0.0
  0
LINE
  5
375
330
1F
100
AcDbEntity
  8
0
  6
Continuous
 62
     7
370
    30
100
AcDbLine
 10
239.9697428591
 20
214.6691412646
 30
0.0
 11
239.9697428591
 21
209.6691412646
 31
0.0
  0
LINE
  5
376
330
1F
100
AcDbEntity
  8
0
  6
Continuous
 62
     7
370
    30
100
AcDbLine
 10
237.4147428591
 20
209.6691412646
 30
0.0
 11
237.4147428591
 21
191.896614017
 31
0.0
  0
LINE
  5
377
330
1F
100
AcDbEntity
  8
0
  6
Continuous
 62
     7
370
    30
100
AcDbLine
 10
238.2247428591
 20
191.8966140169
 30
0.0
 11
238.2247428591
 21
209.6691412646
 31
0.0
  0
LINE
  5
378
330
1F
100
AcDbEntity
  8
0
  6
Continuous
 62
     7
370
    30
100
AcDbLine
 10
238.0197428591
 20
209.6691412646
 30
0.0
 11
238.0197428591
 21
214.6691412646
 31
0.0
  0
LINE
  5
379
330
1F
100
AcDbEntity
  8
0
  6
Continuous
 62
     7
370
    30
100
AcDbLine
 10
237.6197428591
 20
214.6691412646
 30
0.0
 11
237.6197428591
 21
209.6691412646
 31
0.0
  0
LINE
  5
37A
330
1F
100
AcDbEntity
  8
0
  6
Continuous
 62
     7
370
     0
100
AcDbLine
 10
200.5697428591
 20
139.3564668557
 30
0.0
 11
200.6697428591
 21
139.3444214126
 31
0.0
  0
LINE
  5
37B
330
1F
100
AcDbEntity
  8
0
  6
Continuous
 62
     7
370
     0
100
AcDbLine
 10
200.6697428591
 20
134.9489602579
 30
0.0
 11
200.5697428591
 21
134.9369148148
 31
0.0
  0
LINE
  5
37C
330
1F
100
AcDbEntity
  8
0
  6
Continuous
 62
     7
370
     0
100
AcDbLine
 10
200.5197428591
 20
139.3618040122
 30
0.0
 11
200.8693774233
 21
139.3203771065
 31
0.0
  0
LINE
  5
37D
330
1F
100
AcDbEntity
  8
0
  6
Continuous
 62
     7
370
     0
100
AcDbLine
 10
200.8693774233
 20
134.973004564
 30
0.0
 11
200.5197428591
 21
134.9315776583
 31
0.0
  0
SPLINE
  5
37E
330
1F
100
AcDbEntity
  8
0
  6
Continuous
 62
     7
370
    30
100
AcDbSpline
210
0.0
220
0.0
230
1.0
 70
     8
 71
     3
 72
    11
 73
     7
 74
     0
 42
0.000000001
 43
0.00000001
 40
0.0
 40
0.0
 40
0.0
 40
0.0
 40
0.2544551420224385
 40
0.5150640501724891
 40
0.7540054025895907
 40
1.0
 40
1.0
 40
1.0
 40
1.0
 10
224.6697428591108
 20
188.2694515881039
 30
0.0
 10
224.6252219703686
 20
188.2313365905314
 30
0.0
 10
224.5351034956914
 20
188.154184818844
 30
0.0
 10
224.4420749807842
 20
187.9893616116864
 30
0.0
 10
224.3810690782225
 20
187.7923979380212
 30
0.0
 10
224.3735546969401
 20
187.6366477058292
 30
0.0
 10
224.3697428591108
 20
187.5576399200004
 30
0.0
  0
LINE
  5
37F
330
1F
100
AcDbEntity
  8
0
  6
Continuous
 62
     7
370
    30
100
AcDbLine
 10
224.6697428591
 20
188.2694515881
 30
0.0
 11
224.6697428591
 21
136.8916406483
 31
0.0
  0
SPLINE
  5
380
330
1F
100
AcDbEntity
  8
0
  6
Continuous
 62
     7
370
    30
100
AcDbSpline
210
0.0
220
0.0
230
1.0
 70
     8
 71
     3
 72
    11
 73
     7
 74
     0
 42
0.000000001
 43
0.00000001
 40
0.0
 40
0.0
 40
0.0
 40
0.0
 40
0.2521000688773165
 40
0.5127414983056364
 40
0.7536134637531364
 40
1.0
 40
1.0
 40
1.0
 40
1.0
 10
224.3697428591108
 20
137.7732198082976
 30
0.0
 10
224.373760827599
 20
137.6803603490315
 30
0.0
 10
224.3819328966982
 20
137.4914952745871
 30
0.0
 10
224.4465077044912
 20
137.2525347573064
 30
0.0
 10
224.5411441139106
 20
137.0472954086646
 30
0.0
 10
224.6265543990832
 20
136.9439155704459
 30
0.0
 10
224.6697428591108
 20
136.8916406482682
 30
0.0
  0
LINE
  5
381
330
1F
100
AcDbEntity
  8
0
  6
Continuous
 62
     7
370
    30
100
AcDbLine
 10
224.3697428591
 20
137.7732198083
 30
0.0
 11
224.3697428591
 21
187.55763992
 31
0.0
  0
LINE
  5
382
330
1F
100
AcDbEntity
  8
0
  6
Continuous
 62
     7
370
    30
100
AcDbLine
 10
220.6697428591
 20
196.0946628611
 30
0.0
 11
220.6697428591
 21
187.55763992
 31
0.0
  0
LINE
  5
383
330
1F
100
AcDbEntity
  8
0
  6
Continuous
 62
     7
370
    30
100
AcDbLine
 10
220.6697428591
 20
137.7732198083
 30
0.0
 11
220.6697428591
 21
127.5991920481
 31
0.0
  0
LINE
  5
384
330
1F
100
AcDbEntity
  8
0
  6
Continuous
 62
     7
370
    30
100
AcDbLine
 10
224.3697428591
 20
117.1691412646
 30
0.0
 11
224.3697428591
 21
127.5991920481
 31
0.0
  0
LINE
  5
385
330
1F
100
AcDbEntity
  8
0
  6
Continuous
 62
     7
370
    30
100
AcDbLine
 10
224.3697428591
 20
196.0946628611
 30
0.0
 11
224.3697428591
 21
202.1691412646
 31
0.0
  0
LINE
  5
386
330
1F
100
AcDbEntity
  8
0
  6
Continuous
 62
     7
370
    30
100
AcDbLine
 10
216.9697428591
 20
202.1691412646
 30
0.0
 11
216.9697428591
 21
117.1691412646
 31
0.0
  0
LINE
  5
387
330
1F
100
AcDbEntity
  8
0
  6
Continuous
 62
     7
370
    30
100
AcDbLine
 10
216.6697428591
 20
117.4691412646
 30
0.0
 11
216.6697428591
 21
201.8691412646
 31
0.0
  0
LINE
  5
388
330
1F
100
AcDbEntity
  8
0
  6
Continuous
 62
     7
370
    30
100
AcDbLine
 10
224.6697428591
 20
136.8916406483
 30
0.0
 11
224.6697428591
 21
136.5612151881
 31
0.0
  0
LINE
  5
389
330
1F
100
AcDbEntity
  8
0
  6
Continuous
 62
     7
370
    30
100
AcDbLine
 10
224.6697428591
 20
131.7277578252
 30
0.0
 11
224.6697428591
 21
136.5612151881
 31
0.0
  0
LINE
  5
38A
330
1F
100
AcDbEntity
  8
0
  6
Continuous
 62
     7
370
    30
100
AcDbLine
 10
224.6697428591
 20
188.4171399991
 30
0.0
 11
224.6697428591
 21
188.2694515881
 31
0.0
  0
LINE
  5
38B
330
1F
100
AcDbEntity
  8
0
  6
Continuous
 62
     7
370
    30
100
AcDbLine
 10
234.5697428591
 20
183.1707401006
 30
0.0
 11
234.5697428591
 21
176.7426162958
 31
0.0
  0
LINE
  5
38C
330
1F
100
AcDbEntity
  8
0
  6
Continuous
 62
     7
370
    30
100
AcDbLine
 10
234.5697428591
 20
167.9554757915
 30
0.0
 11
234.5697428591
 21
176.7426162958
 31
0.0
  0
LINE
  5
38D
330
1F
100
AcDbEntity
  8
0
  6
Continuous
 62
     7
370
    30
100
AcDbLine
 10
235.0697428591
 20
175.7486671697
 30
0.0
 11
235.0697428591
 21
182.2486671697
 31
0.0
  0
LINE
  5
38E
330
1F
100
AcDbEntity
  8
0
  6
Continuous
 62
     7
370
    30
100
AcDbLine
 10
242.4197428591
 20
190.1691412646
 30
0.0
 11
242.4197428591
 21
189.3549964822
 31
0.0
  0
LINE
  5
38F
330
1F
100
AcDbEntity
  8
0
  6
Continuous
 62
     7
370
    30
100
AcDbLine
 10
242.4197428591
 20
189.3549964822
 30
0.0
 11
241.6697428591
 21
189.3549964822
 31
0.0
  0
LINE
  5
390
330
1F
100
AcDbEntity
  8
0
  6
Continuous
 62
     7
370
    30
100
AcDbLine
 10
241.6697428591
 20
129.1691412646
 30
0.0
 11
241.6697428591
 21
189.3549964822
 31
0.0
  0
LINE
  5
391
330
1F
100
AcDbEntity
  8
0
  6
Continuous
 62
     7
370
    30
100
AcDbLine
 10
235.9197428591
 20
189.6691412646
 30
0.0
 11
241.9197428591
 21
189.6691412646
 31
0.0
  0
LINE
  5
392
330
1F
100
AcDbEntity
  8
0
  6
Continuous
 62
     7
370
    30
100
AcDbLine
 10
235.6697428591
 20
176.3986671697
 30
0.0
 11
235.6697428591
 21
181.5986671697
 31
0.0
  0
LINE
  5
393
330
1F
100
AcDbEntity
  8
0
  6
Continuous
 62
     7
370
    30
100
AcDbLine
 10
238.1697428591
 20
178.9986671697
 30
0.0
 11
238.1697428591
 21
176.7836671697
 31
0.0
  0
LINE
  5
394
330
1F
100
AcDbEntity
  8
0
  6
Continuous
 62
     7
370
    30
100
AcDbLine
 10
238.1697428591
 20
181.2136671697
 30
0.0
 11
238.1697428591
 21
178.9986671697
 31
0.0
  0
SPLINE
  5
395
330
1F
100
AcDbEntity
  8
0
  6
Continuous
 62
     7
370
    30
100
AcDbSpline
210
0.0
220
0.0
230
1.0
 70
     8
 71
     3
 72
    11
 73
     7
 74
     0
 42
0.000000001
 43
0.00000001
 40
0.0
 40
0.0
 40
0.0
 40
0.0
 40
0.25445514202243
 40
0.5150640501724856
 40
0.7540054025895851
 40
1.0
 40
1.0
 40
1.0
 40
1.0
 10
224.6697428591108
 20
128.6391195211485
 30
0.0
 10
224.6252219703686
 20
128.5436647919855
 30
0.0
 10
224.5351034956914
 20
128.3504468478716
 30
0.0
 10
224.4420749807842
 20
128.0764071777081
 30
0.0
 10
224.3810690782225
 20
127.8192953693076
 30
0.0
 10
224.3735546969401
 20
127.6732677973012
 30
0.0
 10
224.3697428591107
 20
127.5991920481237
 30
0.0
  0
LINE
  5
396
330
1F
100
AcDbEntity
  8
0
  6
Continuous
 62
     7
370
    30
100
AcDbLine
 10
224.6697428591
 20
131.4007707569
 30
0.0
 11
224.6697428591
 21
128.6391195211
 31
0.0
  0
LINE
  5
397
330
1F
100
AcDbEntity
  8
0
  6
Continuous
 62
     7
370
    30
100
AcDbLine
 10
224.6697428591
 20
128.6391195211
 30
0.0
 11
224.6697428591
 21
117.4691412646
 31
0.0
  0
LINE
  5
398
330
1F
100
AcDbEntity
  8
0
  6
Continuous
 62
     7
370
    30
100
AcDbLine
 10
224.6697428591
 20
188.4171399991
 30
0.0
 11
224.6697428591
 21
191.9553280826
 31
0.0
  0
LINE
  5
399
330
1F
100
AcDbEntity
  8
0
  6
Continuous
 62
     7
370
    30
100
AcDbLine
 10
224.6697428591
 20
131.4007707569
 30
0.0
 11
224.6697428591
 21
131.7277578252
 31
0.0
  0
LINE
  5
39A
330
1F
100
AcDbEntity
  8
0
  6
Continuous
 62
     7
370
    30
100
AcDbLine
 10
234.5697428591
 20
183.1707401006
 30
0.0
 11
234.5697428591
 21
184.4176541764
 31
0.0
  0
LINE
  5
39B
330
1F
100
AcDbEntity
  8
0
  6
Continuous
 62
     7
370
    30
100
AcDbLine
 10
234.5697428591
 20
133.0124779879
 30
0.0
 11
234.5697428591
 21
141.8432862037
 31
0.0
  0
LINE
  5
39C
330
1F
100
AcDbEntity
  8
0
  6
Continuous
 62
     7
370
    30
100
AcDbLine
 10
234.5697428591
 20
133.0124779879
 30
0.0
 11
234.5697428591
 21
127.8179717588
 31
0.0
  0
SPLINE
  5
39D
330
1F
100
AcDbEntity
  8
0
  6
Continuous
 62
     7
370
    30
100
AcDbSpline
210
0.0
220
0.0
230
1.0
 70
     8
 71
     3
 72
    11
 73
     7
 74
     0
 42
0.000000001
 43
0.00000001
 40
0.0
 40
0.0
 40
0.0
 40
0.0
 40
0.2521000688773189
 40
0.5127414983056364
 40
0.7536134637531312
 40
1.0
 40
1.0
 40
1.0
 40
1.0
 10
224.3697428591108
 20
196.0946628611498
 30
0.0
 10
224.373760827599
 20
196.0338606446592
 30
0.0
 10
224.3819328966982
 20
195.9101961818825
 30
0.0
 10
224.4465077044912
 20
195.6865693154012
 30
0.0
 10
224.5411441139106
 20
195.4461591464226
 30
0.0
 10
224.6265543990832
 20
195.2787771813061
 30
0.0
 10
224.6697428591108
 20
195.1941390221528
 30
0.0
  0
LINE
  5
39E
330
1F
100
AcDbEntity
  8
0
  6
Continuous
 62
     7
370
    30
100
AcDbLine
 10
224.6697428591
 20
195.1941390222
 30
0.0
 11
224.6697428591
 21
192.345016096
 31
0.0
  0
LINE
  5
39F
330
1F
100
AcDbEntity
  8
0
  6
Continuous
 62
     7
370
    30
100
AcDbLine
 10
224.6697428591
 20
201.8691412646
 30
0.0
 11
224.6697428591
 21
195.1941390222
 31
0.0
  0
LINE
  5
3A0
330
1F
100
AcDbEntity
  8
0
  6
Continuous
 62
     7
370
    30
100
AcDbLine
 10
235.0697428591
 20
128.8137173721
 30
0.0
 11
235.0697428591
 21
135.3137173721
 31
0.0
  0
LINE
  5
3A1
330
1F
100
AcDbEntity
  8
0
  6
Continuous
 62
     7
370
    30
100
AcDbLine
 10
224.6697428591
 20
191.9553280826
 30
0.0
 11
224.6697428591
 21
192.345016096
 31
0.0
  0
LINE
  5
3A2
330
1F
100
AcDbEntity
  8
0
  6
Continuous
 62
     7
370
    30
100
AcDbLine
 10
235.6697428591
 20
132.0637173721
 30
0.0
 11
235.6697428591
 21
134.6637173721
 31
0.0
  0
LINE
  5
3A3
330
1F
100
AcDbEntity
  8
0
  6
Continuous
 62
     7
370
    30
100
AcDbLine
 10
235.6697428591
 20
129.4637173721
 30
0.0
 11
235.6697428591
 21
132.0637173721
 31
0.0
  0
LINE
  5
3A4
330
1F
100
AcDbEntity
  8
0
  6
Continuous
 62
     7
370
    30
100
AcDbLine
 10
238.1697428591
 20
132.0637173721
 30
0.0
 11
238.1697428591
 21
129.8487173721
 31
0.0
  0
LINE
  5
3A5
330
1F
100
AcDbEntity
  8
0
  6
Continuous
 62
     7
370
    30
100
AcDbLine
 10
238.1697428591
 20
134.2787173721
 30
0.0
 11
238.1697428591
 21
132.0637173721
 31
0.0
  0
LINE
  5
3A6
330
1F
100
AcDbEntity
  8
0
  6
Continuous
 62
     7
370
    30
100
AcDbLine
 10
242.4197428591
 20
189.3549964822
 30
0.0
 11
242.4197428591
 21
178.1691412646
 31
0.0
  0
LINE
  5
3A7
330
1F
100
AcDbEntity
  8
0
  6
Continuous
 62
     7
370
    30
100
AcDbLine
 10
242.4197428591
 20
176.6691412646
 30
0.0
 11
241.6697428591
 21
176.6691412646
 31
0.0
  0
LINE
  5
3A8
330
1F
100
AcDbEntity
  8
0
  6
Continuous
 62
     7
370
    30
100
AcDbLine
 10
242.4197428591
 20
178.1691412646
 30
0.0
 11
242.4197428591
 21
176.6691412646
 31
0.0
  0
LINE
  5
3A9
330
1F
100
AcDbEntity
  8
0
  6
Continuous
 62
     7
370
    30
100
AcDbLine
 10
235.9197428591
 20
191.7003760207
 30
0.0
 11
241.9197428591
 21
191.7003760207
 31
0.0
  0
LINE
  5
3AA
330
1F
100
AcDbEntity
  8
0
  6
Continuous
 62
     7
370
    30
100
AcDbLine
 10
241.9197428591
 20
191.7003760207
 30
0.0
 11
241.9197428591
 21
189.6691412646
 31
0.0
  0
LINE
  5
3AB
330
1F
100
AcDbEntity
  8
0
  6
Continuous
 62
     7
370
    30
100
AcDbLine
 10
235.9197428591
 20
191.7003760207
 30
0.0
 11
235.9197428591
 21
189.6691412646
 31
0.0
  0
LINE
  5
3AC
330
1F
100
AcDbEntity
  8
0
  6
Continuous
 62
     7
370
    30
100
AcDbLine
 10
241.9197428591
 20
191.7003760207
 30
0.0
 11
241.9197428591
 21
192.1691412646
 31
0.0
  0
LINE
  5
3AD
330
1F
100
AcDbEntity
  8
0
  6
Continuous
 62
     7
370
    30
100
AcDbLine
 10
235.9197428591
 20
191.7003760207
 30
0.0
 11
235.9197428591
 21
192.1691412646
 31
0.0
  0
LINE
  5
3AE
330
1F
100
AcDbEntity
  8
0
  6
Continuous
 62
     7
370
    30
100
AcDbLine
 10
234.5697428591
 20
190.1691412646
 30
0.0
 11
234.5697428591
 21
190.699023527
 31
0.0
  0
LINE
  5
3AF
330
1F
100
AcDbEntity
  8
0
  6
Continuous
 62
     7
370
    30
100
AcDbLine
 10
235.0697428591
 20
190.1691412646
 30
0.0
 11
235.0697428591
 21
190.5245651572
 31
0.0
  0
LINE
  5
3B0
330
1F
100
AcDbEntity
  8
0
  6
Continuous
 62
     7
370
    30
100
AcDbLine
 10
234.5697428591
 20
191.5203107705
 30
0.0
 11
234.5697428591
 21
190.699023527
 31
0.0
  0
SPLINE
  5
3B1
330
1F
100
AcDbEntity
  8
0
  6
Continuous
 62
     7
370
     0
100
AcDbSpline
210
0.0
220
0.0
230
1.0
 70
     8
 71
     3
 72
    12
 73
     8
 74
     0
 42
0.000000001
 43
0.00000001
 40
0.0
 40
0.0
 40
0.0
 40
0.0
 40
0.1250444357884921
 40
0.2498066788863237
 40
0.4129071770611636
 40
0.6468956645262469
 40
0.9999999999999999
 40
0.9999999999999999
 40
0.9999999999999999
 40
0.9999999999999999
 10
197.6697428591108
 20
139.6346988729073
 30
0.0
 10
197.6292323711251
 20
139.6381803700674
 30
0.0
 10
197.5483028167635
 20
139.6451355075561
 30
0.0
 10
197.4263331891549
 20
139.6555054494984
 30
0.0
 10
197.3061374402509
 20
139.665647024778
 30
0.0
 10
197.194087926191
 20
139.6750154229303
 30
0.0
 10
197.1788859932465
 20
139.6762776279959
 30
0.0
 10
197.1697428591107
 20
139.6770367755506
 30
0.0
  0
LINE
  5
3B2
330
1F
100
AcDbEntity
  8
0
  6
Continuous
 62
     7
370
    30
100
AcDbLine
 10
197.1697428591
 20
139.6770367756
 30
0.0
 11
197.1697428591
 21
186.1691412646
 31
0.0
  0
LINE
  5
3B3
330
1F
100
AcDbEntity
  8
0
  6
Continuous
 62
     7
370
    30
100
AcDbLine
 10
197.1697428591
 20
133.1691412646
 30
0.0
 11
197.1697428591
 21
134.616344895
 31
0.0
  0
SPLINE
  5
3B4
330
1F
100
AcDbEntity
  8
0
  6
Continuous
 62
     7
370
     0
100
AcDbSpline
210
0.0
220
0.0
230
1.0
 70
     8
 71
     3
 72
    13
 73
     9
 74
     0
 42
0.000000001
 43
0.00000001
 40
0.0
 40
0.0
 40
0.0
 40
0.0
 40
0.2968079398681792
 40
0.5989141936758585
 40
0.7377700304005339
 40
0.9091446556089261
 40
0.9654771240574221
 40
1.0
 40
1.0
 40
1.0
 40
1.0
 10
197.1697428591108
 20
134.6163448949829
 30
0.0
 10
197.1748044953095
 20
134.6167660439276
 30
0.0
 10
197.1850181228963
 20
134.6176158597402
 30
0.0
 10
197.2618745361534
 20
134.6240238920143
 30
0.0
 10
197.3778149184205
 20
134.6337758483162
 30
0.0
 10
197.4839964278772
 20
134.6427625847743
 30
0.0
 10
197.6021510761995
 20
134.6528664000022
 30
0.0
 10
197.6511314708651
 20
134.6570812533303
 30
0.0
 10
197.6697428591108
 20
134.6586827976262
 30
0.0
  0
LINE
  5
3B5
330
1F
100
AcDbEntity
  8
0
  6
Continuous
 62
     7
370
     0
100
AcDbLine
 10
197.6697428591
 20
139.6346988729
 30
0.0
 11
200.1697428591
 21
139.3903677004
 31
0.0
  0
LINE
  5
3B6
330
1F
100
AcDbEntity
  8
0
  6
Continuous
 62
     7
370
     0
100
AcDbLine
 10
200.1697428591
 20
134.9032093492
 30
0.0
 11
197.6697428591
 21
134.6586827976
 31
0.0
  0
LINE
  5
3B7
330
1F
100
AcDbEntity
  8
0
  6
Continuous
 62
     7
370
    30
100
AcDbLine
 10
204.6697428591
 20
138.4191412646
 30
0.0
 11
204.6697428591
 21
135.9191412646
 31
0.0
  0
LINE
  5
3B8
330
1F
100
AcDbEntity
  8
0
  6
Continuous
 62
     7
370
    30
100
AcDbLine
 10
204.6697428591
 20
135.9191412646
 30
0.0
 11
197.1697428591
 21
135.9191412646
 31
0.0
  0
LINE
  5
3B9
330
1F
100
AcDbEntity
  8
0
  6
Continuous
 62
     7
370
    30
100
AcDbLine
 10
197.1697428591
 20
138.4191412646
 30
0.0
 11
204.6697428591
 21
138.4191412646
 31
0.0
  0
LINE
  5
3BA
330
1F
100
AcDbEntity
  8
0
  6
Continuous
 62
     7
370
    30
100
AcDbLine
 10
197.1697428591
 20
138.4191412646
 30
0.0
 11
197.1697428591
 21
135.9191412646
 31
0.0
  0
LINE
  5
3BB
330
1F
100
AcDbEntity
  8
0
  6
Continuous
 62
     7
370
    30
100
AcDbLine
 10
205.4208186329
 20
137.1691412646
 30
0.0
 11
204.6697428591
 21
135.9191412646
 31
0.0
  0
LINE
  5
3BC
330
1F
100
AcDbEntity
  8
0
  6
Continuous
 62
     7
370
    30
100
AcDbLine
 10
204.6697428591
 20
138.4191412646
 30
0.0
 11
205.4208186329
 21
137.1691412646
 31
0.0
  0
LINE
  5
3BD
330
1F
100
AcDbEntity
  8
0
  6
Continuous
 62
     7
370
    30
100
AcDbLine
 10
197.1697428591
 20
135.9191412646
 30
0.0
 11
197.1697428591
 21
134.616344895
 31
0.0
  0
LINE
  5
3BE
330
1F
100
AcDbEntity
  8
0
  6
Continuous
 62
     7
370
    30
100
AcDbLine
 10
197.1697428591
 20
139.6770367756
 30
0.0
 11
197.1697428591
 21
138.4191412646
 31
0.0
  0
LINE
  5
3BF
330
1F
100
AcDbEntity
  8
0
  6
Continuous
 62
     7
370
    30
100
AcDbLine
 10
216.3697428591
 20
117.1691412646
 30
0.0
 11
216.3697428591
 21
202.1691412646
 31
0.0
  0
LINE
  5
3C0
330
1F
100
AcDbEntity
  8
0
  6
Continuous
 62
     7
370
    30
100
AcDbLine
 10
212.1697428591
 20
175.8183821105
 30
0.0
 11
212.1697428591
 21
201.8691412646
 31
0.0
  0
LINE
  5
3C1
330
1F
100
AcDbEntity
  8
0
  6
Continuous
 62
     7
370
    30
100
AcDbLine
 10
212.1697428591
 20
117.4691412646
 30
0.0
 11
212.1697428591
 21
175.8183821105
 31
0.0
  0
LINE
  5
3C2
330
1F
100
AcDbEntity
  8
0
  6
Continuous
 62
     7
370
    30
100
AcDbLine
 10
212.4697428591
 20
175.9331871402
 30
0.0
 11
212.4697428591
 21
117.1691412646
 31
0.0
  0
LINE
  5
3C3
330
1F
100
AcDbEntity
  8
0
  6
Continuous
 62
     7
370
    30
100
AcDbLine
 10
212.4697428591
 20
202.1691412646
 30
0.0
 11
212.4697428591
 21
175.9331871402
 31
0.0
  0
LINE
  5
3C4
330
1F
100
AcDbEntity
  8
0
  6
Continuous
 62
     7
370
    30
100
AcDbLine
 10
207.4697428591
 20
136.0240077412
 30
0.0
 11
207.4697428591
 21
123.6691412646
 31
0.0
  0
LINE
  5
3C5
330
1F
100
AcDbEntity
  8
0
  6
Continuous
 62
     7
370
    30
100
AcDbLine
 10
207.4697428591
 20
195.6691412646
 30
0.0
 11
207.4697428591
 21
138.2693739293
 31
0.0
  0
SPLINE
  5
3C6
330
1F
100
AcDbEntity
  8
0
  6
Continuous
 62
     7
370
     0
100
AcDbSpline
210
0.0
220
0.0
230
1.0
 70
     8
 71
     3
 72
    21
 73
    17
 74
     0
 42
0.000000001
 43
0.00000001
 40
0.0
 40
0.0
 40
0.0
 40
0.0
 40
0.1268411292148242
 40
0.2535246852040673
 40
0.3172297436178946
 40
0.3807727797106836
 40
0.4279474047067116
 40
0.4755533994795093
 40
0.5078904033594258
 40
0.5402330313971059
 40
0.586673313830505
 40
0.6305287018271347
 40
0.6745151808027301
 40
0.7826105085594026
 40
0.8913077817346344
 40
0.9999999999999999
 40
0.9999999999999999
 40
0.9999999999999999
 40
0.9999999999999999
 10
207.4697428591108
 20
136.0240077412219
 30
0.0
 10
207.6837475709052
 20
136.0810780858282
 30
0.0
 10
208.1114911389871
 20
136.1951478772308
 30
0.0
 10
208.6277722758291
 20
136.3767690749955
 30
0.0
 10
209.0211437506773
 20
136.5511052543264
 30
0.0
 10
209.2715629404257
 20
136.6958626629052
 30
0.0
 10
209.4675904962696
 20
136.8548627188998
 30
0.0
 10
209.5793722351105
 20
137.0132060912686
 30
0.0
 10
209.6030647845385
 20
137.1718781272364
 30
0.0
 10
209.5546161391117
 20
137.3256788186728
 30
0.0
 10
209.4311816145874
 20
137.4718291769286
 30
0.0
 10
209.2579337911292
 20
137.6039962931745
 30
0.0
 10
208.9740894741095
 20
137.767677640156
 30
0.0
 10
208.5639682741939
 20
137.9473309261945
 30
0.0
 10
208.0244267374324
 20
138.1239721070833
 30
0.0
 10
207.6546346189865
 20
138.2209074065739
 30
0.0
 10
207.4697428591108
 20
138.2693739293116
 30
0.0
  0
LINE
  5
3C7
330
1F
100
AcDbEntity
  8
0
  6
Continuous
 62
     7
370
     0
100
AcDbLine
 10
207.4697428591
 20
138.2693739293
 30
0.0
 11
207.1697428591
 21
138.3437455226
 31
0.0
  0
LINE
  5
3C8
330
1F
100
AcDbEntity
  8
0
  6
Continuous
 62
     7
370
    30
100
AcDbLine
 10
207.1697428591
 20
138.3437455226
 30
0.0
 11
207.1697428591
 21
195.3691412646
 31
0.0
  0
LINE
  5
3C9
330
1F
100
AcDbEntity
  8
0
  6
Continuous
 62
     7
370
    30
100
AcDbLine
 10
207.1697428591
 20
123.9691412646
 30
0.0
 11
207.1697428591
 21
135.949636148
 31
0.0
  0
LINE
  5
3CA
330
1F
100
AcDbEntity
  8
0
  6
Continuous
 62
     7
370
     0
100
AcDbLine
 10
207.1697428591
 20
135.949636148
 30
0.0
 11
207.4697428591
 21
136.0240077412
 31
0.0
  0
LINE
  5
3CB
330
1F
100
AcDbEntity
  8
0
  6
Continuous
 62
     7
370
     0
100
AcDbLine
 10
206.1697428591
 20
138.5602527979
 30
0.0
 11
207.1697428591
 21
138.3437455226
 31
0.0
  0
LINE
  5
3CC
330
1F
100
AcDbEntity
  8
0
  6
Continuous
 62
     7
370
     0
100
AcDbLine
 10
207.1697428591
 20
135.949636148
 30
0.0
 11
206.1697428591
 21
135.7331288726
 31
0.0
  0
SPLINE
  5
3CD
330
1F
100
AcDbEntity
  8
0
  6
Continuous
 62
     7
370
     0
100
AcDbSpline
210
0.0
220
0.0
230
1.0
 70
     8
 71
     3
 72
    10
 73
     6
 74
     0
 42
0.000000001
 43
0.00000001
 40
0.0
 40
0.0
 40
0.0
 40
0.0
 40
0.2496120376314797
 40
0.4992572917306277
 40
1.0
 40
1.0
 40
1.0
 40
1.0
 10
206.1697428591108
 20
135.7331288726103
 30
0.0
 10
205.7584120932764
 20
135.6565891330747
 30
0.0
 10
204.9356958248441
 20
135.5034994686783
 30
0.0
 10
203.2697915955802
 20
135.2532845380862
 30
0.0
 10
202.0102498632762
 20
135.1029835799806
 30
0.0
 10
201.1697428591107
 20
135.0026859838147
 30
0.0
  0
SPLINE
  5
3CE
330
1F
100
AcDbEntity
  8
0
  6
Continuous
 62
     7
370
     0
100
AcDbSpline
210
0.0
220
0.0
230
1.0
 70
     8
 71
     3
 72
    10
 73
     6
 74
     0
 42
0.000000001
 43
0.00000001
 40
0.0
 40
0.0
 40
0.0
 40
0.0
 40
0.4994474049535874
 40
0.7497411761114705
 40
1.0
 40
1.0
 40
1.0
 40
1.0
 10
201.1697428591108
 20
139.2906956867188
 30
0.0
 10
202.0066813889671
 20
139.190842382432
 30
0.0
 10
203.2630444644061
 20
139.0409484535577
 30
0.0
 10
204.9294984089921
 20
138.7909762763408
 30
0.0
 10
205.7563472852111
 20
138.6371570443106
 30
0.0
 10
206.1697428591108
 20
138.5602527979233
 30
0.0
  0
LINE
  5
3CF
330
1F
100
AcDbEntity
  8
0
  6
Continuous
 62
     7
370
    30
100
AcDbLine
 10
200.5697428591
 20
134.9369148148
 30
0.0
 11
200.5697428591
 21
124.2564165893
 31
0.0
  0
LINE
  5
3D0
330
1F
100
AcDbEntity
  8
0
  6
Continuous
 62
     7
370
    30
100
AcDbLine
 10
200.5697428591
 20
195.08186594
 30
0.0
 11
200.5697428591
 21
139.3564668557
 31
0.0
  0
LINE
  5
3D1
330
1F
100
AcDbEntity
  8
0
  6
Continuous
 62
     7
370
     0
100
AcDbLine
 10
200.5697428591
 20
139.3564668557
 30
0.0
 11
200.1697428591
 21
139.398574282
 31
0.0
  0
LINE
  5
3D2
330
1F
100
AcDbEntity
  8
0
  6
Continuous
 62
     7
370
    30
100
AcDbLine
 10
200.1697428591
 20
139.398574282
 30
0.0
 11
200.1697428591
 21
194.68186594
 31
0.0
  0
LINE
  5
3D3
330
1F
100
AcDbEntity
  8
0
  6
Continuous
 62
     7
370
    30
100
AcDbLine
 10
200.1697428591
 20
124.6564165893
 30
0.0
 11
200.1697428591
 21
134.8948073886
 31
0.0
  0
LINE
  5
3D4
330
1F
100
AcDbEntity
  8
0
  6
Continuous
 62
     7
370
     0
100
AcDbLine
 10
200.1697428591
 20
134.8948073886
 30
0.0
 11
200.5697428591
 21
134.9369148148
 31
0.0
  0
LINE
  5
3D5
330
1F
100
AcDbEntity
  8
0
  6
Continuous
 62
     7
370
     0
100
AcDbLine
 10
200.5697428591
 20
139.3564668557
 30
0.0
 11
201.1697428591
 21
139.2906956867
 31
0.0
  0
LINE
  5
3D6
330
1F
100
AcDbEntity
  8
0
  6
Continuous
 62
     7
370
     0
100
AcDbLine
 10
201.1697428591
 20
135.0026859838
 30
0.0
 11
200.5697428591
 21
134.9369148148
 31
0.0
  0
LINE
  5
3D7
330
1F
100
AcDbEntity
  8
0
  6
Continuous
 62
     7
370
    30
100
AcDbLine
 10
241.6697428591
 20
172.1691412646
 30
0.0
 11
241.8697428591
 21
172.1691412646
 31
0.0
  0
LINE
  5
3D8
330
1F
100
AcDbEntity
  8
0
  6
Continuous
 62
     7
370
    30
100
AcDbLine
 10
241.8697428591
 20
172.1691412646
 30
0.0
 11
241.8697428591
 21
171.1691412646
 31
0.0
  0
LINE
  5
3D9
330
1F
100
AcDbEntity
  8
0
  6
Continuous
 62
     7
370
     0
100
AcDbLine
 10
241.8697428591
 20
147.1691412646
 30
0.0
 11
241.6697428591
 21
147.1691412646
 31
0.0
  0
LINE
  5
3DA
330
1F
100
AcDbEntity
  8
0
  6
Continuous
 62
     7
370
    30
100
AcDbLine
 10
241.8697428591
 20
148.1691412646
 30
0.0
 11
241.8697428591
 21
147.1691412646
 31
0.0
  0
LINE
  5
3DB
330
1F
100
AcDbEntity
  8
0
  6
Continuous
 62
     7
370
    30
100
AcDbLine
 10
241.8697428591
 20
171.1691412646
 30
0.0
 11
241.8697428591
 21
148.1691412646
 31
0.0
  0
LINE
  5
3DC
330
1F
100
AcDbEntity
  8
0
  6
Continuous
 62
     7
370
    30
100
AcDbLine
 10
223.6697428591
 20
136.5612151881
 30
0.0
 11
223.6697428591
 21
131.9104244869
 31
0.0
  0
LINE
  5
3DD
330
1F
100
AcDbEntity
  8
0
  6
Continuous
 62
     7
370
    30
100
AcDbLine
 10
223.6697428591
 20
192.2348745463
 30
0.0
 11
223.6697428591
 21
188.4171399991
 31
0.0
  0
SPLINE
  5
3DE
330
1F
100
AcDbEntity
  8
0
  6
Continuous
 62
     7
370
    30
100
AcDbSpline
210
0.0
220
0.0
230
1.0
 70
     8
 71
     3
 72
    17
 73
    13
 74
     0
 42
0.000000001
 43
0.00000001
 40
0.0
 40
0.0
 40
0.0
 40
0.0
 40
0.1078919310932942
 40
0.2157848925328963
 40
0.3236073745744471
 40
0.4310341943502528
 40
0.537951837511391
 40
0.6445859298622824
 40
0.7513631023419347
 40
0.8586042213804392
 40
0.9663136066783081
 40
1.0
 40
1.0
 40
1.0
 40
1.0
 10
239.6297428591108
 20
192.0649743300243
 30
0.0
 10
239.6379787252733
 20
192.0580797086986
 30
0.0
 10
239.6544505362494
 20
192.044290400205
 30
0.0
 10
239.7827808030146
 20
192.0237656531282
 30
0.0
 10
239.9716558120075
 20
192.0072514428736
 30
0.0
 10
240.2068724966869
 20
191.9974444287344
 30
0.0
 10
240.45938491961
 20
191.9961593156233
 30
0.0
 10
240.7008924481334
 20
192.0035320821857
 30
0.0
 10
240.9068853427758
 20
192.0182364697107
 30
0.0
 10
241.0472112067102
 20
192.0375611578318
 30
0.0
 10
241.1139947599414
 20
192.0542070936087
 30
0.0
 10
241.1032282326076
 20
192.0626985156234
 30
0.0
 10
241.1006631951079
 20
192.0647215277999
 30
0.0
  0
LINE
  5
3DF
330
1F
100
AcDbEntity
  8
0
  6
Continuous
 62
     7
370
    30
100
AcDbLine
 10
239.6297428591
 20
209.6691412646
 30
0.0
 11
241.1097428591
 21
209.6691412646
 31
0.0
  0
LINE
  5
3E0
330
1F
100
AcDbEntity
  8
0
  6
Continuous
 62
     7
370
    30
100
AcDbLine
 10
239.9697428591
 20
214.6691412646
 30
0.0
 11
240.7697428591
 21
214.6691412646
 31
0.0
  0
SPLINE
  5
3E1
330
1F
100
AcDbEntity
  8
0
  6
Continuous
 62
     7
370
    30
100
AcDbSpline
210
0.0
220
0.0
230
1.0
 70
     8
 71
     3
 72
    17
 73
    13
 74
     0
 42
0.000000001
 43
0.00000001
 40
0.0
 40
0.0
 40
0.0
 40
0.0
 40
0.1086015734764689
 40
0.2172140026381359
 40
0.3254720093592899
 40
0.4327923654330722
 40
0.5391419543934548
 40
0.645005062776042
 40
0.7511227242855917
 40
0.8580887235626247
 40
0.9660500726703735
 40
1.0
 40
1.0
 40
1.0
 40
1.0
 10
237.4147428591107
 20
191.8966140169401
 30
0.0
 10
237.4192837711087
 20
191.8905767086452
 30
0.0
 10
237.4283660490088
 20
191.8785014885732
 30
0.0
 10
237.4991740555717
 20
191.8617833248863
 30
0.0
 10
237.6032827098838
 20
191.848862166888
 30
0.0
 10
237.7324314833966
 20
191.8414718467495
 30
0.0
 10
237.8704007379008
 20
191.840593137148
 30
0.0
 10
238.0018978081184
 20
191.8462270453354
 30
0.0
 10
238.1139737704019
 20
191.8575732744543
 30
0.0
 10
238.1905049640115
 20
191.8730961716664
 30
0.0
 10
238.2270657575189
 20
191.8869711143064
 30
0.0
 10
238.2211472114417
 20
191.8946678224439
 30
0.0
 10
238.2197312971165
 20
191.896509132652
 30
0.0
  0
LINE
  5
3E2
330
1F
100
AcDbEntity
  8
0
  6
Continuous
 62
     7
370
    30
100
AcDbLine
 10
237.4147428591
 20
209.6691412646
 30
0.0
 11
238.2247428591
 21
209.6691412646
 31
0.0
  0
LINE
  5
3E3
330
1F
100
AcDbEntity
  8
0
  6
Continuous
 62
     7
370
    30
100
AcDbLine
 10
237.6197428591
 20
214.6691412646
 30
0.0
 11
238.0197428591
 21
214.6691412646
 31
0.0
  0
LINE
  5
3E4
330
1F
100
AcDbEntity
  8
0
  6
PHANTOM
 62
     8
370
     0
100
AcDbLine
 10
220.6697428591
 20
196.0946628611
 30
0.0
 11
224.3697428591
 21
196.0946628611
 31
0.0
  0
LINE
  5
3E5
330
1F
100
AcDbEntity
  8
0
  6
PHANTOM
 62
     8
370
     0
100
AcDbLine
 10
224.3697428591
 20
187.55763992
 30
0.0
 11
220.6697428591
 21
187.55763992
 31
0.0
  0
LINE
  5
3E6
330
1F
100
AcDbEntity
  8
0
  6
PHANTOM
 62
     8
370
     0
100
AcDbLine
 10
220.6697428591
 20
137.7732198083
 30
0.0
 11
224.3697428591
 21
137.7732198083
 31
0.0
  0
LINE
  5
3E7
330
1F
100
AcDbEntity
  8
0
  6
PHANTOM
 62
     8
370
     0
100
AcDbLine
 10
224.3697428591
 20
127.5991920481
 30
0.0
 11
220.6697428591
 21
127.5991920481
 31
0.0
  0
LINE
  5
3E8
330
1F
100
AcDbEntity
  8
0
  6
PHANTOM
 62
     8
370
     0
100
AcDbLine
 10
220.6697428591
 20
131.7277578252
 30
0.0
 11
224.6697428591
 21
131.7277578252
 31
0.0
  0
LINE
  5
3E9
330
1F
100
AcDbEntity
  8
0
  6
PHANTOM
 62
     8
370
     0
100
AcDbLine
 10
234.5697428591
 20
176.7426162958
 30
0.0
 11
224.6697428591
 21
176.7426162958
 31
0.0
  0
LINE
  5
3EA
330
1F
100
AcDbEntity
  8
0
  6
PHANTOM
 62
     8
370
     0
100
AcDbLine
 10
234.5697428591
 20
167.9554757915
 30
0.0
 11
224.6697428591
 21
167.9554757915
 31
0.0
  0
LINE
  5
3EB
330
1F
100
AcDbEntity
  8
0
  6
PHANTOM
 62
     8
370
     0
100
AcDbLine
 10
234.5697428591
 20
184.4176541764
 30
0.0
 11
224.6697428591
 21
184.4176541764
 31
0.0
  0
LINE
  5
3EC
330
1F
100
AcDbEntity
  8
0
  6
PHANTOM
 62
     8
370
     0
100
AcDbLine
 10
234.5697428591
 20
141.8432862037
 30
0.0
 11
224.6697428591
 21
141.8432862037
 31
0.0
  0
LINE
  5
3ED
330
1F
100
AcDbEntity
  8
0
  6
PHANTOM
 62
     8
370
     0
100
AcDbLine
 10
238.0447428591
 20
178.9986671697
 30
0.0
 11
238.0447428591
 21
181.3386671697
 31
0.0
  0
LINE
  5
3EE
330
1F
100
AcDbEntity
  8
0
  6
PHANTOM
 62
     8
370
     0
100
AcDbLine
 10
238.0447428591
 20
176.6586671697
 30
0.0
 11
238.0447428591
 21
178.9986671697
 31
0.0
  0
LINE
  5
3EF
330
1F
100
AcDbEntity
  8
0
  6
PHANTOM
 62
     8
370
     0
100
AcDbLine
 10
220.6697428591
 20
131.4007707569
 30
0.0
 11
224.6697428591
 21
131.4007707569
 31
0.0
  0
LINE
  5
3F0
330
1F
100
AcDbEntity
  8
0
  6
PHANTOM
 62
     8
370
     0
100
AcDbLine
 10
223.6697428591
 20
191.9553280826
 30
0.0
 11
224.6697428591
 21
191.9553280826
 31
0.0
  0
LINE
  5
3F1
330
1F
100
AcDbEntity
  8
0
  6
PHANTOM
 62
     8
370
     0
100
AcDbLine
 10
234.5697428591
 20
133.0124779879
 30
0.0
 11
224.6697428591
 21
133.0124779879
 31
0.0
  0
LINE
  5
3F2
330
1F
100
AcDbEntity
  8
0
  6
PHANTOM
 62
     8
370
     0
100
AcDbLine
 10
224.6697428591
 20
192.345016096
 30
0.0
 11
223.6215703556
 21
192.345016096
 31
0.0
  0
LINE
  5
3F3
330
1F
100
AcDbEntity
  8
0
  6
PHANTOM
 62
     8
370
     0
100
AcDbLine
 10
238.0447428591
 20
132.0637173721
 30
0.0
 11
238.0447428591
 21
134.4037173721
 31
0.0
  0
LINE
  5
3F4
330
1F
100
AcDbEntity
  8
0
  6
PHANTOM
 62
     8
370
     0
100
AcDbLine
 10
238.0447428591
 20
129.7237173721
 30
0.0
 11
238.0447428591
 21
132.0637173721
 31
0.0
  0
LINE
  5
3F5
330
1F
100
AcDbEntity
  8
0
  6
PHANTOM
 62
     8
370
     0
100
AcDbLine
 10
241.6697428591
 20
178.1691412646
 30
0.0
 11
242.4197428591
 21
178.1691412646
 31
0.0
  0
LINE
  5
3F6
330
1F
100
AcDbEntity
  8
0
  6
PHANTOM
 62
     8
370
     0
100
AcDbLine
 10
234.5697428591
 20
190.699023527
 30
0.0
 11
224.6697428591
 21
190.699023527
 31
0.0
  0
LINE
  5
3F7
330
1F
100
AcDbEntity
  8
0
  6
PHANTOM
 62
     8
370
     0
100
AcDbLine
 10
197.6697428591
 20
134.6586827976
 30
0.0
 11
197.6697428591
 21
132.6691412646
 31
0.0
  0
LINE
  5
3F8
330
1F
100
AcDbEntity
  8
0
  6
PHANTOM
 62
     8
370
     0
100
AcDbLine
 10
197.6697428591
 20
186.6691412646
 30
0.0
 11
197.6697428591
 21
139.6346988729
 31
0.0
  0
LINE
  5
3F9
330
1F
100
AcDbEntity
  8
0
  6
PHANTOM
 62
     8
370
     0
100
AcDbLine
 10
206.1697428591
 20
138.5602527979
 30
0.0
 11
206.1697428591
 21
195.1691412646
 31
0.0
  0
LINE
  5
3FA
330
1F
100
AcDbEntity
  8
0
  6
PHANTOM
 62
     8
370
     0
100
AcDbLine
 10
206.1697428591
 20
124.1691412646
 30
0.0
 11
206.1697428591
 21
135.7331288726
 31
0.0
  0
LINE
  5
3FB
330
1F
100
AcDbEntity
  8
0
  6
PHANTOM
 62
     8
370
     0
100
AcDbLine
 10
201.1697428591
 20
139.2906956867
 30
0.0
 11
201.1697428591
 21
195.08186594
 31
0.0
  0
LINE
  5
3FC
330
1F
100
AcDbEntity
  8
0
  6
PHANTOM
 62
     8
370
     0
100
AcDbLine
 10
201.1697428591
 20
124.2564165893
 30
0.0
 11
201.1697428591
 21
135.0026859838
 31
0.0
  0
LINE
  5
3FD
330
1F
100
AcDbEntity
  8
0
  6
PHANTOM
 62
     8
370
     0
100
AcDbLine
 10
241.8697428591
 20
171.1691412646
 30
0.0
 11
241.6697428591
 21
171.1691412646
 31
0.0
  0
LINE
  5
3FE
330
1F
100
AcDbEntity
  8
0
  6
PHANTOM
 62
     8
370
     0
100
AcDbLine
 10
241.6697428591
 20
148.1691412646
 30
0.0
 11
241.8697428591
 21
148.1691412646
 31
0.0
  0
LINE
  5
3FF
330
1F
100
AcDbEntity
  8
0
  6
PHANTOM
 62
     8
370
     0
100
AcDbLine
 10
223.5197428591
 20
131.7604244869
 30
0.0
 11
223.5197428591
 21
136.5612151881
 31
0.0
  0
LINE
  5
400
330
1F
100
AcDbEntity
  8
0
  6
PHANTOM
 62
     8
370
     0
100
AcDbLine
 10
223.5197428591
 20
188.4171399991
 30
0.0
 11
223.5197428591
 21
192.3848745463
 31
0.0
  0
SPLINE
  5
401
330
1F
100
AcDbEntity
  8
0
  6
Continuous
 62
     1
370
    15
100
AcDbSpline
210
0.0
220
0.0
230
1.0
 70
     8
 71
     3
 72
     8
 73
     4
 74
     0
 42
0.000000001
 43
0.00000001
 40
0.0
 40
0.0
 40
0.0
 40
0.0
 40
1.0
 40
1.0
 40
1.0
 40
1.0
 10
235.0344965345178
 20
204.9941642505626
 30
0.0
 10
237.6963153452549
 20
209.30986229808
 30
0.0
 10
240.70697157918
 20
201.4754375247385
 30
0.0
 10
243.0667459905234
 20
206.6312113457173
 30
0.0
  0
SPLINE
  5
402
330
1F
100
AcDbEntity
  8
0
  6
Continuous
 62
     1
370
    15
100
AcDbSpline
210
0.0
220
0.0
230
1.0
 70
     8
 71
     3
 72
    21
 73
    17
 74
     0
 42
0.000000001
 43
0.00000001
 40
0.0
 40
0.0
 40
0.0
 40
0.0
 40
0.03125
 40
0.0625
 40
0.125
 40
0.1875
 40
0.25
 40
0.375
 40
0.5
 40
0.625
 40
0.75
 40
0.8125
 40
0.875
 40
0.9375
 40
0.96875
 40
1.0
 40
1.0
 40
1.0
 40
1.0
 10
235.4600611879637
 20
204.7316862024566
 30
0.0
 10
235.5303206558196
 20
204.8456002851967
 30
0.0
 10
235.6889849190818
 20
205.0801275589567
 30
0.0
 10
235.9759913186531
 20
205.4213381227119
 30
0.0
 10
236.3161153660436
 20
205.6972166724495
 30
0.0
 10
236.6747766689697
 20
205.8380597670856
 30
0.0
 10
237.1592352199429
 20
205.874002019283
 30
0.0
 10
237.8952823411774
 20
205.6449770786887
 30
0.0
 10
238.9091373000405
 20
205.0634326008459
 30
0.0
 10
239.983278667523
 20
204.4710802318772
 30
0.0
 10
241.0075331201152
 20
204.2188841714763
 30
0.0
 10
241.8934096390793
 20
204.4393010692067
 30
0.0
 10
242.5032702016655
 20
204.8505579857187
 30
0.0
 10
242.9520399807667
 20
205.3867696827472
 30
0.0
 10
243.2817508139492
 20
205.9293818880769
 30
0.0
 10
243.4471334498311
 20
206.2608875744514
 30
0.0
 10
243.5213881778389
 20
206.4231236682519
 30
0.0
  0
HATCH
  5
403
330
1F
100
AcDbEntity
  8
0
  6
Continuous
 62
     7
370
     0
100
AcDbHatch
 10
0.0
 20
0.0
 30
0.0
210
0.0
220
0.0
230
1.0
  2
ANSI31
 70
     0
 71
     0
 91
        1
 92
        0
 93
       30
 72
     4
 94
        3
 73
     1
 74
     0
 95
        8
 96
        4
 40
0.0
 40
0.0
 40
0.0
 40
0.0
 40
0.0005583979052331
 40
0.0005583979052331
 40
0.0005583979052331
 40
0.0005583979052331
 10
207.1697428591108
 20
135.9496361479533
 42
1.0
 10
207.2697794198662
 20
135.9735703032194
 42
1.0
 10
207.3698074416827
 20
135.998311383433
 42
1.0
 10
207.4697428591108
 20
136.0240077412219
 42
1.0
 72
     4
 94
        3
 73
     1
 74
     0
 95
       32
 96
       28
 40
0.0
 40
0.0
 40
0.0
 40
0.0
 40
0.0013594138058371
 40
0.0013594138058371
 40
0.0013594138058371
 40
0.0020412695236775
 40
0.0020412695236775
 40
0.0020412695236775
 40
0.0022929831757884
 40
0.0022929831757884
 40
0.0022929831757884
 40
0.0025488479232982
 40
0.0025488479232982
 40
0.0025488479232982
 40
0.0027217036554985
 40
0.0027217036554985
 40
0.0027217036554985
 40
0.0028944245084911
 40
0.0028944245084911
 40
0.0028944245084911
 40
0.0031431138538915
 40
0.0031431138538915
 40
0.0031431138538915
 40
0.0036137802306007
 40
0.0036137802306007
 40
0.0036137802306007
 40
0.0053724413291866
 40
0.0053724413291866
 40
0.0053724413291866
 40
0.0053724413291866
 10
207.4697428591108
 20
136.0240077412219
 42
1.0
 10
207.8986312674619
 20
136.1342876627565
 42
1.0
 10
208.324812394992
 20
136.2582256741563
 42
1.0
 10
208.7236637545671
 20
136.4224373793802
 42
1.0
 10
208.9236541756902
 20
136.5047757425139
 42
1.0
 10
209.1199115177423
 20
136.5979144297577
 42
1.0
 10
209.2878584384678
 20
136.7158054582856
 42
1.0
 10
209.3502369175439
 20
136.7595922870321
 42
1.0
 10
209.4088765297807
 20
136.8073617378997
 42
1.0
 10
209.4586320767243
 20
136.860096917571
 42
1.0
 10
209.5088425936689
 20
136.9133143133211
 42
1.0
 10
209.5508826949638
 20
136.9731998800438
 42
1.0
 10
209.5738517282519
 20
137.0369733844913
 42
1.0
 10
209.5894537490079
 20
137.0802923839282
 42
1.0
 10
209.5962575415394
 20
137.12633140458
 42
1.0
 10
209.592603393289
 20
137.1714011031026
 42
1.0
 10
209.5889486094972
 20
137.216478640295
 42
1.0
 10
209.574853925058
 20
137.2615737546428
 42
1.0
 10
209.5531880521776
 20
137.3036119937101
 42
1.0
 10
209.522078358353
 20
137.3639740549816
 42
1.0
 10
209.4751847865302
 20
137.4198409021276
 42
1.0
 10
209.4218041566825
 20
137.4699542655363
 42
1.0
 10
209.3210828094452
 20
137.5645107646168
 42
1.0
 10
209.195543354858
 20
137.6430386096843
 42
1.0
 10
209.0653828292567
 20
137.7122592340662
 42
1.0
 10
208.5833439282699
 20
137.9686121763159
 42
1.0
 10
208.0226845732279
 20
138.1271962260707
 42
1.0
 10
207.4697428591108
 20
138.2693739293116
 42
1.0
 72
     4
 94
        3
 73
     1
 74
     0
 95
        8
 96
        4
 40
0.0
 40
0.0
 40
0.0
 40
0.0
 40
0.000443733273629
 40
0.000443733273629
 40
0.000443733273629
 40
0.000443733273629
 10
207.4697428591108
 20
138.2693739293116
 42
1.0
 10
207.3694716421837
 20
138.2951566311044
 42
1.0
 10
207.2694786611121
 20
138.319883325073
 42
1.0
 10
207.1697428591108
 20
138.3437455225803
 42
1.0
 72
     4
 94
        3
 73
     1
 74
     0
 95
        8
 96
        4
 40
0.0
 40
0.0
 40
0.0
 40
0.0
 40
0.0010358208732785
 40
0.0010358208732785
 40
0.0010358208732785
 40
0.0010358208732785
 10
207.1697428591108
 20
138.3437455225803
 42
1.0
 10
206.8389641842922
 20
138.422885669963
 42
1.0
 10
206.5050730068148
 20
138.4941107805898
 42
1.0
 10
206.1697428591108
 20
138.5602527979233
 42
1.0
 72
     4
 94
        3
 73
     1
 74
     0
 95
        8
 96
        4
 40
0.0
 40
0.0
 40
0.0
 40
0.0
 40
0.005070445156194
 40
0.005070445156194
 40
0.005070445156194
 40
0.005070445156194
 10
206.1697428591108
 20
138.5602527979233
 42
1.0
 10
204.523711379066
 20
138.8849234051738
 42
1.0
 10
202.8465661820532
 20
139.1022860892485
 42
1.0
 10
201.1697428591108
 20
139.2906956867188
 42
1.0
 72
     4
 94
        3
 73
     1
 74
     0
 95
        8
 96
        4
 40
0.0
 40
0.0
 40
0.0
 40
0.0
 40
0.0006053571449436
 40
0.0006053571449436
 40
0.0006053571449436
 40
0.0006053571449436
 10
201.1697428591107
 20
139.2906956867188
 42
1.0
 10
200.9698350197575
 20
139.3131575376654
 42
1.0
 10
200.7698300872484
 20
139.335065961297
 42
1.0
 10
200.5697428591108
 20
139.3564668557256
 42
1.0
 72
     4
 94
        3
 73
     1
 74
     0
 95
        8
 96
        4
 40
0.0
 40
0.0
 40
0.0
 40
0.0
 40
0.0006108538802359
 40
0.0006108538802359
 40
0.0006108538802359
 40
0.0006108538802359
 10
200.5697428591108
 20
139.3564668557256
 42
1.0
 10
200.4361913731158
 20
139.3707512319907
 42
1.0
 10
200.3028560368574
 20
139.384782306517
 42
1.0
 10
200.1697428591108
 20
139.3985742819647
 42
1.0
 72
     4
 94
        3
 73
     1
 74
     0
 95
        8
 96
        4
 40
0.0
 40
0.0
 40
0.0
 40
0.0
 40
0.0008436489185917
 40
0.0008436489185917
 40
0.0008436489185917
 40
0.0008436489185917
 10
200.1697428591108
 20
139.3985742819647
 42
1.0
 10
200.3371948213211
 20
139.3812244343345
 42
1.0
 10
200.5038803383619
 20
139.3636119445793
 42
1.0
 10
200.6697428591108
 20
139.3457278209762
 42
1.0
 72
     4
 94
        3
 73
     1
 74
     0
 95
        8
 96
        4
 40
0.0
 40
0.0
 40
0.0
 40
0.0
 40
0.001010320179185
 40
0.001010320179185
 40
0.001010320179185
 40
0.001010320179185
 10
200.6697428591108
 20
139.3457278209762
 42
1.0
 10
201.0033589560059
 20
139.3097556707526
 42
1.0
 10
201.3367204958478
 20
139.2723579783097
 42
1.0
 10
201.6697428591108
 20
139.2333049522292
 42
1.0
 72
     4
 94
        3
 73
     1
 74
     0
 95
       26
 96
       22
 40
0.0
 40
0.0
 40
0.0
 40
0.0
 40
0.0001013548819016
 40
0.0001013548819016
 40
0.0001013548819016
 40
0.0001785949945482
 40
0.0001785949945482
 40
0.0001785949945482
 40
0.0002408366327679
 40
0.0002408366327679
 40
0.0002408366327679
 40
0.0003036970906195
 40
0.0003036970906195
 40
0.0003036970906195
 40
0.0003578512480387
 40
0.0003578512480387
 40
0.0003578512480387
 40
0.0004102912462437
 40
0.0004102912462437
 40
0.0004102912462437
 40
0.0004578280117612
 40
0.0004578280117612
 40
0.0004578280117612
 40
0.0004578280117612
 10
201.6697428591108
 20
139.2333049522292
 42
1.0
 10
201.6697428591108
 20
139.2333049522292
 42
1.0
 10
201.6750276866898
 20
139.232685699183
 42
1.0
 10
201.686147311758
 20
139.2313798499917
 42
1.0
 10
201.6946484055554
 20
139.230381511793
 42
1.0
 10
201.7068016666069
 20
139.2289533636303
 42
1.0
 10
201.7225434266593
 20
139.2270988148969
 42
1.0
 10
201.7352479091261
 20
139.2256020901476
 42
1.0
 10
201.7506270680066
 20
139.2237877397729
 42
1.0
 10
201.767929812125
 20
139.2217411573772
 42
1.0
 10
201.7853347799974
 20
139.2196824838741
 42
1.0
 10
201.8052806656627
 20
139.2173181935323
 42
1.0
 10
201.8257279460669
 20
139.2148873250318
 42
1.0
 10
201.8434242898385
 20
139.2127835007679
 42
1.0
 10
201.8619830368855
 20
139.2105719117707
 42
1.0
 10
201.8797818898256
 20
139.2084457511444
 42
1.0
 10
201.8970656233865
 20
139.2063811240644
 42
1.0
 10
201.9140595464054
 20
139.2043461919591
 42
1.0
 10
201.9297490127444
 20
139.2024636625546
 42
1.0
 10
201.9440239449463
 20
139.2007508586239
 42
1.0
 10
201.9574803231683
 20
139.1991329615571
 42
1.0
 10
201.9697428591108
 20
139.1976563567404
 42
1.0
 72
     4
 94
        3
 73
     1
 74
     0
 95
        8
 96
        4
 40
0.0
 40
0.0
 40
0.0
 40
0.0
 40
0.0006205466604385
 40
0.0006205466604385
 40
0.0006205466604385
 40
0.0006205466604385
 10
201.9697428591108
 20
139.1976563567404
 42
1.0
 10
202.1279419725313
 20
139.1786066614753
 42
1.0
 10
202.2856893597505
 20
139.1592074616482
 42
1.0
 10
202.4429479398672
 20
139.1394345861136
 42
1.0
 72
     4
 94
        3
 73
     1
 74
     0
 95
        8
 96
        4
 40
0.0
 40
0.0
 40
0.0
 40
0.0
 40
0.0016518710743302
 40
0.0016518710743302
 40
0.0016518710743302
 40
0.0016518710743302
 10
202.4429479398674
 20
139.1394345861138
 42
1.0
 10
202.9864973400863
 20
139.0710915130077
 42
1.0
 10
203.5290458023276
 20
138.9977672414317
 42
1.0
 10
204.0697428591108
 20
138.9174955247276
 42
1.0
 72
     4
 94
        3
 73
     1
 74
     0
 95
       23
 96
       19
 40
0.0
 40
0.0
 40
0.0
 40
0.0
 40
0.0000447750638273
 40
0.0000447750638273
 40
0.0000447750638273
 40
0.0001597407904965
 40
0.0001597407904965
 40
0.0001597407904965
 40
0.0002358784909114
 40
0.0002358784909114
 40
0.0002358784909114
 40
0.0003028925945618
 40
0.0003028925945618
 40
0.0003028925945618
 40
0.0003698146343012
 40
0.0003698146343012
 40
0.0003698146343012
 40
0.0004367363448517
 40
0.0004367363448517
 40
0.0004367363448517
 40
0.0004367363448517
 10
204.0697428591108
 20
138.9174955247276
 42
1.0
 10
204.0697428591108
 20
138.9174955247276
 42
1.0
 10
204.0705589522713
 20
138.9173743855002
 42
1.0
 10
204.072226863071
 20
138.917126698652
 42
1.0
 10
204.0764624744424
 20
138.9164977050446
 42
1.0
 10
204.0863510690216
 20
138.9150297452661
 42
1.0
 10
204.1024417258292
 20
138.9126320932656
 42
1.0
 10
204.1131608795294
 20
138.9110348433448
 42
1.0
 10
204.1268435101086
 20
138.9089932837568
 42
1.0
 10
204.1433089292905
 20
138.9065283798233
 42
1.0
 10
204.1578003900896
 20
138.9043589811381
 42
1.0
 10
204.1747501023469
 20
138.9018161347087
 42
1.0
 10
204.1934194288302
 20
138.8990052544322
 42
1.0
 10
204.2120228195996
 20
138.8962043015304
 42
1.0
 10
204.2328018947645
 20
138.893066335779
 42
1.0
 10
204.2541653184439
 20
138.8898272473809
 42
1.0
 10
204.2755229854441
 20
138.8865890318014
 42
1.0
 10
204.2980141991434
 20
138.8831662287254
 42
1.0
 10
204.3197428591108
 20
138.8798465577073
 42
1.0
 72
     4
 94
        3
 73
     1
 74
     0
 95
        8
 96
        4
 40
0.0
 40
0.0
 40
0.0
 40
0.0
 40
0.0005100123463152
 40
0.0005100123463152
 40
0.0005100123463152
 40
0.0005100123463152
 10
204.3197428591108
 20
138.8798465577073
 42
1.0
 10
204.4866064626875
 20
138.8543533947785
 42
1.0
 10
204.6532884787955
 20
138.8281447049068
 42
1.0
 10
204.8197428591108
 20
138.801122513184
 42
1.0
 72
     4
 94
        3
 73
     1
 74
     0
 95
       20
 96
       16
 40
0.0
 40
0.0
 40
0.0
 40
0.0
 40
0.0000268373665219
 40
0.0000268373665219
 40
0.0000268373665219
 40
0.0001057081252158
 40
0.0001057081252158
 40
0.0001057081252158
 40
0.000204869527755
 40
0.000204869527755
 40
0.000204869527755
 40
0.0003489396557945
 40
0.0003489396557945
 40
0.0003489396557945
 40
0.0004773944754463
 40
0.0004773944754463
 40
0.0004773944754463
 40
0.0004773944754463
 10
204.8197428591108
 20
138.801122513184
 42
1.0
 10
204.8285018572919
 20
138.7997005780706
 42
1.0
 10
204.8372035276076
 20
138.7982855712494
 42
1.0
 10
204.8457483186794
 20
138.7968938347801
 42
1.0
 10
204.8705531896124
 20
138.7928537309081
 42
1.0
 10
204.8944165753808
 20
138.7889472097734
 42
1.0
 10
204.915847572085
 20
138.7854252468586
 42
1.0
 10
204.9427459560911
 20
138.7810047753218
 42
1.0
 10
204.9666420538381
 20
138.7770546110929
 42
1.0
 10
204.9865908884742
 20
138.7737461165438
 42
1.0
 10
205.0153961882555
 20
138.7689687859854
 42
1.0
 10
205.0370646491823
 20
138.7653495779378
 42
1.0
 10
205.0508848200475
 20
138.7630381632539
 42
1.0
 10
205.0632622836019
 20
138.7609680404393
 42
1.0
 10
205.0697428591108
 20
138.759880249301
 42
1.0
 10
205.0697428591108
 20
138.759880249301
 42
1.0
 72
     4
 94
        3
 73
     1
 74
     0
 95
        8
 96
        4
 40
0.0
 40
0.0
 40
0.0
 40
0.0
 40
0.0005299515587359
 40
0.0005299515587359
 40
0.0005299515587359
 40
0.0005299515587359
 10
205.0697428591108
 20
138.759880249301
 42
1.0
 10
205.1702027942224
 20
138.7430365940077
 42
1.0
 10
205.2702126927648
 20
138.7259336875873
 42
1.0
 10
205.3697428591107
 20
138.7085525421226
 42
1.0
 72
     4
 94
        3
 73
     1
 74
     0
 95
       35
 96
       31
 40
0.0
 40
0.0
 40
0.0
 40
0.0
 40
0.0021035486714793
 40
0.0021035486714793
 40
0.0021035486714793
 40
0.0037307944797852
 40
0.0037307944797852
 40
0.0037307944797852
 40
0.0043107352500214
 40
0.0043107352500214
 40
0.0043107352500214
 40
0.0045796426110265
 40
0.0045796426110265
 40
0.0045796426110265
 40
0.0048080195693626
 40
0.0048080195693626
 40
0.0048080195693626
 40
0.0050389886350494
 40
0.0050389886350494
 40
0.0050389886350494
 40
0.0052823692478318
 40
0.0052823692478318
 40
0.0052823692478318
 40
0.0056807725250941
 40
0.0056807725250941
 40
0.0056807725250941
 40
0.0068561358897678
 40
0.0068561358897678
 40
0.0068561358897678
 40
0.0099123697944883
 40
0.0099123697944883
 40
0.0099123697944883
 40
0.0099123697944883
 10
205.3697428591107
 20
138.7085525421226
 42
1.0
 10
206.0533066220092
 20
138.5891804800279
 42
1.0
 10
206.7339612622351
 20
138.4553778570294
 42
1.0
 10
207.3987516800521
 20
138.2874650832138
 42
1.0
 10
207.9117680795139
 20
138.1578873932564
 42
1.0
 10
208.4252526441655
 20
138.0114421265628
 42
1.0
 10
208.8853949081007
 20
137.8008265997615
 42
1.0
 10
209.0500194257652
 20
137.7254749482619
 42
1.0
 10
209.209692790723
 20
137.6403085300545
 42
1.0
 10
209.3426017784808
 20
137.5372339826737
 42
1.0
 10
209.4045231099056
 20
137.4892123001862
 42
1.0
 10
209.4610038341828
 20
137.4365178802917
 42
1.0
 10
209.5048502892509
 20
137.3791595219504
 42
1.0
 10
209.5419817668975
 20
137.3305854559902
 42
1.0
 10
209.570370867724
 20
137.2775105251366
 42
1.0
 10
209.5840105174939
 20
137.2231616395159
 42
1.0
 10
209.5977481128905
 20
137.1684224773302
 42
1.0
 10
209.5963008850649
 20
137.110904698823
 42
1.0
 10
209.5803613324244
 20
137.0568490258016
 42
1.0
 10
209.5635047027205
 20
136.9996832769204
 42
1.0
 10
209.5307409847134
 20
136.9447047372083
 42
1.0
 10
209.489335520418
 20
136.8947460585495
 42
1.0
 10
209.4217219290127
 20
136.8131653845138
 42
1.0
 10
209.3304318206975
 20
136.7417533784341
 42
1.0
 10
209.2323064997102
 20
136.6784564060344
 42
1.0
 10
208.9452111289771
 20
136.493261926419
 42
1.0
 10
208.5940395475833
 20
136.361903163459
 42
1.0
 10
208.2425617827764
 20
136.2468568118647
 42
1.0
 10
207.3285833300457
 20
135.9476916954592
 42
1.0
 10
206.3479308861292
 20
135.7556519956243
 42
1.0
 10
205.3697428591107
 20
135.5848291284109
 42
1.0
 72
     4
 94
        3
 73
     1
 74
     0
 95
        8
 96
        4
 40
0.0
 40
0.0
 40
0.0
 40
0.0
 40
0.0004936741070185
 40
0.0004936741070185
 40
0.0004936741070185
 40
0.0004936741070185
 10
205.3697428591107
 20
135.5848291284109
 42
1.0
 10
205.2698113171382
 20
135.5673778899442
 42
1.0
 10
205.1698149284934
 20
135.550280044863
 42
1.0
 10
205.0697428591106
 20
135.5335014212326
 42
1.0
 72
     4
 94
        3
 73
     1
 74
     0
 95
       23
 96
       19
 40
0.0
 40
0.0
 40
0.0
 40
0.0
 40
0.0000620795617926
 40
0.0000620795617926
 40
0.0000620795617926
 40
0.0001933333070014
 40
0.0001933333070014
 40
0.0001933333070014
 40
0.0002846388314912
 40
0.0002846388314912
 40
0.0002846388314912
 40
0.0003441502432447
 40
0.0003441502432447
 40
0.0003441502432447
 40
0.0004043475038394
 40
0.0004043475038394
 40
0.0004043475038394
 40
0.0004645241237293
 40
0.0004645241237293
 40
0.0004645241237293
 40
0.0004645241237293
 10
205.0697428591108
 20
135.5335014212326
 42
1.0
 10
205.0697428591108
 20
135.5335014212326
 42
1.0
 10
205.0685302705838
 20
135.5332980578709
 42
1.0
 10
205.0660050362397
 20
135.5328748721723
 42
1.0
 10
205.0607167158067
 20
135.5319886409272
 42
1.0
 10
205.0495549125512
 20
135.5301173735067
 42
1.0
 10
205.0311077450281
 20
135.5270400973619
 42
1.0
 10
205.0182374569339
 20
135.5248931319548
 42
1.0
 10
205.0014521406762
 20
135.522098005427
 42
1.0
 10
204.9806719681275
 20
135.5186542844245
 42
1.0
 10
204.9670539202324
 20
135.5163974813379
 42
1.0
 10
204.9514592851837
 20
135.5138191984269
 42
1.0
 10
204.9344525253856
 20
135.5110176155967
 42
1.0
 10
204.9173021714598
 20
135.5081923780052
 42
1.0
 10
204.8982831848778
 20
135.505069207809
 42
1.0
 10
204.8788718581396
 20
135.5018942233105
 42
1.0
 10
204.8594715709702
 20
135.4987210444825
 42
1.0
 10
204.8391842425808
 20
135.4954152700964
 42
1.0
 10
204.8197428591108
 20
135.4922591573495
 42
1.0
 72
     4
 94
        3
 73
     1
 74
     0
 95
        8
 96
        4
 40
0.0
 40
0.0
 40
0.0
 40
0.0
 40
0.0005128367581419
 40
0.0005128367581419
 40
0.0005128367581419
 40
0.0005128367581419
 10
204.8197428591108
 20
135.4922591573495
 42
1.0
 10
204.6533200445088
 20
135.4652420900022
 42
1.0
 10
204.4866368344834
 20
135.439032915911
 42
1.0
 10
204.3197428591108
 20
135.4135351128263
 42
1.0
 72
     4
 94
        3
 73
     1
 74
     0
 95
       20
 96
       16
 40
0.0
 40
0.0
 40
0.0
 40
0.0
 40
0.000024062732598
 40
0.000024062732598
 40
0.000024062732598
 40
0.0000972697049989
 40
0.0000972697049989
 40
0.0000972697049989
 40
0.000193547933742
 40
0.000193547933742
 40
0.000193547933742
 40
0.0003345767519746
 40
0.0003345767519746
 40
0.0003345767519746
 40
0.000520374681797
 40
0.000520374681797
 40
0.000520374681797
 40
0.000520374681797
 10
204.3197428591108
 20
135.4135351128262
 42
1.0
 10
204.3119120532299
 20
135.4123387344315
 42
1.0
 10
204.3041483858405
 20
135.4111542659344
 42
1.0
 10
204.2965372104777
 20
135.4099945841348
 42
1.0
 10
204.2736658256354
 20
135.4065097703618
 42
1.0
 10
204.2518398220159
 20
135.4031985347891
 42
1.0
 10
204.2322618317466
 20
135.4002376502949
 42
1.0
 10
204.206548011326
 20
135.3963488112914
 42
1.0
 10
204.18390451195
 20
135.3929414718824
 42
1.0
 10
204.1647598651677
 20
135.3900684641485
 42
1.0
 10
204.1368153092851
 20
135.3858748675738
 42
1.0
 10
204.1153679871521
 20
135.38267514029
 42
1.0
 10
204.1000648421176
 20
135.3803954479402
 42
1.0
 10
204.0799762515719
 20
135.3774028731406
 42
1.0
 10
204.0697428591108
 20
135.375886145806
 42
1.0
 10
204.0697428591108
 20
135.375886145806
 42
1.0
 72
     4
 94
        3
 73
     1
 74
     0
 95
        8
 96
        4
 40
0.0
 40
0.0
 40
0.0
 40
0.0
 40
0.0016608774366446
 40
0.0016608774366446
 40
0.0016608774366446
 40
0.0016608774366446
 10
204.0697428591108
 20
135.375886145806
 42
1.0
 10
203.5293470126718
 20
135.2956591466958
 42
1.0
 10
202.98676862993
 20
135.2223242680993
 42
1.0
 10
202.4429479398677
 20
135.15394708442
 42
1.0
 72
     4
 94
        3
 73
     1
 74
     0
 95
        8
 96
        4
 40
0.0
 40
0.0
 40
0.0
 40
0.0
 40
0.0005896255719046
 40
0.0005896255719046
 40
0.0005896255719046
 40
0.0005896255719046
 10
202.4429479398677
 20
135.15394708442
 42
1.0
 10
202.2851975959314
 20
135.1341123770617
 42
1.0
 10
202.1274675256679
 20
135.1147178780923
 42
1.0
 10
201.9697428591107
 20
135.0957253137932
 42
1.0
 72
     4
 94
        3
 73
     1
 74
     0
 95
       26
 96
       22
 40
0.0
 40
0.0
 40
0.0
 40
0.0
 40
0.0000471527851025
 40
0.0000471527851025
 40
0.0000471527851025
 40
0.0000946074491751
 40
0.0000946074491751
 40
0.0000946074491751
 40
0.0001393168396685
 40
0.0001393168396685
 40
0.0001393168396685
 40
0.0001993456070653
 40
0.0001993456070653
 40
0.0001993456070653
 40
0.0002848607922858
 40
0.0002848607922858
 40
0.0002848607922858
 40
0.0004113106946188
 40
0.0004113106946188
 40
0.0004113106946188
 40
0.0005236473155812
 40
0.0005236473155812
 40
0.0005236473155812
 40
0.0005236473155812
 10
201.9697428591108
 20
135.0957253137932
 42
1.0
 10
201.9571295030049
 20
135.094206464636
 42
1.0
 10
201.9429783700575
 20
135.0925051127601
 42
1.0
 10
201.9281240171911
 20
135.090723044021
 42
1.0
 10
201.9132099859554
 20
135.0889338156999
 42
1.0
 10
201.8971905557082
 20
135.0870157778426
 42
1.0
 10
201.8815371783191
 20
135.0851456135724
 42
1.0
 10
201.8667419931382
 20
135.0833779805556
 42
1.0
 10
201.8519145288443
 20
135.0816101207628
 42
1.0
 10
201.8380372496825
 20
135.079958529245
 42
1.0
 10
201.8194674544664
 20
135.077748462278
 42
1.0
 10
201.8020760129619
 20
135.0756841941608
 42
1.0
 10
201.7867144295069
 20
135.0738642089383
 42
1.0
 10
201.7648882637513
 20
135.0712783232283
 42
1.0
 10
201.7463799639311
 20
135.0690928085047
 42
1.0
 10
201.7312568836853
 20
135.0673097864671
 42
1.0
 10
201.7089706858755
 20
135.0646822277171
 42
1.0
 10
201.6931717826903
 20
135.0628264894821
 42
1.0
 10
201.6831688326366
 20
135.0616520840259
 42
1.0
 10
201.6742442347401
 20
135.0606042834863
 42
1.0
 10
201.6697428591108
 20
135.0600767183043
 42
1.0
 10
201.6697428591108
 20
135.0600767183043
 42
1.0
 72
     4
 94
        3
 73
     1
 74
     0
 95
        8
 96
        4
 40
0.0
 40
0.0
 40
0.0
 40
0.0
 40
0.001014673063807
 40
0.001014673063807
 40
0.001014673063807
 40
0.001014673063807
 10
201.6697428591108
 20
135.0600767183043
 42
1.0
 10
201.3367986589311
 20
135.0210328582897
 42
1.0
 10
201.0034331731875
 20
134.9836340022473
 42
1.0
 10
200.6697428591108
 20
134.9476538495573
 42
1.0
 72
     4
 94
        3
 73
     1
 74
     0
 95
        8
 96
        4
 40
0.0
 40
0.0
 40
0.0
 40
0.0
 40
0.0008617214274478
 40
0.0008617214274478
 40
0.0008617214274478
 40
0.0008617214274478
 10
200.6697428591108
 20
134.9476538495573
 42
1.0
 10
200.5037882716508
 20
134.9297597988626
 42
1.0
 10
200.3371073051694
 20
134.9121481685722
 42
1.0
 10
200.1697428591108
 20
134.8948073885688
 42
1.0
 72
     4
 94
        3
 73
     1
 74
     0
 95
        8
 96
        4
 40
0.0
 40
0.0
 40
0.0
 40
0.0
 40
0.0007257085289587
 40
0.0007257085289587
 40
0.0007257085289587
 40
0.0007257085289587
 10
200.1697428591108
 20
134.8948073885688
 42
1.0
 10
200.302547664445
 20
134.9085674132749
 42
1.0
 10
200.4358926552606
 20
134.9225984883311
 42
1.0
 10
200.5697428591108
 20
134.9369148148079
 42
1.0
 72
     4
 94
        3
 73
     1
 74
     0
 95
        8
 96
        4
 40
0.0
 40
0.0
 40
0.0
 40
0.0
 40
0.0006069791481321
 40
0.0006069791481321
 40
0.0006069791481321
 40
0.0006069791481321
 10
200.5697428591107
 20
134.9369148148079
 42
1.0
 10
200.769847085395
 20
134.9583175273213
 42
1.0
 10
200.9698525576116
 20
134.9802261034395
 42
1.0
 10
201.1697428591108
 20
135.0026859838147
 42
1.0
 72
     4
 94
        3
 73
     1
 74
     0
 95
        8
 96
        4
 40
0.0
 40
0.0
 40
0.0
 40
0.0
 40
0.0051171941176559
 40
0.0051171941176559
 40
0.0051171941176559
 40
0.0051171941176559
 10
201.1697428591108
 20
135.0026859838147
 42
1.0
 10
202.8501060992674
 20
135.1914933300331
 42
1.0
 10
204.5287117518272
 20
135.4094445612359
 42
1.0
 10
206.1697428591108
 20
135.7331288726103
 42
1.0
 72
     4
 94
        3
 73
     1
 74
     0
 95
        8
 96
        4
 40
0.0
 40
0.0
 40
0.0
 40
0.0
 40
0.0010417817104298
 40
0.0010417817104298
 40
0.0010417817104298
 40
0.0010417817104298
 10
206.1697428591108
 20
135.7331288726103
 42
1.0
 10
206.5052429275986
 20
135.7993044058787
 42
1.0
 10
206.8391543609397
 20
135.8705415011093
 42
1.0
 10
207.1697428591108
 20
135.9496361479532
 42
1.0
 97
        0
 75
     0
 76
     1
 52
0.0
 41
1.0
 77
     0
 78
     1
 53
45.0
 43
0.0
 44
0.0
 45
-2.245064030267288
 46
2.245064030267288
 79
     0
 98
        1
 10
0.0
 20
0.0
  0
HATCH
  5
404
330
1F
100
AcDbEntity
  8
0
  6
Continuous
 62
     7
370
     0
100
AcDbHatch
 10
0.0
 20
0.0
 30
0.0
210
0.0
220
0.0
230
1.0
  2
ANSI31
 70
     0
 71
     0
 91
        1
 92
        0
 93
        7
 72
     1
 10
197.1697428591108
 20
139.6770367755506
 11
197.1697428591108
 21
138.4191412646438
 72
     1
 10
197.1697428591108
 20
138.4191412646438
 11
204.6697428591108
 21
138.4191412646439
 72
     1
 10
204.6697428591108
 20
138.4191412646439
 11
205.4208186328952
 21
137.1691412646439
 72
     1
 10
205.4208186328952
 20
137.1691412646439
 11
204.6697428591108
 21
135.9191412646439
 72
     1
 10
204.6697428591108
 20
135.9191412646439
 11
197.1697428591108
 21
135.9191412646439
 72
     1
 10
197.1697428591108
 20
135.9191412646439
 11
197.1697428591108
 21
134.6163448949829
 72
     3
 10
169.4007070189873
 20
137.1466908352668
 11
-40.1928980878668
 21
-3.469446951953614E-15
 40
0.0870800605706151
 50
174.7935219275557
 51
185.2064780724451
 73
     1
 97
        0
 75
     0
 76
     1
 52
0.0
 41
0.5
 77
     0
 78
     1
 53
45.0
 43
0.0
 44
0.0
 45
-1.122532015133644
 46
1.122532015133644
 79
     0
 98
        1
 10
0.0
 20
0.0
  0
HATCH
  5
405
330
1F
100
AcDbEntity
  8
0
  6
Continuous
 62
     7
370
     0
100
AcDbHatch
 10
0.0
 20
0.0
 30
0.0
210
0.0
220
0.0
230
1.0
  2
ANSI31
 70
     0
 71
     0
 91
        2
 92
        0
 93
       10
 72
     3
 10
169.4007070189873
 20
137.1466908352668
 11
-40.1928980878668
 21
-3.469446951953614E-15
 40
0.0870800605706151
 50
174.7935219275557
 51
185.2064780724451
 73
     0
 72
     4
 94
        3
 73
     1
 74
     0
 95
       20
 96
       16
 40
0.0
 40
0.0
 40
0.0
 40
0.0
 40
0.0010080584162802
 40
0.0010080584162802
 40
0.0010080584162802
 40
0.0012396309548053
 40
0.0012396309548053
 40
0.0012396309548053
 40
0.0015281841393046
 40
0.0015281841393046
 40
0.0015281841393046
 40
0.0016213855092874
 40
0.0016213855092874
 40
0.0016213855092874
 40
0.0016782407048524
 40
0.0016782407048524
 40
0.0016782407048524
 40
0.0016782407048524
 10
197.1697428591108
 20
134.6163448949829
 42
1.0
 10
197.1697428591108
 20
134.6163448949829
 42
1.0
 10
197.2001965616682
 20
134.6188550152709
 42
1.0
 10
197.2965084174052
 20
134.6269403592746
 42
1.0
 10
197.3188923957306
 20
134.6288194858219
 42
1.0
 10
197.3453108793078
 20
134.6310411293452
 42
1.0
 10
197.3778931432452
 20
134.6337918577035
 42
1.0
 10
197.418105880444
 20
134.6371867819112
 42
1.0
 10
197.4680157781452
 20
134.6414096585681
 42
1.0
 10
197.5380741507782
 20
134.6473905029184
 42
1.0
 10
197.5611030038601
 20
134.6493564633122
 42
1.0
 10
197.5868604267202
 20
134.6515600688789
 42
1.0
 10
197.6150699753861
 20
134.6539812771712
 42
1.0
 10
197.632357958246
 20
134.6554650941565
 42
1.0
 10
197.6508152559007
 20
134.6570520292338
 42
1.0
 10
197.6697428591108
 20
134.6586827976262
 42
1.0
 72
     4
 94
        3
 73
     1
 74
     0
 95
       11
 96
        7
 40
0.0
 40
0.0
 40
0.0
 40
0.0
 40
0.00348500857678
 40
0.00348500857678
 40
0.00348500857678
 40
0.0069584455411569
 40
0.0069584455411569
 40
0.0069584455411569
 40
0.0069584455411569
 10
197.6697428591108
 20
134.6586827976262
 42
1.0
 10
198.8021782170384
 20
134.7562513998205
 42
1.0
 10
199.9303937746636
 20
134.8647433917503
 42
1.0
 10
201.0506804607485
 20
134.9893744027353
 42
1.0
 10
202.1669986758397
 20
135.1135639244496
 42
1.0
 10
203.2769660936584
 20
135.25326229477
 42
1.0
 10
204.3697428591108
 20
135.4211964376588
 42
1.0
 72
     4
 94
        3
 73
     1
 74
     0
 95
        8
 96
        4
 40
0.0
 40
0.0
 40
0.0
 40
0.0
 40
0.0015942101590577
 40
0.0015942101590577
 40
0.0015942101590577
 40
0.0015942101590577
 10
204.3697428591108
 20
135.4211964376588
 42
1.0
 10
204.6106885549509
 20
135.4582241364468
 42
1.0
 10
204.8444711158285
 20
135.4957311440872
 42
1.0
 10
205.0697428591104
 20
135.5335014212326
 42
1.0
 72
     4
 94
        3
 73
     1
 74
     0
 95
       26
 96
       22
 40
0.0
 40
0.0
 40
0.0
 40
0.0
 40
0.0006015660915749
 40
0.0006015660915749
 40
0.0006015660915749
 40
0.0008287323837774
 40
0.0008287323837774
 40
0.0008287323837774
 40
0.000899626442977
 40
0.000899626442977
 40
0.000899626442977
 40
0.0009380942261543
 40
0.0009380942261543
 40
0.0009380942261543
 40
0.00096512895276
 40
0.00096512895276
 40
0.00096512895276
 40
0.000995646452873
 40
0.000995646452873
 40
0.000995646452873
 40
0.0010257269735058
 40
0.0010257269735058
 40
0.0010257269735058
 40
0.0010257269735058
 10
205.0697428591108
 20
135.5335014212326
 42
1.0
 10
205.0697428591108
 20
135.5335014212326
 42
1.0
 10
205.084377650933
 20
135.5359320709734
 42
1.0
 10
205.1320124057152
 20
135.5439850479299
 42
1.0
 10
205.1500539063981
 20
135.5470350854482
 42
1.0
 10
205.1724247154288
 20
135.5508186009374
 42
1.0
 10
205.2107514408276
 20
135.5573669467885
 42
1.0
 10
205.2228154072849
 20
135.5594281462224
 42
1.0
 10
205.2368291759448
 20
135.561826868908
 42
1.0
 10
205.254120975435
 20
135.5647987491039
 42
1.0
 10
205.2635327428786
 20
135.5664163161645
 42
1.0
 10
205.2741563238515
 20
135.5682452675103
 42
1.0
 10
205.2858024835158
 20
135.5702555548838
 42
1.0
 10
205.2940085704121
 20
135.5716720383728
 42
1.0
 10
205.3029001065971
 20
135.5732093486312
 42
1.0
 10
205.3118803697729
 20
135.5747650422288
 42
1.0
 10
205.3219672350215
 20
135.576512437754
 42
1.0
 10
205.3324320781574
 20
135.5783292212378
 42
1.0
 10
205.342207710979
 20
135.5800298264175
 42
1.0
 10
205.3519002770562
 20
135.5817159809996
 42
1.0
 10
205.3611866966116
 20
135.5833349492039
 42
1.0
 10
205.3697428591108
 20
135.5848291284109
 42
1.0
 72
     4
 94
        3
 73
     1
 74
     0
 95
       29
 96
       25
 40
0.0
 40
0.0
 40
0.0
 40
0.0
 40
0.0029608451552919
 40
0.0029608451552919
 40
0.0029608451552919
 40
0.0050299543619169
 40
0.0050299543619169
 40
0.0050299543619169
 40
0.0058502584144085
 40
0.0058502584144085
 40
0.0058502584144085
 40
0.0063891623395658
 40
0.0063891623395658
 40
0.0063891623395658
 40
0.0069292123400004
 40
0.0069292123400004
 40
0.0069292123400004
 40
0.0076080381294857
 40
0.0076080381294857
 40
0.0076080381294857
 40
0.0084254116917548
 40
0.0084254116917548
 40
0.0084254116917548
 40
0.0119087109373308
 40
0.0119087109373308
 40
0.0119087109373308
 40
0.0119087109373308
 10
205.3697428591107
 20
135.5848291284109
 42
1.0
 10
206.1967872629131
 20
135.7292574923534
 42
1.0
 10
207.016976985245
 20
135.8939458332555
 42
1.0
 10
207.7739740435574
 20
136.1055051916734
 42
1.0
 10
208.3006387675927
 20
136.2526931495325
 42
1.0
 10
208.813709254602
 20
136.4238124977823
 42
1.0
 10
209.185234892607
 20
136.6490345853095
 42
1.0
 10
209.3336190945584
 20
136.738986384865
 42
1.0
 10
209.4591951216198
 20
136.8400174571208
 42
1.0
 10
209.5304383754652
 20
136.9505437389928
 42
1.0
 10
209.5773999391538
 20
137.0233995779002
 42
1.0
 10
209.6005089708349
 20
137.1018215704234
 42
1.0
 10
209.5917079159244
 20
137.180697087839
 42
1.0
 10
209.5829014519089
 20
137.2596210819377
 42
1.0
 10
209.5414644243096
 20
137.3406870724501
 42
1.0
 10
209.4734784856371
 20
137.4170887075028
 42
1.0
 10
209.3881238210738
 20
137.5130090707332
 42
1.0
 10
209.2602167132954
 20
137.6041937710672
 42
1.0
 10
209.1127731776159
 20
137.6864527685364
 42
1.0
 10
208.9346544276952
 20
137.7858255198164
 42
1.0
 10
208.7251610255603
 20
137.8750817214055
 42
1.0
 10
208.5045606426012
 20
137.955915715531
 42
1.0
 10
207.5792486513111
 20
138.2949752541635
 42
1.0
 10
206.4655929056958
 20
138.5171821288451
 42
1.0
 10
205.3697428591108
 20
138.7085525421226
 42
1.0
 72
     4
 94
        3
 73
     1
 74
     0
 95
       20
 96
       16
 40
0.0
 40
0.0
 40
0.0
 40
0.0
 40
0.0000294101279559
 40
0.0000294101279559
 40
0.0000294101279559
 40
0.0001132767347049
 40
0.0001132767347049
 40
0.0001132767347049
 40
0.0002387116924791
 40
0.0002387116924791
 40
0.0002387116924791
 40
0.0004285166244369
 40
0.0004285166244369
 40
0.0004285166244369
 40
0.0007383661827319
 40
0.0007383661827319
 40
0.0007383661827319
 40
0.0007383661827319
 10
205.3697428591099
 20
138.7085525421237
 42
1.0
 10
205.3604070104062
 20
138.7101828794407
 42
1.0
 10
205.3512437881074
 20
138.7117798601808
 42
1.0
 10
205.3423676032952
 20
138.7133240283496
 42
1.0
 10
205.317343276007
 20
138.7176774493813
 42
1.0
 10
205.2942295603072
 20
138.7216756449447
 42
1.0
 10
205.2736724124559
 20
138.7252181907173
 42
1.0
 10
205.2429673133374
 20
138.7305094996026
 42
1.0
 10
205.2169122630167
 20
138.7349673241306
 42
1.0
 10
205.1947780386638
 20
138.7387409263622
 42
1.0
 10
205.161331279476
 20
138.7444431711348
 42
1.0
 10
205.1358851295968
 20
138.7487458946703
 42
1.0
 10
205.1166753464611
 20
138.751986806532
 42
1.0
 10
205.0854957490712
 20
138.7572471640441
 42
1.0
 10
205.0697428591108
 20
138.759880249301
 42
1.0
 10
205.0697428591108
 20
138.759880249301
 42
1.0
 72
     4
 94
        3
 73
     1
 74
     0
 95
        8
 96
        4
 40
0.0
 40
0.0
 40
0.0
 40
0.0
 40
0.0014509505877123
 40
0.0014509505877123
 40
0.0014509505877123
 40
0.0014509505877123
 10
205.0697428591108
 20
138.759880249301
 42
1.0
 10
204.8422255337719
 20
138.7980270328621
 42
1.0
 10
204.6086309207309
 20
138.8354737441765
 42
1.0
 10
204.3697428591107
 20
138.8721852328747
 42
1.0
 72
     4
 94
        3
 73
     1
 74
     0
 95
        8
 96
        4
 40
0.0
 40
0.0
 40
0.0
 40
0.0
 40
0.0068006253453377
 40
0.0068006253453377
 40
0.0068006253453377
 40
0.0068006253453377
 10
204.3697428591108
 20
138.8721852328747
 42
1.0
 10
202.1659499217435
 20
139.210856487372
 42
1.0
 10
199.9181250018784
 20
139.4409822944442
 42
1.0
 10
197.6697428591108
 20
139.6346988729073
 42
1.0
 72
     4
 94
        3
 73
     1
 74
     0
 95
       20
 96
       16
 40
0.0
 40
0.0
 40
0.0
 40
0.0
 40
0.0001206260620727
 40
0.0001206260620727
 40
0.0001206260620727
 40
0.0002407152428496
 40
0.0002407152428496
 40
0.0002407152428496
 40
0.0003980867013264
 40
0.0003980867013264
 40
0.0003980867013264
 40
0.0006244780406175
 40
0.0006244780406175
 40
0.0006244780406175
 40
0.000967586028874
 40
0.000967586028874
 40
0.000967586028874
 40
0.000967586028874
 10
197.6697428591108
 20
139.6346988729073
 42
1.0
 10
197.6298621907686
 20
139.6381349198635
 42
1.0
 10
197.5886544606767
 20
139.6416699867878
 42
1.0
 10
197.5500000716183
 20
139.6449726350778
 42
1.0
 10
197.5114329154383
 20
139.6482678301517
 42
1.0
 10
197.4743672476663
 20
139.6514209912512
 42
1.0
 10
197.4411763703045
 20
139.6542354364049
 42
1.0
 10
197.3977862508408
 20
139.6579147338851
 42
1.0
 10
197.3596722968465
 20
139.6611300653686
 42
1.0
 10
197.3278887602764
 20
139.6638040814872
 42
1.0
 10
197.2822912193028
 20
139.6676402989975
 42
1.0
 10
197.2479756312179
 20
139.6705105362445
 42
1.0
 10
197.2233933789463
 20
139.6725638091205
 42
1.0
 10
197.1862971100365
 20
139.6756623357287
 42
1.0
 10
197.1697428591108
 20
139.6770367755506
 42
1.0
 10
197.1697428591108
 20
139.6770367755506
 42
1.0
 97
        0
 92
        0
 93
        2
 72
     4
 94
        3
 73
     1
 74
     0
 95
        8
 96
        4
 40
0.0
 40
0.0
 40
0.0
 40
0.0
 40
0.0003080807325716
 40
0.0003080807325716
 40
0.0003080807325716
 40
0.0003080807325716
 10
205.1697428591107
 20
138.7430019096571
 42
1.0
 10
205.1590044579077
 20
138.7448265059074
 42
1.0
 10
205.1590044579077
 20
138.7448265059074
 42
1.0
 10
205.1697428591108
 20
138.7430019096571
 42
1.0
 72
     4
 94
        3
 73
     1
 74
     0
 95
       56
 96
       52
 40
0.0
 40
0.0
 40
0.0
 40
0.0
 40
0.0004033495157067
 40
0.0004033495157067
 40
0.0004033495157067
 40
0.003481317575299
 40
0.003481317575299
 40
0.003481317575299
 40
0.0043069276405842
 40
0.0043069276405842
 40
0.0043069276405842
 40
0.0046006970675317
 40
0.0046006970675317
 40
0.0046006970675317
 40
0.004783929128502
 40
0.004783929128502
 40
0.004783929128502
 40
0.004967593566925
 40
0.004967593566925
 40
0.004967593566925
 40
0.0052368338486312
 40
0.0052368338486312
 40
0.0052368338486312
 40
0.0054883341390575
 40
0.0054883341390575
 40
0.0054883341390575
 40
0.0057356856317822
 40
0.0057356856317822
 40
0.0057356856317822
 40
0.0059274714216134
 40
0.0059274714216134
 40
0.0059274714216134
 40
0.0061541811929488
 40
0.0061541811929488
 40
0.0061541811929488
 40
0.0063765032720104
 40
0.0063765032720104
 40
0.0063765032720104
 40
0.0068994501088521
 40
0.0068994501088521
 40
0.0068994501088521
 40
0.0073792971713077
 40
0.0073792971713077
 40
0.0073792971713077
 40
0.0087754126238037
 40
0.0087754126238037
 40
0.0087754126238037
 40
0.0103261703631127
 40
0.0103261703631127
 40
0.0103261703631127
 40
0.0107365104548951
 40
0.0107365104548951
 40
0.0107365104548951
 40
0.0107365104548951
 10
205.1697428591108
 20
138.7430019096571
 42
1.0
 10
205.2705543466387
 20
138.72587270591
 42
1.0
 10
205.3978755214033
 20
138.7038247112267
 42
1.0
 10
205.5218921950483
 20
138.6816952993399
 42
1.0
 10
206.4541450999214
 20
138.5153450182988
 42
1.0
 10
207.4834662941246
 20
138.3187151502918
 42
1.0
 10
208.4358913708944
 20
137.9806770803955
 42
1.0
 10
208.6936001572469
 20
137.8892101683425
 42
1.0
 10
208.9536641405161
 20
137.7842267131841
 42
1.0
 10
209.1823333525757
 20
137.6461028627257
 42
1.0
 10
209.2643459435681
 20
137.5965645153816
 42
1.0
 10
209.3430880777344
 20
137.5413212619522
 42
1.0
 10
209.4082881224397
 20
137.4824012513325
 42
1.0
 10
209.4490964438943
 20
137.4455235659821
 42
1.0
 10
209.4849735452063
 20
137.4065387146406
 42
1.0
 10
209.5122320845545
 20
137.3692926390246
 42
1.0
 10
209.5395086848183
 20
137.3320218849686
 42
1.0
 10
209.5585844604935
 20
137.2958601223376
 42
1.0
 10
209.5703819996954
 20
137.2656521628983
 42
1.0
 10
209.5875685297412
 20
137.2216455278163
 42
1.0
 10
209.5911327966455
 20
137.1889885146036
 42
1.0
 10
209.5925381923217
 20
137.1721926046772
 42
1.0
 10
209.5938559588941
 20
137.1564439518024
 42
1.0
 10
209.5937081303825
 20
137.1537901915844
 42
1.0
 10
209.5930888890556
 20
137.1644296040911
 42
1.0
 10
209.5924800518368
 20
137.1748902598005
 42
1.0
 10
209.5911615597102
 20
137.1985942901679
 42
1.0
 10
209.5813002562454
 20
137.2332899220209
 42
1.0
 10
209.5736408238284
 20
137.2602385752387
 42
1.0
 10
209.5600177767819
 20
137.2945428688107
 42
1.0
 10
209.5373257435446
 20
137.3318438925433
 42
1.0
 10
209.5106776717288
 20
137.3756478279965
 42
1.0
 10
209.4702615450634
 20
137.4244747191132
 42
1.0
 10
209.4217148062091
 20
137.4700381361645
 42
1.0
 10
209.3737115067205
 20
137.5150915095948
 42
1.0
 10
209.3172498660477
 20
137.5583841284239
 42
1.0
 10
209.257705540495
 20
137.598238740307
 42
1.0
 10
209.1185181418072
 20
137.6914005941397
 42
1.0
 10
208.960214678705
 20
137.7695708681311
 42
1.0
 10
208.8008271299761
 20
137.8384134871999
 42
1.0
 10
208.6538754376233
 20
137.9018848151602
 42
1.0
 10
208.5031722396854
 20
137.9581929547038
 42
1.0
 10
208.3514783213877
 20
138.010086327609
 42
1.0
 10
207.9112587923968
 20
138.1606821882372
 42
1.0
 10
207.4598988520353
 20
138.27735063896
 42
1.0
 10
207.010870631221
 20
138.3810937716638
 42
1.0
 10
206.5126709919648
 20
138.4961974308382
 42
1.0
 10
206.0053029648317
 20
138.5953533418906
 42
1.0
 10
205.5285854604776
 20
138.6805003839712
 42
1.0
 10
205.4022359716946
 20
138.7030678062706
 42
1.0
 10
205.2723529430781
 20
138.7255671006102
 42
1.0
 10
205.1697428591108
 20
138.7430019096571
 42
1.0
 97
        0
 75
     0
 76
     1
 52
0.0
 41
0.5
 77
     0
 78
     1
 53
45.0
 43
0.0
 44
0.0
 45
-1.122532015133644
 46
1.122532015133644
 79
     0
 98
        1
 10
0.0
 20
0.0
  0
HATCH
  5
406
330
1F
100
AcDbEntity
  8
0
  6
Continuous
 62
     7
370
     0
100
AcDbHatch
 10
0.0
 20
0.0
 30
0.0
210
0.0
220
0.0
230
1.0
  2
ANSI31
 70
     0
 71
     0
 91
        1
 92
        0
 93
        2
 72
     4
 94
        3
 73
     1
 74
     0
 95
        8
 96
        4
 40
0.0000000000000004
 40
0.0000000000000004
 40
0.0000000000000004
 40
0.0000000000000004
 40
0.0002641744235378
 40
0.0002641744235378
 40
0.0002641744235378
 40
0.0002641744235378
 10
205.3270958002868
 20
138.715978014116
 42
1.0
 10
205.2413931825077
 20
138.7308559496066
 42
1.0
 10
205.1556053865268
 20
138.7454840742208
 42
1.0
 10
205.0697428591108
 20
138.759880249301
 42
1.0
 72
     4
 94
        3
 73
     1
 74
     0
 95
        8
 96
        4
 40
0.0
 40
0.0
 40
0.0
 40
0.0
 40
0.000267029941764
 40
0.000267029941764
 40
0.000267029941764
 40
0.000267029941764
 10
205.0697428591108
 20
138.759880249301
 42
1.0
 10
205.1556412855035
 20
138.7454780552045
 42
1.0
 10
205.2414306918641
 20
138.7308494379992
 42
1.0
 10
205.3270958002873
 20
138.7159780141158
 42
1.0
 97
        0
 75
     0
 76
     1
 52
0.0
 41
1.0
 77
     0
 78
     1
 53
45.0
 43
0.0
 44
0.0
 45
-2.245064030267288
 46
2.245064030267288
 79
     0
 98
        1
 10
0.0
 20
0.0
  0
HATCH
  5
407
330
1F
100
AcDbEntity
  8
0
  6
Continuous
 62
     7
370
     0
100
AcDbHatch
 10
0.0
 20
0.0
 30
0.0
210
0.0
220
0.0
230
1.0
  2
ANSI31
 70
     0
 71
     0
 91
        1
 92
        0
 93
        2
 72
     4
 94
        3
 73
     1
 74
     0
 95
        8
 96
        4
 40
0.0
 40
0.0
 40
0.0
 40
0.0
 40
0.0002777158412632
 40
0.0002777158412632
 40
0.0002777158412632
 40
0.0002777158412632
 10
205.3270958002873
 20
135.5774036564177
 42
1.0
 10
205.2414737977719
 20
135.5625397157003
 42
1.0
 10
205.1556837640775
 20
135.5479107375162
 42
1.0
 10
205.0697428591108
 20
135.5335014212326
 42
1.0
 72
     4
 94
        3
 73
     1
 74
     0
 95
        8
 96
        4
 40
0.0
 40
0.0
 40
0.0
 40
0.0
 40
0.0002667384908726
 40
0.0002667384908726
 40
0.0002667384908726
 40
0.0002667384908726
 10
205.0697428591108
 20
135.5335014212326
 42
1.0
 10
205.15562006396
 20
135.5479000572104
 42
1.0
 10
205.2414081637916
 20
135.5625283216712
 42
1.0
 10
205.3270958002872
 20
135.5774036564177
 42
1.0
 97
        0
 75
     0
 76
     1
 52
0.0
 41
1.0
 77
     0
 78
     1
 53
45.0
 43
0.0
 44
0.0
 45
-2.245064030267288
 46
2.245064030267288
 79
     0
 98
        1
 10
0.0
 20
0.0
  0
HATCH
  5
408
330
1F
100
AcDbEntity
  8
0
  6
Continuous
 62
     7
370
     0
100
AcDbHatch
 10
0.0
 20
0.0
 30
0.0
210
0.0
220
0.0
230
1.0
  2
ANSI31
 70
     0
 71
     0
 91
        1
 92
        0
 93
        1
 72
     4
 94
        3
 73
     1
 74
     0
 95
      110
 96
      106
 40
0.0
 40
0.0
 40
0.0
 40
0.0
 40
0.000868875190421
 40
0.000868875190421
 40
0.000868875190421
 40
0.0010887944226724
 40
0.0010887944226724
 40
0.0010887944226724
 40
0.0012633262704901
 40
0.0012633262704901
 40
0.0012633262704901
 40
0.0014378372575409
 40
0.0014378372575409
 40
0.0014378372575409
 40
0.001724352740167
 40
0.001724352740167
 40
0.001724352740167
 40
0.0025533871994472
 40
0.0025533871994472
 40
0.0025533871994472
 40
0.0034405039234317
 40
0.0034405039234317
 40
0.0034405039234317
 40
0.0038316873138896
 40
0.0038316873138896
 40
0.0038316873138896
 40
0.004228894624018
 40
0.004228894624018
 40
0.004228894624018
 40
0.0045077625302661
 40
0.0045077625302661
 40
0.0045077625302661
 40
0.0047865529589681
 40
0.0047865529589681
 40
0.0047865529589681
 40
0.0051650653069744
 40
0.0051650653069744
 40
0.0051650653069744
 40
0.0057967353961376
 40
0.0057967353961376
 40
0.0057967353961376
 40
0.0070361423559004
 40
0.0070361423559004
 40
0.0070361423559004
 40
0.0090999254881564
 40
0.0090999254881564
 40
0.0090999254881564
 40
0.0107843767820934
 40
0.0107843767820934
 40
0.0107843767820934
 40
0.0119031330032226
 40
0.0119031330032226
 40
0.0119031330032226
 40
0.0127848377274141
 40
0.0127848377274141
 40
0.0127848377274141
 40
0.0136723636708173
 40
0.0136723636708173
 40
0.0136723636708173
 40
0.0140850430459928
 40
0.0140850430459928
 40
0.0140850430459928
 40
0.0142524428837825
 40
0.0142524428837825
 40
0.0142524428837825
 40
0.014420700234376
 40
0.014420700234376
 40
0.014420700234376
 40
0.0146461212336006
 40
0.0146461212336006
 40
0.0146461212336006
 40
0.0151008378353578
 40
0.0151008378353578
 40
0.0151008378353578
 40
0.015845023228842
 40
0.015845023228842
 40
0.015845023228842
 40
0.0163714696442034
 40
0.0163714696442034
 40
0.0163714696442034
 40
0.01681008533475
 40
0.01681008533475
 40
0.01681008533475
 40
0.0172505653887407
 40
0.0172505653887407
 40
0.0172505653887407
 40
0.017665957206734
 40
0.017665957206734
 40
0.017665957206734
 40
0.0182554857899669
 40
0.0182554857899669
 40
0.0182554857899669
 40
0.0191061092522218
 40
0.0191061092522218
 40
0.0191061092522218
 40
0.0203888830704873
 40
0.0203888830704873
 40
0.0203888830704873
 40
0.0220868787848332
 40
0.0220868787848332
 40
0.0220868787848332
 40
0.0234828256713048
 40
0.0234828256713048
 40
0.0234828256713048
 40
0.0245778920745662
 40
0.0245778920745662
 40
0.0245778920745662
 40
0.0245778920745662
 10
208.5697428591108
 20
137.931647368637
 42
1.0
 10
208.8126128458553
 20
137.8397488381432
 42
1.0
 10
209.0808447297363
 20
137.7277438937135
 42
1.0
 10
209.306301075039
 20
137.5644266901839
 42
1.0
 10
209.3638111088422
 20
137.5227672820931
 42
1.0
 10
209.418475986807
 20
137.4767426484872
 42
1.0
 10
209.4637951831151
 20
137.4277588252479
 42
1.0
 10
209.4996526679963
 20
137.3890018117898
 42
1.0
 10
209.5298416048224
 20
137.3477053094925
 42
1.0
 10
209.5508286094901
 20
137.3081249840529
 42
1.0
 10
209.5718370866549
 20
137.2685041626763
 42
1.0
 10
209.5842531936768
 20
137.2299078382603
 42
1.0
 10
209.5897907733771
 20
137.194908637024
 42
1.0
 10
209.5988570009792
 20
137.1376072993503
 42
1.0
 10
209.5911148647243
 20
137.0877483741272
 42
1.0
 10
209.5761450845078
 20
137.0435374206457
 42
1.0
 10
209.5331833865663
 20
136.9166566246888
 42
1.0
 10
209.4352000598519
 20
136.8241276162236
 42
1.0
 10
209.3174271859873
 20
136.7370950006217
 42
1.0
 10
209.1913818086412
 20
136.6439491129909
 42
1.0
 10
209.0346527978596
 20
136.5584041899457
 42
1.0
 10
208.8399895969571
 20
136.4721038769665
 42
1.0
 10
208.7535603988604
 20
136.4337870979774
 42
1.0
 10
208.6583817805919
 20
136.3949853604494
 42
1.0
 10
208.5539895720457
 20
136.355797135428
 42
1.0
 10
208.4486995338218
 20
136.3162718703925
 42
1.0
 10
208.3309190066841
 20
136.2753196327808
 42
1.0
 10
208.2078671882355
 20
136.2355762924815
 42
1.0
 10
208.1210426394384
 20
136.2075336545695
 42
1.0
 10
208.0297192029614
 20
136.1794931421807
 42
1.0
 10
207.9414150190579
 20
136.1535089263805
 42
1.0
 10
207.8530763669985
 20
136.1275145680484
 42
1.0
 10
207.7657582139538
 20
136.1029598048621
 42
1.0
 10
207.6855648215725
 20
136.0811115230659
 42
1.0
 10
207.5769500596466
 20
136.0515199837218
 42
1.0
 10
207.4781432412977
 20
136.0259331801626
 42
1.0
 10
207.3917687983244
 20
136.0041543740986
 42
1.0
 10
207.2480610474624
 20
135.9679193127984
 42
1.0
 10
207.132553957374
 20
135.9405450158009
 42
1.0
 10
207.0374890396297
 20
135.9184553790045
 42
1.0
 10
206.851812802758
 20
135.8753109601007
 42
1.0
 10
206.7349337803391
 20
135.8502097005831
 42
1.0
 10
206.6605696590229
 20
135.8342013599962
 42
1.0
 10
206.5374390080066
 20
135.8076950641741
 42
1.0
 10
206.5291358587981
 20
135.8060651785739
 42
1.0
 10
206.6268391676019
 20
135.826963451816
 42
1.0
 10
206.7067565368873
 20
135.8440573971548
 42
1.0
 10
206.8617457728047
 20
135.8768906970391
 42
1.0
 10
207.1053640727532
 20
135.9343440644199
 42
1.0
 10
207.2678201581414
 20
135.9726566589952
 42
1.0
 10
207.4738867265238
 20
136.0227747761746
 42
1.0
 10
207.722696411869
 20
136.0912812711002
 42
1.0
 10
207.9189154365077
 20
136.1453076149584
 42
1.0
 10
208.1470530650345
 20
136.2120150516136
 42
1.0
 10
208.3920096345373
 20
136.2972812985958
 42
1.0
 10
208.6380506198625
 20
136.3829250168478
 42
1.0
 10
208.9105677310444
 20
136.4874211672509
 42
1.0
 10
209.1592798218308
 20
136.6335465364644
 42
1.0
 10
209.2757089217613
 20
136.701951917002
 42
1.0
 10
209.3915199433095
 20
136.7827573884409
 42
1.0
 10
209.477035969747
 20
136.8803209928779
 42
1.0
 10
209.512066555356
 20
136.9202867202384
 42
1.0
 10
209.5417352011099
 20
136.9638710971001
 42
1.0
 10
209.5613796167213
 20
137.006564075925
 42
1.0
 10
209.5811099272104
 20
137.0494437290835
 42
1.0
 10
209.5912214788579
 20
137.0922930537273
 42
1.0
 10
209.5932064588601
 20
137.1311024153606
 42
1.0
 10
209.5958693142731
 20
137.1831652666676
 42
1.0
 10
209.5851156329257
 20
137.2301016908933
 42
1.0
 10
209.5677127227126
 20
137.2723009022862
 42
1.0
 10
209.5327456877873
 20
137.357090243869
 42
1.0
 10
209.4710834231894
 20
137.427376239151
 42
1.0
 10
209.3975436545126
 20
137.4919730578267
 42
1.0
 10
209.2779353935531
 20
137.5970361180505
 42
1.0
 10
209.1199280112141
 20
137.6898643789092
 42
1.0
 10
208.9346531095799
 20
137.7778630884164
 42
1.0
 10
208.8030450900644
 20
137.8403720185304
 42
1.0
 10
208.6538694645466
 20
137.9014480113087
 42
1.0
 10
208.4954894960834
 20
137.9592324483007
 42
1.0
 10
208.3634273104807
 20
138.0074149243868
 42
1.0
 10
208.2218085959449
 20
138.05439763303
 42
1.0
 10
208.081991828884
 20
138.0975287875691
 42
1.0
 10
207.9417792617472
 20
138.1407820398695
 42
1.0
 10
207.7997388937385
 20
138.1813175463888
 42
1.0
 10
207.6691197166928
 20
138.2167401945655
 42
1.0
 10
207.5454789703912
 20
138.2502703603161
 42
1.0
 10
207.4289480621178
 20
138.2801351713869
 42
1.0
 10
207.3256017665039
 20
138.3057765395183
 42
1.0
 10
207.1795599120294
 20
138.3420111518084
 42
1.0
 10
207.0556222280464
 20
138.3709464131556
 42
1.0
 10
206.9560556461047
 20
138.3936847402907
 42
1.0
 10
206.8127860482106
 20
138.426403659851
 42
1.0
 10
206.7142871235632
 20
138.4476372024332
 42
1.0
 10
206.6518998309602
 20
138.4610451197348
 42
1.0
 10
206.5581437341054
 20
138.4811946396242
 42
1.0
 10
206.5415221185971
 20
138.4845513450273
 42
1.0
 10
206.5801506757926
 20
138.4763609488114
 42
1.0
 10
206.6311225945707
 20
138.4655533949966
 42
1.0
 10
206.7796570462257
 20
138.4344731215744
 42
1.0
 10
207.0073319780231
 20
138.3819110303587
 42
1.0
 10
207.1949511361473
 20
138.3385964009205
 42
1.0
 10
207.4420240007276
 20
138.2799154606938
 42
1.0
 10
207.7456845450548
 20
138.1957499132894
 42
1.0
 10
207.9837404023007
 20
138.1297680071371
 42
1.0
 10
208.2660327869783
 20
138.0465669175663
 42
1.0
 10
208.5697428591108
 20
137.931647368637
 42
1.0
 97
        0
 75
     0
 76
     1
 52
0.0
 41
1.0
 77
     0
 78
     1
 53
45.0
 43
0.0
 44
0.0
 45
-2.245064030267288
 46
2.245064030267288
 79
     0
 98
        1
 10
0.0
 20
0.0
  0
HATCH
  5
409
330
1F
100
AcDbEntity
  8
0
  6
Continuous
 62
     7
370
     0
100
AcDbHatch
 10
0.0
 20
0.0
 30
0.0
210
0.0
220
0.0
230
1.0
  2
ANSI31
 70
     0
 71
     0
 91
        1
 92
        0
 93
        8
 72
     4
 94
        3
 73
     1
 74
     0
 95
        8
 96
        4
 40
0.0
 40
0.0
 40
0.0
 40
0.0
 40
0.0005348257899851
 40
0.0005348257899851
 40
0.0005348257899851
 40
0.0005348257899851
 10
205.5844487414637
 20
138.6704821496814
 42
1.0
 10
205.4133992054113
 20
138.7012819092629
 42
1.0
 10
205.2417860893586
 20
138.731034552132
 42
1.0
 10
205.0697428591108
 20
138.759880249301
 42
1.0
 72
     4
 94
        3
 73
     1
 74
     0
 95
       20
 96
       16
 40
0.0
 40
0.0
 40
0.0
 40
0.0
 40
0.0003037514852764
 40
0.0003037514852764
 40
0.0003037514852764
 40
0.0004898209130085
 40
0.0004898209130085
 40
0.0004898209130085
 40
0.0006127872162015
 40
0.0006127872162015
 40
0.0006127872162015
 40
0.0006950032648713
 40
0.0006950032648713
 40
0.0006950032648713
 40
0.0007238345793258
 40
0.0007238345793258
 40
0.0007238345793258
 40
0.0007238345793258
 10
205.0697428591108
 20
138.759880249301
 42
1.0
 10
205.0697428591108
 20
138.759880249301
 42
1.0
 10
205.0854957490712
 20
138.7572471640441
 42
1.0
 10
205.1166753464611
 20
138.751986806532
 42
1.0
 10
205.1358851295968
 20
138.7487458946703
 42
1.0
 10
205.1613312794761
 20
138.7444431711348
 42
1.0
 10
205.1947780386638
 20
138.7387409263622
 42
1.0
 10
205.2169122630167
 20
138.7349673241306
 42
1.0
 10
205.2429673133374
 20
138.7305094996026
 42
1.0
 10
205.2736724124559
 20
138.7252181907173
 42
1.0
 10
205.2942295603072
 20
138.7216756449447
 42
1.0
 10
205.3173432760071
 20
138.7176774493813
 42
1.0
 10
205.3423676032952
 20
138.7133240283496
 42
1.0
 10
205.3512437881075
 20
138.7117798601808
 42
1.0
 10
205.3604070104062
 20
138.7101828794407
 42
1.0
 10
205.3697428591099
 20
138.7085525421237
 42
1.0
 72
     4
 94
        3
 73
     1
 74
     0
 95
       29
 96
       25
 40
0.0
 40
0.0
 40
0.0
 40
0.0
 40
0.0034521864174494
 40
0.0034521864174494
 40
0.0034521864174494
 40
0.0042622591992326
 40
0.0042622591992326
 40
0.0042622591992326
 40
0.0049350217169094
 40
0.0049350217169094
 40
0.0049350217169094
 40
0.005470247990854
 40
0.005470247990854
 40
0.005470247990854
 40
0.0060043384262655
 40
0.0060043384262655
 40
0.0060043384262655
 40
0.0068173155231333
 40
0.0068173155231333
 40
0.0068173155231333
 40
0.0088679434467613
 40
0.0088679434467613
 40
0.0088679434467613
 40
0.0118023423337503
 40
0.0118023423337503
 40
0.0118023423337503
 40
0.0118023423337503
 10
205.3697428591108
 20
138.7085525421226
 42
1.0
 10
206.4655929056958
 20
138.5171821288451
 42
1.0
 10
207.5792486513112
 20
138.2949752541634
 42
1.0
 10
208.5045606426013
 20
137.955915715531
 42
1.0
 10
208.7251610255604
 20
137.8750817214055
 42
1.0
 10
208.9346544276953
 20
137.7858255198163
 42
1.0
 10
209.1127731776159
 20
137.6864527685363
 42
1.0
 10
209.2602167132955
 20
137.6041937710672
 42
1.0
 10
209.3881238210739
 20
137.5130090707331
 42
1.0
 10
209.4734784856372
 20
137.4170887075028
 42
1.0
 10
209.5414644243096
 20
137.34068707245
 42
1.0
 10
209.5829014519089
 20
137.2596210819377
 42
1.0
 10
209.5917079159244
 20
137.180697087839
 42
1.0
 10
209.6005089708349
 20
137.1018215704234
 42
1.0
 10
209.5773999391538
 20
137.0233995779002
 42
1.0
 10
209.5304383754652
 20
136.9505437389928
 42
1.0
 10
209.4591951216197
 20
136.8400174571208
 42
1.0
 10
209.3336190945583
 20
136.738986384865
 42
1.0
 10
209.1852348926069
 20
136.6490345853095
 42
1.0
 10
208.8137092546019
 20
136.4238124977823
 42
1.0
 10
208.3006387675926
 20
136.2526931495324
 42
1.0
 10
207.7739740435572
 20
136.1055051916734
 42
1.0
 10
207.0169769852448
 20
135.8939458332554
 42
1.0
 10
206.196787262913
 20
135.7292574923534
 42
1.0
 10
205.3697428591108
 20
135.5848291284109
 42
1.0
 72
     4
 94
        3
 73
     1
 74
     0
 95
       26
 96
       22
 40
0.0
 40
0.0
 40
0.0
 40
0.0
 40
0.0000306313326918
 40
0.0000306313326918
 40
0.0000306313326918
 40
0.000061707646506
 40
0.000061707646506
 40
0.000061707646506
 40
0.0000892374128619
 40
0.0000892374128619
 40
0.0000892374128619
 40
0.0001284095893944
 40
0.0001284095893944
 40
0.0001284095893944
 40
0.0002006018077313
 40
0.0002006018077313
 40
0.0002006018077313
 40
0.0004319277996495
 40
0.0004319277996495
 40
0.0004319277996495
 40
0.0010445093208273
 40
0.0010445093208273
 40
0.0010445093208273
 40
0.0010445093208273
 10
205.3697428591108
 20
135.5848291284109
 42
1.0
 10
205.3611866966116
 20
135.5833349492039
 42
1.0
 10
205.3519002770562
 20
135.5817159809996
 42
1.0
 10
205.342207710979
 20
135.5800298264174
 42
1.0
 10
205.3324320781574
 20
135.5783292212378
 42
1.0
 10
205.3219672350215
 20
135.576512437754
 42
1.0
 10
205.3118803697729
 20
135.5747650422288
 42
1.0
 10
205.3029001065971
 20
135.5732093486312
 42
1.0
 10
205.2940085704121
 20
135.5716720383728
 42
1.0
 10
205.2858024835157
 20
135.5702555548838
 42
1.0
 10
205.2741563238514
 20
135.5682452675103
 42
1.0
 10
205.2635327428786
 20
135.5664163161645
 42
1.0
 10
205.2541209754349
 20
135.5647987491039
 42
1.0
 10
205.2368291759448
 20
135.561826868908
 42
1.0
 10
205.2228154072849
 20
135.5594281462224
 42
1.0
 10
205.2107514408276
 20
135.5573669467885
 42
1.0
 10
205.1724247154288
 20
135.5508186009374
 42
1.0
 10
205.150053906398
 20
135.5470350854482
 42
1.0
 10
205.1320124057151
 20
135.5439850479299
 42
1.0
 10
205.084377650933
 20
135.5359320709734
 42
1.0
 10
205.0697428591108
 20
135.5335014212326
 42
1.0
 10
205.0697428591108
 20
135.5335014212326
 42
1.0
 72
     4
 94
        3
 73
     1
 74
     0
 95
        8
 96
        4
 40
0.0
 40
0.0
 40
0.0
 40
0.0
 40
0.0005565161412753
 40
0.0005565161412753
 40
0.0005565161412753
 40
0.0005565161412753
 10
205.0697428591108
 20
135.5335014212326
 42
1.0
 10
205.2419602615904
 20
135.5623763210586
 42
1.0
 10
205.4135785912494
 20
135.592132062093
 42
1.0
 10
205.5844487414637
 20
135.6228995208521
 42
1.0
 72
     4
 94
        3
 73
     1
 74
     0
 95
        8
 96
        4
 40
0.0
 40
0.0
 40
0.0
 40
0.0
 40
0.0019455462556955
 40
0.0019455462556955
 40
0.0019455462556955
 40
0.0019455462556955
 10
205.5844487414637
 20
135.6228995208521
 42
1.0
 10
206.1890099804115
 20
135.7317588679255
 42
1.0
 10
206.7871033753446
 20
135.8526904744191
 42
1.0
 10
207.3643857162536
 20
135.9972731021221
 42
1.0
 72
     4
 94
        3
 73
     1
 74
     0
 95
       47
 96
       43
 40
0.0
 40
0.0
 40
0.0
 40
0.0
 40
0.0003704815976793
 40
0.0003704815976793
 40
0.0003704815976793
 40
0.0006464286605941
 40
0.0006464286605941
 40
0.0006464286605941
 40
0.000923125013594
 40
0.000923125013594
 40
0.000923125013594
 40
0.0012991853221023
 40
0.0012991853221023
 40
0.0012991853221023
 40
0.0016694471389236
 40
0.0016694471389236
 40
0.0016694471389236
 40
0.0025962808629178
 40
0.0025962808629178
 40
0.0025962808629178
 40
0.0034633032204604
 40
0.0034633032204604
 40
0.0034633032204604
 40
0.0037599714447065
 40
0.0037599714447065
 40
0.0037599714447065
 40
0.0039367114259104
 40
0.0039367114259104
 40
0.0039367114259104
 40
0.0041137028342303
 40
0.0041137028342303
 40
0.0041137028342303
 40
0.004402847945429
 40
0.004402847945429
 40
0.004402847945429
 40
0.0047555257081279
 40
0.0047555257081279
 40
0.0047555257081279
 40
0.0056878854521908
 40
0.0056878854521908
 40
0.0056878854521908
 40
0.0069508154312104
 40
0.0069508154312104
 40
0.0069508154312104
 40
0.0069508154312104
 10
207.3643857162536
 20
135.9972731021221
 42
1.0
 10
207.4468426800386
 20
136.017924772287
 42
1.0
 10
207.5407318191089
 20
136.0420382492271
 42
1.0
 10
207.6445533379584
 20
136.0700020498987
 42
1.0
 10
207.7220043243414
 20
136.0908630811092
 42
1.0
 10
207.8066060533839
 20
136.1143360800849
 42
1.0
 10
207.8932610086891
 20
136.1394476128029
 42
1.0
 10
207.9800095296801
 20
136.1645862596977
 42
1.0
 10
208.0707833268414
 20
136.1919722074555
 42
1.0
 10
208.1579150796721
 20
136.2195933065986
 42
1.0
 10
208.2757667264282
 20
136.2569527296961
 42
1.0
 10
208.3904184173383
 20
136.2958485696161
 42
1.0
 10
208.4935900206393
 20
136.3334565166549
 42
1.0
 10
208.5958614955986
 20
136.3707363503572
 42
1.0
 10
208.6898918424368
 20
136.4077354882106
 42
1.0
 10
208.7755281022925
 20
136.4441294604971
 42
1.0
 10
208.9878863553286
 20
136.5343781517506
 42
1.0
 10
209.1569294547148
 20
136.6231759728612
 42
1.0
 10
209.2924807195929
 20
136.7190625860043
 42
1.0
 10
209.4194122826121
 20
136.8088517715927
 42
1.0
 10
209.5246153151359
 20
136.9037012931755
 42
1.0
 10
209.5728105323944
 20
137.034119654879
 42
1.0
 10
209.5894383543238
 20
137.0791152668523
 42
1.0
 10
209.5987856953953
 20
137.1298404284061
 42
1.0
 10
209.5907366701244
 20
137.1885049849925
 42
1.0
 10
209.5859274212788
 20
137.2235567386574
 42
1.0
 10
209.5743070280239
 20
137.2622742729152
 42
1.0
 10
209.5539010534507
 20
137.3022223941067
 42
1.0
 10
209.5335013236279
 20
137.3421582901508
 42
1.0
 10
209.503631307845
 20
137.3840565076005
 42
1.0
 10
209.4677765086673
 20
137.4234218856809
 42
1.0
 10
209.4093001231161
 20
137.4876237520641
 42
1.0
 10
209.3348248508592
 20
137.546645066586
 42
1.0
 10
209.2573930555829
 20
137.5984478455912
 42
1.0
 10
209.1625201556072
 20
137.6619189281548
 42
1.0
 10
209.0610066202607
 20
137.7167798837979
 42
1.0
 10
208.9593748446176
 20
137.7660061395694
 42
1.0
 10
208.6944066306277
 20
137.8943458540988
 42
1.0
 10
208.424807230433
 20
137.9882970170175
 42
1.0
 10
208.187602201226
 20
138.0643255352362
 42
1.0
 10
207.8671481195735
 20
138.1670368861154
 42
1.0
 10
207.5894504231677
 20
138.239740229346
 42
1.0
 10
207.3643857162536
 20
138.2961085684114
 42
1.0
 72
     4
 94
        3
 73
     1
 74
     0
 95
        8
 96
        4
 40
0.0
 40
0.0
 40
0.0
 40
0.0
 40
0.0018780063518918
 40
0.0018780063518918
 40
0.0018780063518918
 40
0.0018780063518918
 10
207.3643857162536
 20
138.2961085684114
 42
1.0
 10
206.7844283021814
 20
138.441361178686
 42
1.0
 10
206.1866087262935
 20
138.5620551805684
 42
1.0
 10
205.5844487414637
 20
138.6704821496814
 42
1.0
 97
        0
 75
     0
 76
     1
 52
0.0
 41
1.0
 77
     0
 78
     1
 53
45.0
 43
0.0
 44
0.0
 45
-2.245064030267288
 46
2.245064030267288
 79
     0
 98
        1
 10
0.0
 20
0.0
  0
HATCH
  5
40A
330
1F
100
AcDbEntity
  8
0
  6
Continuous
 62
     7
370
     0
100
AcDbHatch
 10
0.0
 20
0.0
 30
0.0
210
0.0
220
0.0
230
1.0
  2
ANSI31
 70
     0
 71
     0
 91
        1
 92
        0
 93
        8
 72
     4
 94
        3
 73
     1
 74
     0
 95
        8
 96
        4
 40
0.0
 40
0.0
 40
0.0
 40
0.0
 40
0.0018551083615443
 40
0.0018551083615443
 40
0.0018551083615443
 40
0.0018551083615443
 10
205.5844487414637
 20
138.6704821496814
 42
1.0
 10
206.1844485437872
 20
138.5624441503568
 42
1.0
 10
206.7812212741594
 20
138.4421643914393
 42
1.0
 10
207.3643857162536
 20
138.2961085684114
 42
1.0
 72
     4
 94
        3
 73
     1
 74
     0
 95
       44
 96
       40
 40
0.0
 40
0.0
 40
0.0
 40
0.0
 40
0.0004464542334459
 40
0.0004464542334459
 40
0.0004464542334459
 40
0.0009020351861053
 40
0.0009020351861053
 40
0.0009020351861053
 40
0.0013546734495108
 40
0.0013546734495108
 40
0.0013546734495108
 40
0.001924080423875
 40
0.001924080423875
 40
0.001924080423875
 40
0.0026515690649066
 40
0.0026515690649066
 40
0.0026515690649066
 40
0.0030360922630206
 40
0.0030360922630206
 40
0.0030360922630206
 40
0.0032374511118088
 40
0.0032374511118088
 40
0.0032374511118088
 40
0.0033977152532491
 40
0.0033977152532491
 40
0.0033977152532491
 40
0.0035564971498979
 40
0.0035564971498979
 40
0.0035564971498979
 40
0.0037591425153159
 40
0.0037591425153159
 40
0.0037591425153159
 40
0.0043527200160133
 40
0.0043527200160133
 40
0.0043527200160133
 40
0.0051746592938876
 40
0.0051746592938876
 40
0.0051746592938876
 40
0.0062883382800699
 40
0.0062883382800699
 40
0.0062883382800699
 40
0.0062883382800699
 10
207.3643857162536
 20
138.2961085684114
 42
1.0
 10
207.47801409812
 20
138.2676498942624
 42
1.0
 10
207.6068537044243
 20
138.2341921221033
 42
1.0
 10
207.7422798378583
 20
138.1966931295494
 42
1.0
 10
207.8801222769953
 20
138.1585250709352
 42
1.0
 10
208.028664228667
 20
138.1150024112089
 42
1.0
 10
208.1729163374259
 20
138.0690197234477
 42
1.0
 10
208.3165782792237
 20
138.0232251609301
 42
1.0
 10
208.4598744549772
 20
137.9737440422655
 42
1.0
 10
208.5919265267285
 20
137.9232056159104
 42
1.0
 10
208.7577941216947
 20
137.8597254514439
 42
1.0
 10
208.9109451506814
 20
137.7928227821544
 42
1.0
 10
209.0434617931129
 20
137.7237961615166
 42
1.0
 10
209.2123953321163
 20
137.6358003362691
 42
1.0
 10
209.3550480950992
 20
137.5428092690669
 42
1.0
 10
209.4579852272714
 20
137.4339695156866
 42
1.0
 10
209.5127459076763
 20
137.3760687482527
 42
1.0
 10
209.5578702157347
 20
137.3125185591918
 42
1.0
 10
209.5802605649642
 20
137.236873728696
 42
1.0
 10
209.5920245723991
 20
137.1971295362655
 42
1.0
 10
209.5973156983697
 20
137.15295850276
 42
1.0
 10
209.5907523191023
 20
137.1049908976336
 42
1.0
 10
209.5855352345627
 20
137.0668625127104
 42
1.0
 10
209.5721567474687
 20
137.0252797029862
 42
1.0
 10
209.5504035387746
 20
136.9844570115797
 42
1.0
 10
209.5287884618677
 20
136.9438935422217
 42
1.0
 10
209.4986096988889
 20
136.9032980294274
 42
1.0
 10
209.4641082700027
 20
136.8659614544728
 42
1.0
 10
209.4199247607509
 20
136.8181471766821
 42
1.0
 10
209.3681740302228
 20
136.7743585215337
 42
1.0
 10
209.314042432955
 20
136.734601408796
 42
1.0
 10
209.1561708254794
 20
136.6186521367761
 42
1.0
 10
208.9758931638132
 20
136.5305665351073
 42
1.0
 10
208.8004993825485
 20
136.4548266378404
 42
1.0
 10
208.5595397694378
 20
136.3507735966727
 42
1.0
 10
208.3192474458776
 20
136.2696232340509
 42
1.0
 10
208.1055667868982
 20
136.2031556265366
 42
1.0
 10
207.817273754234
 20
136.1134790585415
 42
1.0
 10
207.5663035118469
 20
136.0478442064122
 42
1.0
 10
207.3643857162536
 20
135.9972731021221
 42
1.0
 72
     4
 94
        3
 73
     1
 74
     0
 95
        8
 96
        4
 40
0.0
 40
0.0
 40
0.0
 40
0.0
 40
0.0018801212049338
 40
0.0018801212049338
 40
0.0018801212049338
 40
0.0018801212049338
 10
207.3643857162536
 20
135.9972731021221
 42
1.0
 10
206.7825130887044
 20
135.8515408191164
 42
1.0
 10
206.1855454831682
 20
135.731135038802
 42
1.0
 10
205.5844487414637
 20
135.6228995208521
 42
1.0
 72
     4
 94
        3
 73
     1
 74
     0
 95
        8
 96
        4
 40
0.0
 40
0.0
 40
0.0
 40
0.0
 40
0.000534096420018
 40
0.000534096420018
 40
0.000534096420018
 40
0.000534096420018
 10
205.5844487414637
 20
135.6228995208521
 42
1.0
 10
205.4132983314786
 20
135.5920815975682
 42
1.0
 10
205.2416966986977
 20
135.5623321306805
 42
1.0
 10
205.0697428591108
 20
135.5335014212326
 42
1.0
 72
     4
 94
        3
 73
     1
 74
     0
 95
       20
 96
       16
 40
0.0
 40
0.0
 40
0.0
 40
0.0
 40
0.0002325422906171
 40
0.0002325422906171
 40
0.0002325422906171
 40
0.0004046941841952
 40
0.0004046941841952
 40
0.0004046941841952
 40
0.0005193695501348
 40
0.0005193695501348
 40
0.0005193695501348
 40
0.0006062852977381
 40
0.0006062852977381
 40
0.0006062852977381
 40
0.0006293731999253
 40
0.0006293731999253
 40
0.0006293731999253
 40
0.0006293731999253
 10
205.0697428591108
 20
135.5335014212326
 42
1.0
 10
205.0697428591108
 20
135.5335014212326
 42
1.0
 10
205.0828049063273
 20
135.5356860407554
 42
1.0
 10
205.1084133375288
 20
135.5400017335766
 42
1.0
 10
205.1274468463239
 20
135.5432093793953
 42
1.0
 10
205.1539320231601
 20
135.5476824723954
 42
1.0
 10
205.1884905334281
 20
135.5535692596376
 42
1.0
 10
205.2115953222886
 20
135.5575049899468
 42
1.0
 10
205.2388342706791
 20
135.5621629236351
 42
1.0
 10
205.2698283915691
 20
135.5675012267339
 42
1.0
 10
205.293343226391
 20
135.5715513275915
 42
1.0
 10
205.3195876358018
 20
135.576091748048
 42
1.0
 10
205.3471624768031
 20
135.580892072465
 42
1.0
 10
205.3545849635015
 20
135.5821842048161
 42
1.0
 10
205.3621299721197
 20
135.5834996752305
 42
1.0
 10
205.3697428591108
 20
135.5848291284109
 42
1.0
 72
     4
 94
        3
 73
     1
 74
     0
 95
       35
 96
       31
 40
0.0
 40
0.0
 40
0.0
 40
0.0
 40
0.0030321927230983
 40
0.0030321927230983
 40
0.0030321927230983
 40
0.0041983103542984
 40
0.0041983103542984
 40
0.0041983103542984
 40
0.0045935796811353
 40
0.0045935796811353
 40
0.0045935796811353
 40
0.004835045794669
 40
0.004835045794669
 40
0.004835045794669
 40
0.0050641979937711
 40
0.0050641979937711
 40
0.0050641979937711
 40
0.0052907784757562
 40
0.0052907784757562
 40
0.0052907784757562
 40
0.0055575705370465
 40
0.0055575705370465
 40
0.0055575705370465
 40
0.0061329493327041
 40
0.0061329493327041
 40
0.0061329493327041
 40
0.0077473947751859
 40
0.0077473947751859
 40
0.0077473947751859
 40
0.0098343963507187
 40
0.0098343963507187
 40
0.0098343963507187
 40
0.0098343963507187
 10
205.3697428591108
 20
135.5848291284109
 42
1.0
 10
206.3479308861286
 20
135.7556519956242
 42
1.0
 10
207.3285833300444
 20
135.947691695459
 42
1.0
 10
208.2425617827747
 20
136.2468568118642
 42
1.0
 10
208.594039547582
 20
136.3619031634585
 42
1.0
 10
208.9452111289763
 20
136.4932619264186
 42
1.0
 10
209.2323064997097
 20
136.6784564060341
 42
1.0
 10
209.3304318206971
 20
136.7417533784338
 42
1.0
 10
209.4217219290125
 20
136.8131653845136
 42
1.0
 10
209.4893355204178
 20
136.8947460585493
 42
1.0
 10
209.5307409847133
 20
136.9447047372081
 42
1.0
 10
209.5635047027204
 20
136.9996832769202
 42
1.0
 10
209.5803613324244
 20
137.0568490258014
 42
1.0
 10
209.5963008850648
 20
137.1109046988229
 42
1.0
 10
209.5977481128905
 20
137.16842247733
 42
1.0
 10
209.5840105174939
 20
137.2231616395158
 42
1.0
 10
209.5703708677241
 20
137.2775105251364
 42
1.0
 10
209.5419817668975
 20
137.3305854559901
 42
1.0
 10
209.504850289251
 20
137.3791595219503
 42
1.0
 10
209.461003834183
 20
137.4365178802915
 42
1.0
 10
209.404523109906
 20
137.4892123001859
 42
1.0
 10
209.3426017784813
 20
137.5372339826733
 42
1.0
 10
209.2096927907232
 20
137.6403085300546
 42
1.0
 10
209.0500194257646
 20
137.7254749482622
 42
1.0
 10
208.8853949080995
 20
137.8008265997621
 42
1.0
 10
208.4252526441647
 20
138.0114421265629
 42
1.0
 10
207.9117680795138
 20
138.1578873932564
 42
1.0
 10
207.3987516800526
 20
138.2874650832136
 42
1.0
 10
206.7339612622355
 20
138.4553778570293
 42
1.0
 10
206.0533066220094
 20
138.5891804800279
 42
1.0
 10
205.3697428591108
 20
138.7085525421226
 42
1.0
 72
     4
 94
        3
 73
     1
 74
     0
 95
       23
 96
       19
 40
0.0
 40
0.0
 40
0.0
 40
0.0
 40
0.00007756198584
 40
0.00007756198584
 40
0.00007756198584
 40
0.0001551886010059
 40
0.0001551886010059
 40
0.0001551886010059
 40
0.0002321685031484
 40
0.0002321685031484
 40
0.0002321685031484
 40
0.0003403845111171
 40
0.0003403845111171
 40
0.0003403845111171
 40
0.0004830304538107
 40
0.0004830304538107
 40
0.0004830304538107
 40
0.0005259136394111
 40
0.0005259136394111
 40
0.0005259136394111
 40
0.0005259136394111
 10
205.3697428591108
 20
138.7085525421226
 42
1.0
 10
205.3445385157944
 20
138.7129540253473
 42
1.0
 10
205.3183459882989
 20
138.7175035075867
 42
1.0
 10
205.2933445699001
 20
138.7218235728565
 42
1.0
 10
205.2683236521655
 20
138.7261470074712
 42
1.0
 10
205.2438564618722
 20
138.7303514358391
 42
1.0
 10
205.2218746546087
 20
138.7341128242905
 42
1.0
 10
205.2000229089117
 20
138.7378519574254
 42
1.0
 10
205.1800752344552
 20
138.7412484459523
 42
1.0
 10
205.1629084238674
 20
138.7441626375653
 42
1.0
 10
205.138885622597
 20
138.7482406837245
 42
1.0
 10
205.1196111992723
 20
138.7514936882875
 42
1.0
 10
205.1053122964456
 20
138.7539024361229
 42
1.0
 10
205.0865086693309
 20
138.7570700355297
 42
1.0
 10
205.0755878593139
 20
138.7589000459853
 42
1.0
 10
205.0715653819453
 20
138.7595746385244
 42
1.0
 10
205.0703421945914
 20
138.7597797740633
 42
1.0
 10
205.0697428591108
 20
138.759880249301
 42
1.0
 10
205.0697428591108
 20
138.759880249301
 42
1.0
 72
     4
 94
        3
 73
     1
 74
     0
 95
        8
 96
        4
 40
0.0
 40
0.0
 40
0.0
 40
0.0
 40
0.0005288676278282
 40
0.0005288676278282
 40
0.0005288676278282
 40
0.0005288676278282
 10
205.0697428591108
 20
138.759880249301
 42
1.0
 10
205.2416365291555
 20
138.7310596282034
 42
1.0
 10
205.4132355966652
 20
138.7013113692086
 42
1.0
 10
205.5844487414637
 20
138.6704821496814
 42
1.0
 97
        0
 75
     0
 76
     1
 52
0.0
 41
1.0
 77
     0
 78
     1
 53
45.0
 43
0.0
 44
0.0
 45
-2.245064030267288
 46
2.245064030267288
 79
     0
 98
        1
 10
0.0
 20
0.0
  0
HATCH
  5
40B
330
1F
100
AcDbEntity
  8
0
  6
Continuous
 62
     7
370
     0
100
AcDbHatch
 10
0.0
 20
0.0
 30
0.0
210
0.0
220
0.0
230
1.0
  2
ANSI32
 70
     0
 71
     0
 91
        1
 92
        0
 93
        3
 72
     4
 94
        3
 73
     1
 74
     0
 95
        8
 96
        4
 40
0.0
 40
0.0
 40
0.0
 40
0.0
 40
0.0024901608197849
 40
0.0024901608197849
 40
0.0024901608197849
 40
0.0024901608197849
 10
200.5197428591107
 20
134.9315776583374
 42
1.0
 10
201.3387520584124
 20
135.0188258505309
 42
1.0
 10
202.1560147439741
 20
135.1142559980708
 42
1.0
 10
202.9697428591108
 20
135.2218690921448
 42
1.0
 72
     4
 94
        3
 73
     1
 74
     0
 95
        8
 96
        4
 40
0.0
 40
0.0
 40
0.0
 40
0.0
 40
0.0021364294878346
 40
0.0021364294878346
 40
0.0021364294878346
 40
0.0021364294878346
 10
202.9697428591108
 20
135.2218690921448
 42
1.0
 10
202.2720104641703
 20
135.1295960829437
 42
1.0
 10
201.5716044334001
 20
135.0463180676078
 42
1.0
 10
200.8697428591108
 20
134.9693952889185
 42
1.0
 72
     4
 94
        3
 73
     1
 74
     0
 95
        8
 96
        4
 40
0.0
 40
0.0
 40
0.0
 40
0.0
 40
0.0003594511000146
 40
0.0003594511000146
 40
0.0003594511000146
 40
0.0003594511000146
 10
200.8697428591108
 20
134.9693952889185
 42
1.0
 10
200.7531459876828
 20
134.956616479442
 42
1.0
 10
200.6364775538968
 20
134.9440132831082
 42
1.0
 10
200.5197428591107
 20
134.9315776583374
 42
1.0
 97
        0
 75
     0
 76
     1
 52
0.0
 41
1.0
 77
     0
 78
     2
 53
45.0
 43
0.0
 44
0.0
 45
-6.735192090801865
 46
6.735192090801866
 79
     0
 53
45.0
 43
4.49013
 44
0.0
 45
-6.735192090801865
 46
6.735192090801866
 79
     0
 98
        1
 10
0.0
 20
0.0
  0
HATCH
  5
40C
330
1F
100
AcDbEntity
  8
0
  6
Continuous
 62
     7
370
     0
100
AcDbHatch
 10
0.0
 20
0.0
 30
0.0
210
0.0
220
0.0
230
1.0
  2
ANSI32
 70
     0
 71
     0
 91
        1
 92
        0
 93
        3
 72
     4
 94
        3
 73
     1
 74
     0
 95
        8
 96
        4
 40
0.0
 40
0.0
 40
0.0
 40
0.0
 40
0.0021254544895059
 40
0.0021254544895059
 40
0.0021254544895059
 40
0.0021254544895059
 10
200.8697428591108
 20
139.323986381615
 42
1.0
 10
201.5712137245362
 20
139.2471064239214
 42
1.0
 10
202.2715717033951
 20
139.1638436123818
 42
1.0
 10
202.9697428591108
 20
139.0715125783887
 42
1.0
 72
     4
 94
        3
 73
     1
 74
     0
 95
        8
 96
        4
 40
0.0
 40
0.0
 40
0.0
 40
0.0
 40
0.0024783972325389
 40
0.0024783972325389
 40
0.0024783972325389
 40
0.0024783972325389
 10
202.9697428591108
 20
139.0715125783887
 42
1.0
 10
202.1554620544412
 20
139.1791987639899
 42
1.0
 10
201.3382687058954
 20
139.27460731104
 42
1.0
 10
200.5197428591107
 20
139.3618040121962
 42
1.0
 72
     4
 94
        3
 73
     1
 74
     0
 95
        8
 96
        4
 40
0.0
 40
0.0
 40
0.0
 40
0.0
 40
0.000354338305275
 40
0.000354338305275
 40
0.000354338305275
 40
0.000354338305275
 10
200.5197428591107
 20
139.3618040121962
 42
1.0
 10
200.6364521590045
 20
139.3493710927166
 42
1.0
 10
200.7531202274596
 20
139.3367680143661
 42
1.0
 10
200.8697428591107
 20
139.323986381615
 42
1.0
 97
        0
 75
     0
 76
     1
 52
0.0
 41
1.0
 77
     0
 78
     2
 53
45.0
 43
0.0
 44
0.0
 45
-6.735192090801865
 46
6.735192090801866
 79
     0
 53
45.0
 43
4.49013
 44
0.0
 45
-6.735192090801865
 46
6.735192090801866
 79
     0
 98
        1
 10
0.0
 20
0.0
  0
HATCH
  5
40D
330
1F
100
AcDbEntity
  8
0
  6
Continuous
 62
     7
370
     0
100
AcDbHatch
 10
0.0
 20
0.0
 30
0.0
210
0.0
220
0.0
230
1.0
  2
ANSI34
 70
     0
 71
     0
 91
        1
 92
        0
 93
       15
 72
     4
 94
        3
 73
     1
 74
     0
 95
        8
 96
        4
 40
0.0
 40
0.0
 40
0.0
 40
0.0
 40
0.0008248436016951
 40
0.0008248436016951
 40
0.0008248436016951
 40
0.0008248436016951
 10
200.1697428591108
 20
134.8948073885688
 42
1.0
 10
200.2729870847079
 20
134.9055046151594
 42
1.0
 10
200.3787887413081
 20
134.9165967812629
 42
1.0
 10
200.4869637623539
 20
134.9280903197186
 42
1.0
 72
     4
 94
        3
 73
     1
 74
     0
 95
       11
 96
        7
 40
0.0
 40
0.0
 40
0.0
 40
0.0
 40
0.0001342824902454
 40
0.0001342824902454
 40
0.0001342824902454
 40
0.0001815585821741
 40
0.0001815585821741
 40
0.0001815585821741
 40
0.0001815585821741
 10
200.486963762354
 20
134.9280903197187
 42
1.0
 10
200.5045743871786
 20
134.9299614392405
 42
1.0
 10
200.5136409085256
 20
134.9309277155021
 42
1.0
 10
200.5176161274017
 20
134.9313511191629
 42
1.0
 10
200.5190285234256
 20
134.9315015545642
 42
1.0
 10
200.5197428591108
 20
134.9315776583374
 42
1.0
 10
200.5197428591108
 20
134.9315776583374
 42
1.0
 72
     4
 94
        3
 73
     1
 74
     0
 95
       23
 96
       19
 40
0.0
 40
0.0
 40
0.0
 40
0.0
 40
0.0001223264936442
 40
0.0001223264936442
 40
0.0001223264936442
 40
0.0001567205126384
 40
0.0001567205126384
 40
0.0001567205126384
 40
0.0002015964301347
 40
0.0002015964301347
 40
0.0002015964301347
 40
0.0002189660767406
 40
0.0002189660767406
 40
0.0002189660767406
 40
0.0002365815348425
 40
0.0002365815348425
 40
0.0002365815348425
 40
0.0002495914581243
 40
0.0002495914581243
 40
0.0002495914581243
 40
0.0002495914581243
 10
200.5197428591107
 20
134.9315776583374
 42
1.0
 10
200.5197428591107
 20
134.9315776583374
 42
1.0
 10
200.5153387079882
 20
134.9311079388672
 42
1.0
 10
200.5031593638019
 20
134.9298122102041
 42
1.0
 10
200.4996947962853
 20
134.929443623902
 42
1.0
 10
200.4955400441355
 20
134.9290017467254
 42
1.0
 10
200.4904257448359
 20
134.9284582044995
 42
1.0
 10
200.4838181760362
 20
134.9277559591982
 42
1.0
 10
200.4754532646534
 20
134.9268673788278
 42
1.0
 10
200.4643828789643
 20
134.9256932791688
 42
1.0
 10
200.460032690707
 20
134.9252319082019
 42
1.0
 10
200.4551815908949
 20
134.9247176538821
 42
1.0
 10
200.4499326773586
 20
134.9241616086045
 42
1.0
 10
200.4446405312434
 20
134.9236009834703
 42
1.0
 10
200.4387845905008
 20
134.9229810119616
 42
1.0
 10
200.4329013911571
 20
134.9223586201876
 42
1.0
 10
200.428522095107
 20
134.9218953284176
 42
1.0
 10
200.4240433705168
 20
134.9214217710488
 42
1.0
 10
200.4197428591108
 20
134.9209672912087
 42
1.0
 72
     4
 94
        3
 73
     1
 74
     0
 95
        8
 96
        4
 40
0.0
 40
0.0
 40
0.0
 40
0.0
 40
0.0001541140521749
 40
0.0001541140521749
 40
0.0001541140521749
 40
0.0001541140521749
 10
200.4197428591108
 20
134.9209672912087
 42
1.0
 10
200.3697552128019
 20
134.9156845758855
 42
1.0
 10
200.3197550844517
 20
134.9104321169637
 42
1.0
 10
200.2697428591107
 20
134.9052093393826
 42
1.0
 72
     4
 94
        3
 73
     1
 74
     0
 95
       23
 96
       19
 40
0.0
 40
0.0
 40
0.0
 40
0.0
 40
0.0000151562921925
 40
0.0000151562921925
 40
0.0000151562921925
 40
0.0000302873056482
 40
0.0000302873056482
 40
0.0000302873056482
 40
0.000051414747928
 40
0.000051414747928
 40
0.000051414747928
 40
0.0000867612790601
 40
0.0000867612790601
 40
0.0000867612790601
 40
0.0001584678852978
 40
0.0001584678852978
 40
0.0001584678852978
 40
0.0002508184366328
 40
0.0002508184366328
 40
0.0002508184366328
 40
0.0002508184366328
 10
200.2697428591107
 20
134.9052093393826
 42
1.0
 10
200.2648244244206
 20
134.9046957071605
 42
1.0
 10
200.2596620250703
 20
134.9041569144664
 42
1.0
 10
200.2546802644907
 20
134.9036372874129
 42
1.0
 10
200.2497009048234
 20
134.9031179107888
 42
1.0
 10
200.2447882493482
 20
134.9026058101689
 42
1.0
 10
200.2402621972742
 20
134.902134252797
 42
1.0
 10
200.2339615100618
 20
134.9014778008926
 42
1.0
 10
200.2282235253629
 20
134.9008804668229
 42
1.0
 10
200.2231961791968
 20
134.9003573848904
 42
1.0
 10
200.214810840795
 20
134.8994849128406
 42
1.0
 10
200.2080445568322
 20
134.8987817104072
 42
1.0
 10
200.2024332552371
 20
134.8981988228776
 42
1.0
 10
200.1910992143096
 20
134.8970214719538
 42
1.0
 10
200.1838944472799
 20
134.8962743610537
 42
1.0
 10
200.1789074588677
 20
134.8957572827055
 42
1.0
 10
200.1724743798331
 20
134.8950902657393
 42
1.0
 10
200.1697428591101
 20
134.8948073885688
 42
1.0
 10
200.1697428591101
 20
134.8948073885688
 42
1.0
 72
     4
 94
        3
 73
     1
 74
     0
 95
        8
 96
        4
 40
0.0
 40
0.0
 40
0.0
 40
0.0
 40
0.0003559328951038
 40
0.0003559328951038
 40
0.0003559328951038
 40
0.0003559328951038
 10
200.1697428591108
 20
134.8948073885688
 42
1.0
 10
200.2864564516516
 20
134.90690018832
 42
1.0
 10
200.4031243846585
 20
134.919154414397
 42
1.0
 10
200.5197428591107
 20
134.9315776583374
 42
1.0
 72
     4
 94
        3
 73
     1
 74
     0
 95
        8
 96
        4
 40
0.0
 40
0.0
 40
0.0
 40
0.0
 40
0.0003594511000146
 40
0.0003594511000146
 40
0.0003594511000146
 40
0.0003594511000146
 10
200.5197428591107
 20
134.9315776583374
 42
1.0
 10
200.6364775538968
 20
134.9440132831082
 42
1.0
 10
200.7531459876828
 20
134.956616479442
 42
1.0
 10
200.8697428591108
 20
134.9693952889185
 42
1.0
 72
     4
 94
        3
 73
     1
 74
     0
 95
        8
 96
        4
 40
0.0
 40
0.0
 40
0.0
 40
0.0
 40
0.0003575322399533
 40
0.0003575322399533
 40
0.0003575322399533
 40
0.0003575322399533
 10
200.8697428591108
 20
134.9693952889185
 42
1.0
 10
200.9864697853718
 20
134.9821883521732
 42
1.0
 10
201.1031381652312
 20
134.9951588554794
 42
1.0
 10
201.2197428591108
 20
135.0083158480073
 42
1.0
 72
     4
 94
        3
 73
     1
 74
     0
 95
        8
 96
        4
 40
0.0
 40
0.0
 40
0.0
 40
0.0
 40
0.0014111574479193
 40
0.0014111574479193
 40
0.0014111574479193
 40
0.0014111574479193
 10
201.2197428591108
 20
135.0083158480073
 42
1.0
 10
201.6865106801358
 20
135.0609832023748
 42
1.0
 10
202.1533046584899
 20
135.1167298264251
 42
1.0
 10
202.6197428591108
 20
135.1763618905044
 42
1.0
 72
     4
 94
        3
 73
     1
 74
     0
 95
        8
 96
        4
 40
0.0
 40
0.0
 40
0.0
 40
0.0
 40
0.0007260900592825
 40
0.0007260900592825
 40
0.0007260900592825
 40
0.0007260900592825
 10
202.6197428591107
 20
135.1763618905044
 42
1.0
 10
202.8535245522227
 20
135.2062498475492
 42
1.0
 10
203.0868898834088
 20
135.2370774776192
 42
1.0
 10
203.3197428591108
 20
135.2689732006185
 42
1.0
 72
     4
 94
        3
 73
     1
 74
     0
 95
        8
 96
        4
 40
0.0
 40
0.0
 40
0.0
 40
0.0
 40
0.0009624963505732
 40
0.0009624963505732
 40
0.0009624963505732
 40
0.0009624963505732
 10
203.3197428591108
 20
135.2689732006185
 42
1.0
 10
203.2000899710108
 20
135.2525833934305
 42
1.0
 10
203.0833353656784
 20
135.2368913592485
 42
1.0
 10
202.9697428591108
 20
135.2218690921448
 42
1.0
 72
     4
 94
        3
 73
     1
 74
     0
 95
        8
 96
        4
 40
0.0
 40
0.0
 40
0.0
 40
0.0
 40
0.0007392562016746
 40
0.0007392562016746
 40
0.0007392562016746
 40
0.0007392562016746
 10
202.9697428591108
 20
135.2218690921448
 42
1.0
 10
202.7360282139397
 20
135.1909610337536
 42
1.0
 10
202.5027102620401
 20
135.1611694160227
 42
1.0
 10
202.2697428591107
 20
135.1323433630591
 42
1.0
 72
     4
 94
        3
 73
     1
 74
     0
 95
        8
 96
        4
 40
0.0
 40
0.0
 40
0.0
 40
0.0
 40
0.0014103871703451
 40
0.0014103871703451
 40
0.0014103871703451
 40
0.0014103871703451
 10
202.2697428591107
 20
135.1323433630591
 42
1.0
 10
201.8032811040227
 20
135.0746260554506
 42
1.0
 10
201.3364856152372
 20
135.0205494638293
 42
1.0
 10
200.8697428591108
 20
134.9693952889185
 42
1.0
 72
     4
 94
        3
 73
     1
 74
     0
 95
        8
 96
        4
 40
0.0
 40
0.0
 40
0.0
 40
0.0
 40
0.001490774881671
 40
0.001490774881671
 40
0.001490774881671
 40
0.001490774881671
 10
200.8697428591108
 20
134.9693952889185
 42
1.0
 10
200.6674221742794
 20
134.9472213021473
 42
1.0
 10
200.4726078211219
 20
134.9264213045291
 42
1.0
 10
200.2864095257775
 20
134.906950986176
 42
1.0
 72
     4
 94
        3
 73
     1
 74
     0
 95
        8
 96
        4
 40
0.0
 40
0.0
 40
0.0
 40
0.0
 40
0.0002872159623646
 40
0.0002872159623646
 40
0.0002872159623646
 40
0.0002872159623646
 10
200.2864095257775
 20
134.906950986176
 42
1.0
 10
200.2478203008588
 20
134.9029158015747
 42
1.0
 10
200.2089284381976
 20
134.8988674414788
 42
1.0
 10
200.1697428591108
 20
134.8948073885688
 42
1.0
 97
        0
 75
     0
 76
     1
 52
0.0
 41
1.0
 77
     0
 78
     4
 53
45.0
 43
0.0
 44
0.0
 45
-13.47038418160373
 46
13.47038418160373
 79
     0
 53
45.0
 43
4.49013
 44
0.0
 45
-13.47038418160373
 46
13.47038418160373
 79
     0
 53
45.0
 43
8.98026
 44
0.0
 45
-13.47038418160373
 46
13.47038418160373
 79
     0
 53
45.0
 43
13.4704
 44
0.0
 45
-13.47038418160373
 46
13.47038418160373
 79
     0
 98
        1
 10
0.0
 20
0.0
  0
HATCH
  5
40E
330
1F
100
AcDbEntity
  8
0
  6
Continuous
 62
     7
370
     0
100
AcDbHatch
 10
0.0
 20
0.0
 30
0.0
210
0.0
220
0.0
230
1.0
  2
ANSI34
 70
     0
 71
     0
 91
        1
 92
        0
 93
       15
 72
     4
 94
        3
 73
     1
 74
     0
 95
        8
 96
        4
 40
0.0
 40
0.0
 40
0.0
 40
0.0
 40
0.0005070181869272
 40
0.0005070181869272
 40
0.0005070181869272
 40
0.0005070181869272
 10
200.4869637623541
 20
139.3652913508148
 42
1.0
 10
200.3808293105111
 20
139.376568079878
 42
1.0
 10
200.2750833177296
 20
139.3876598627951
 42
1.0
 10
200.1697428591108
 20
139.3985742819647
 42
1.0
 72
     4
 94
        3
 73
     1
 74
     0
 95
        8
 96
        4
 40
0.0
 40
0.0
 40
0.0
 40
0.0
 40
0.0002232370124739
 40
0.0002232370124739
 40
0.0002232370124739
 40
0.0002232370124739
 10
200.1697428591108
 20
139.3985742819647
 42
1.0
 10
200.2087348213236
 20
139.3945342898722
 42
1.0
 10
200.2476244134592
 20
139.390486352444
 42
1.0
 10
200.2864095257774
 20
139.3864306843575
 42
1.0
 72
     4
 94
        3
 73
     1
 74
     0
 95
        8
 96
        4
 40
0.0
 40
0.0
 40
0.0
 40
0.0
 40
0.0009198099041428
 40
0.0009198099041428
 40
0.0009198099041428
 40
0.0009198099041428
 10
200.2864095257774
 20
139.3864306843575
 42
1.0
 10
200.4795317801416
 20
139.3662363438745
 42
1.0
 10
200.6740096125313
 20
139.3454383968845
 42
1.0
 10
200.8697428591108
 20
139.323986381615
 42
1.0
 72
     4
 94
        3
 73
     1
 74
     0
 95
        8
 96
        4
 40
0.0
 40
0.0
 40
0.0
 40
0.0
 40
0.0014749876778985
 40
0.0014749876778985
 40
0.0014749876778985
 40
0.0014749876778985
 10
200.8697428591108
 20
139.323986381615
 42
1.0
 10
201.3381609143101
 20
139.2726485969092
 42
1.0
 10
201.8050334016411
 20
139.2185387958055
 42
1.0
 10
202.2697428591107
 20
139.1610383074744
 42
1.0
 72
     4
 94
        3
 73
     1
 74
     0
 95
        8
 96
        4
 40
0.0
 40
0.0
 40
0.0
 40
0.0
 40
0.0007981970615184
 40
0.0007981970615184
 40
0.0007981970615184
 40
0.0007981970615184
 10
202.2697428591107
 20
139.1610383074744
 42
1.0
 10
202.5040721237918
 20
139.1320437455328
 42
1.0
 10
202.7374596662766
 20
139.1022313315168
 42
1.0
 10
202.9697428591108
 20
139.0715125783887
 42
1.0
 72
     4
 94
        3
 73
     1
 74
     0
 95
        8
 96
        4
 40
0.0
 40
0.0
 40
0.0
 40
0.0
 40
0.0005979622574313
 40
0.0005979622574313
 40
0.0005979622574313
 40
0.0005979622574313
 10
202.9697428591108
 20
139.0715125783887
 42
1.0
 10
203.0857650104671
 20
139.0561689980744
 42
1.0
 10
203.2024409770499
 20
139.0404762411179
 42
1.0
 10
203.3197428591106
 20
139.024408469915
 42
1.0
 72
     4
 94
        3
 73
     1
 74
     0
 95
        8
 96
        4
 40
0.0
 40
0.0
 40
0.0
 40
0.0
 40
0.0007133752473092
 40
0.0007133752473092
 40
0.0007133752473092
 40
0.0007133752473092
 10
203.3197428591108
 20
139.024408469915
 42
1.0
 10
203.0867458400602
 20
139.0563239236768
 42
1.0
 10
202.8533856341102
 20
139.0871495830515
 42
1.0
 10
202.6197428591108
 20
139.1170197800291
 42
1.0
 72
     4
 94
        3
 73
     1
 74
     0
 95
        8
 96
        4
 40
0.0
 40
0.0
 40
0.0
 40
0.0
 40
0.0014761164499148
 40
0.0014761164499148
 40
0.0014761164499148
 40
0.0014761164499148
 10
202.6197428591108
 20
139.1170197800291
 42
1.0
 10
202.1550856405504
 20
139.1764241534171
 42
1.0
 10
201.688201015959
 20
139.2322077405383
 42
1.0
 10
201.2197428591108
 20
139.2850658225262
 42
1.0
 72
     4
 94
        3
 73
     1
 74
     0
 95
        8
 96
        4
 40
0.0
 40
0.0
 40
0.0
 40
0.0
 40
0.0003541958699045
 40
0.0003541958699045
 40
0.0003541958699045
 40
0.0003541958699045
 10
201.2197428591108
 20
139.2850658225262
 42
1.0
 10
201.1031193788077
 20
139.2982249348044
 42
1.0
 10
200.98645130125
 20
139.3111953441872
 42
1.0
 10
200.8697428591108
 20
139.323986381615
 42
1.0
 72
     4
 94
        3
 73
     1
 74
     0
 95
        8
 96
        4
 40
0.0
 40
0.0
 40
0.0
 40
0.0
 40
0.000354338305275
 40
0.000354338305275
 40
0.000354338305275
 40
0.000354338305275
 10
200.8697428591107
 20
139.323986381615
 42
1.0
 10
200.7531202274596
 20
139.3367680143661
 42
1.0
 10
200.6364521590045
 20
139.3493710927166
 42
1.0
 10
200.5197428591107
 20
139.3618040121962
 42
1.0
 72
     4
 94
        3
 73
     1
 74
     0
 95
        8
 96
        4
 40
0.0
 40
0.0
 40
0.0
 40
0.0
 40
0.0003535252763916
 40
0.0003535252763916
 40
0.0003535252763916
 40
0.0003535252763916
 10
200.5197428591107
 20
139.3618040121961
 42
1.0
 10
200.4031106238311
 20
139.374228722063
 42
1.0
 10
200.2864429080435
 20
139.3864828854789
 42
1.0
 10
200.1697428591108
 20
139.3985742819647
 42
1.0
 72
     4
 94
        3
 73
     1
 74
     0
 95
       20
 96
       16
 40
0.0
 40
0.0
 40
0.0
 40
0.0
 40
0.0000722847182845
 40
0.0000722847182845
 40
0.0000722847182845
 40
0.0001248572699056
 40
0.0001248572699056
 40
0.0001248572699056
 40
0.0001610185405309
 40
0.0001610185405309
 40
0.0001610185405309
 40
0.0001882013621654
 40
0.0001882013621654
 40
0.0001882013621654
 40
0.0002009751522334
 40
0.0002009751522334
 40
0.0002009751522334
 40
0.0002009751522334
 10
200.1697428591108
 20
139.3985742819647
 42
1.0
 10
200.1697428591108
 20
139.3985742819647
 42
1.0
 10
200.1737899110138
 20
139.3981551613163
 42
1.0
 10
200.1818511172299
 20
139.3973191378688
 42
1.0
 10
200.1877390728112
 20
139.3967085010991
 42
1.0
 10
200.1959267856202
 20
139.3958590148196
 42
1.0
 10
200.2065923019343
 20
139.3947507459304
 42
1.0
 10
200.2139516423773
 20
139.3939860264533
 42
1.0
 10
200.2226644524712
 20
139.3930800118194
 42
1.0
 10
200.2325724221768
 20
139.3920483522404
 42
1.0
 10
200.2400327851428
 20
139.3912715477946
 42
1.0
 10
200.2483443999983
 20
139.3904053984769
 42
1.0
 10
200.2570575064392
 20
139.3894963994916
 42
1.0
 10
200.2611931167714
 20
139.3890649499712
 42
1.0
 10
200.2654531977647
 20
139.3886203005618
 42
1.0
 10
200.2697428591107
 20
139.3881723311512
 42
1.0
 72
     4
 94
        3
 73
     1
 74
     0
 95
        8
 96
        4
 40
0.0
 40
0.0
 40
0.0
 40
0.0
 40
0.0001517823843504
 40
0.0001517823843504
 40
0.0001517823843504
 40
0.0001517823843504
 10
200.2697428591107
 20
139.388172331151
 42
1.0
 10
200.3197502852816
 20
139.3829500547472
 42
1.0
 10
200.3697503857994
 20
139.3776976047677
 42
1.0
 10
200.4197428591108
 20
139.3724143793249
 42
1.0
 72
     4
 94
        3
 73
     1
 74
     0
 95
       20
 96
       16
 40
0.0
 40
0.0
 40
0.0
 40
0.0
 40
0.0000289624997044
 40
0.0000289624997044
 40
0.0000289624997044
 40
0.0000575308677475
 40
0.0000575308677475
 40
0.0000575308677475
 40
0.0001041352021162
 40
0.0001041352021162
 40
0.0001041352021162
 40
0.0001700512542954
 40
0.0001700512542954
 40
0.0001700512542954
 40
0.0002029676644202
 40
0.0002029676644202
 40
0.0002029676644202
 40
0.0002029676644202
 10
200.4197428591108
 20
139.3724143793249
 42
1.0
 10
200.4292822203463
 20
139.3714062556484
 42
1.0
 10
200.4387092575845
 20
139.3704087894427
 42
1.0
 10
200.4471852447905
 20
139.3695110801172
 42
1.0
 10
200.4555913969515
 20
139.3686207671656
 42
1.0
 10
200.4633215369415
 20
139.3678011482419
 42
1.0
 10
200.4701566658776
 20
139.3670758954319
 42
1.0
 10
200.4812429193359
 20
139.3658995699305
 42
1.0
 10
200.4903196402659
 20
139.364934958386
 42
1.0
 10
200.4974373435843
 20
139.3641780715965
 42
1.0
 10
200.5074718850398
 20
139.3631110122479
 42
1.0
 10
200.5139969455291
 20
139.3624160228511
 42
1.0
 10
200.517262408568
 20
139.3620682257061
 42
1.0
 10
200.5189089430383
 20
139.3618928570122
 42
1.0
 10
200.519742859111
 20
139.3618040121961
 42
1.0
 10
200.519742859111
 20
139.3618040121961
 42
1.0
 72
     4
 94
        3
 73
     1
 74
     0
 95
       11
 96
        7
 40
0.0
 40
0.0
 40
0.0
 40
0.0
 40
0.0000684665011698
 40
0.0000684665011698
 40
0.0000684665011698
 40
0.0001125340273024
 40
0.0001125340273024
 40
0.0001125340273024
 40
0.0001125340273024
 10
200.5197428591107
 20
139.3618040121961
 42
1.0
 10
200.5197428591107
 20
139.3618040121961
 42
1.0
 10
200.5162140321814
 20
139.3621801442032
 42
1.0
 10
200.5083643345472
 20
139.3630156015449
 42
1.0
 10
200.503284883731
 20
139.363556216569
 42
1.0
 10
200.4962379271601
 20
139.3643059757364
 42
1.0
 10
200.4869637623541
 20
139.3652913508148
 42
1.0
 97
        0
 75
     0
 76
     1
 52
0.0
 41
1.0
 77
     0
 78
     4
 53
45.0
 43
0.0
 44
0.0
 45
-13.47038418160373
 46
13.47038418160373
 79
     0
 53
45.0
 43
4.49013
 44
0.0
 45
-13.47038418160373
 46
13.47038418160373
 79
     0
 53
45.0
 43
8.98026
 44
0.0
 45
-13.47038418160373
 46
13.47038418160373
 79
     0
 53
45.0
 43
13.4704
 44
0.0
 45
-13.47038418160373
 46
13.47038418160373
 79
     0
 98
        1
 10
0.0
 20
0.0
  0
HATCH
  5
40F
330
1F
100
AcDbEntity
  8
0
  6
Continuous
 62
     7
370
     0
100
AcDbHatch
 10
0.0
 20
0.0
 30
0.0
210
0.0
220
0.0
230
1.0
  2
ANSI34
 70
     0
 71
     0
 91
        1
 92
        0
 93
        8
 72
     4
 94
        3
 73
     1
 74
     0
 95
        8
 96
        4
 40
0.0
 40
0.0
 40
0.0
 40
0.0
 40
0.0024696668605035
 40
0.0024696668605035
 40
0.0024696668605035
 40
0.0024696668605035
 10
201.2197428591108
 20
139.2850658225262
 42
1.0
 10
202.0377738725478
 20
139.1927639813802
 42
1.0
 10
202.8549912927301
 20
139.0913487793297
 42
1.0
 10
203.6697428591108
 20
138.9755840712405
 42
1.0
 72
     4
 94
        3
 73
     1
 74
     0
 95
        8
 96
        4
 40
0.0
 40
0.0
 40
0.0
 40
0.0
 40
0.0006948786883496
 40
0.0006948786883496
 40
0.0006948786883496
 40
0.0006948786883496
 10
203.6697428591108
 20
138.9755840712405
 42
1.0
 10
203.5370948007095
 20
138.9944314897581
 42
1.0
 10
203.4037461049343
 20
139.0129779004585
 42
1.0
 10
203.2697428591107
 20
139.031239892506
 42
1.0
 72
     4
 94
        3
 73
     1
 74
     0
 95
        8
 96
        4
 40
0.0
 40
0.0
 40
0.0
 40
0.0
 40
0.0027321576096275
 40
0.0027321576096275
 40
0.0027321576096275
 40
0.0027321576096275
 10
203.2697428591108
 20
139.031239892506
 42
1.0
 10
202.3728170905641
 20
139.1534731350793
 42
1.0
 10
201.4720644016464
 20
139.259956507453
 42
1.0
 10
200.5697428591108
 20
139.3564668557256
 42
1.0
 72
     4
 94
        3
 73
     1
 74
     0
 95
        8
 96
        4
 40
0.0
 40
0.0
 40
0.0
 40
0.0
 40
0.0006256756213835
 40
0.0006256756213835
 40
0.0006256756213835
 40
0.0006256756213835
 10
200.5697428591108
 20
139.3564668557256
 42
1.0
 10
200.4361022355338
 20
139.3707607659525
 42
1.0
 10
200.3027652111272
 20
139.3847917170522
 42
1.0
 10
200.1697428591108
 20
139.3985742819647
 42
1.0
 72
     4
 94
        3
 73
     1
 74
     0
 95
        8
 96
        4
 40
0.0
 40
0.0
 40
0.0
 40
0.0
 40
0.000353221868954
 40
0.000353221868954
 40
0.000353221868954
 40
0.000353221868954
 10
200.1697428591108
 20
139.3985742819647
 42
1.0
 10
200.2864397774598
 20
139.3864832098414
 42
1.0
 10
200.4031073885257
 20
139.3742290667168
 42
1.0
 10
200.5197428591107
 20
139.3618040121962
 42
1.0
 72
     4
 94
        3
 73
     1
 74
     0
 95
        8
 96
        4
 40
0.0
 40
0.0
 40
0.0
 40
0.0
 40
0.0024783972325389
 40
0.0024783972325389
 40
0.0024783972325389
 40
0.0024783972325389
 10
200.5197428591107
 20
139.3618040121962
 42
1.0
 10
201.3382687058954
 20
139.27460731104
 42
1.0
 10
202.1554620544412
 20
139.1791987639899
 42
1.0
 10
202.9697428591108
 20
139.0715125783887
 42
1.0
 72
     4
 94
        3
 73
     1
 74
     0
 95
        8
 96
        4
 40
0.0
 40
0.0
 40
0.0
 40
0.0
 40
0.0021254544895059
 40
0.0021254544895059
 40
0.0021254544895059
 40
0.0021254544895059
 10
202.9697428591108
 20
139.0715125783887
 42
1.0
 10
202.2715717033951
 20
139.1638436123818
 42
1.0
 10
201.5712137245362
 20
139.2471064239214
 42
1.0
 10
200.8697428591108
 20
139.323986381615
 42
1.0
 72
     4
 94
        3
 73
     1
 74
     0
 95
        8
 96
        4
 40
0.0000000000000001
 40
0.0000000000000001
 40
0.0000000000000001
 40
0.0000000000000001
 40
0.0003538540433562
 40
0.0003538540433562
 40
0.0003538540433562
 40
0.0003538540433562
 10
200.8697428591107
 20
139.3239863816152
 42
1.0
 10
200.9864475776533
 20
139.311195752287
 42
1.0
 10
201.1031155215793
 20
139.2982253700315
 42
1.0
 10
201.2197428591108
 20
139.2850658225262
 42
1.0
 97
        0
 75
     0
 76
     1
 52
0.0
 41
1.0
 77
     0
 78
     4
 53
45.0
 43
0.0
 44
0.0
 45
-13.47038418160373
 46
13.47038418160373
 79
     0
 53
45.0
 43
4.49013
 44
0.0
 45
-13.47038418160373
 46
13.47038418160373
 79
     0
 53
45.0
 43
8.98026
 44
0.0
 45
-13.47038418160373
 46
13.47038418160373
 79
     0
 53
45.0
 43
13.4704
 44
0.0
 45
-13.47038418160373
 46
13.47038418160373
 79
     0
 98
        1
 10
0.0
 20
0.0
  0
HATCH
  5
410
330
1F
100
AcDbEntity
  8
0
  6
Continuous
 62
     7
370
     0
100
AcDbHatch
 10
0.0
 20
0.0
 30
0.0
210
0.0
220
0.0
230
1.0
  2
ANSI34
 70
     0
 71
     0
 91
        1
 92
        0
 93
        8
 72
     4
 94
        3
 73
     1
 74
     0
 95
        8
 96
        4
 40
0.0
 40
0.0
 40
0.0
 40
0.0
 40
0.0003561045865613
 40
0.0003561045865613
 40
0.0003561045865613
 40
0.0003561045865613
 10
201.2197428591108
 20
135.0083158480073
 42
1.0
 10
201.1031288782289
 20
134.9951578075884
 42
1.0
 10
200.9864607067581
 20
134.9821873571732
 42
1.0
 10
200.8697428591108
 20
134.9693952889185
 42
1.0
 72
     4
 94
        3
 73
     1
 74
     0
 95
        8
 96
        4
 40
0.0
 40
0.0
 40
0.0
 40
0.0
 40
0.0021364294878346
 40
0.0021364294878346
 40
0.0021364294878346
 40
0.0021364294878346
 10
200.8697428591108
 20
134.9693952889185
 42
1.0
 10
201.5716044334001
 20
135.0463180676078
 42
1.0
 10
202.2720104641703
 20
135.1295960829437
 42
1.0
 10
202.9697428591108
 20
135.2218690921448
 42
1.0
 72
     4
 94
        3
 73
     1
 74
     0
 95
        8
 96
        4
 40
0.0
 40
0.0
 40
0.0
 40
0.0
 40
0.0024901608197849
 40
0.0024901608197849
 40
0.0024901608197849
 40
0.0024901608197849
 10
202.9697428591108
 20
135.2218690921448
 42
1.0
 10
202.1560147439741
 20
135.1142559980708
 42
1.0
 10
201.3387520584124
 20
135.0188258505309
 42
1.0
 10
200.5197428591107
 20
134.9315776583374
 42
1.0
 72
     4
 94
        3
 73
     1
 74
     0
 95
        8
 96
        4
 40
0.0
 40
0.0
 40
0.0
 40
0.0
 40
0.0003548002130006
 40
0.0003548002130006
 40
0.0003548002130006
 40
0.0003548002130006
 10
200.5197428591107
 20
134.9315776583374
 42
1.0
 10
200.4031167928428
 20
134.9191536056488
 42
1.0
 10
200.2864490257889
 20
134.9068994189197
 42
1.0
 10
200.1697428591108
 20
134.8948073885688
 42
1.0
 72
     4
 94
        3
 73
     1
 74
     0
 95
        8
 96
        4
 40
0.0
 40
0.0
 40
0.0
 40
0.0
 40
0.0007813266312088
 40
0.0007813266312088
 40
0.0007813266312088
 40
0.0007813266312088
 10
200.1697428591108
 20
134.8948073885688
 42
1.0
 10
200.3021710650993
 20
134.9085283934798
 42
1.0
 10
200.4355257398335
 20
134.9225592438557
 42
1.0
 10
200.5697428591107
 20
134.9369148148079
 42
1.0
 72
     4
 94
        3
 73
     1
 74
     0
 95
        8
 96
        4
 40
0.0
 40
0.0
 40
0.0
 40
0.0
 40
0.0027449721647206
 40
0.0027449721647206
 40
0.0027449721647206
 40
0.0027449721647206
 10
200.5697428591108
 20
134.9369148148079
 42
1.0
 10
201.4726464345468
 20
135.0334874160528
 42
1.0
 10
202.3734939281606
 20
135.1400007750319
 42
1.0
 10
203.2697428591108
 20
135.2621417780275
 42
1.0
 72
     4
 94
        3
 73
     1
 74
     0
 95
        8
 96
        4
 40
0.0
 40
0.0
 40
0.0
 40
0.0
 40
0.0006773086982888
 40
0.0006773086982888
 40
0.0006773086982888
 40
0.0006773086982888
 10
203.2697428591108
 20
135.2621417780275
 42
1.0
 10
203.4033982989728
 20
135.2803563710014
 42
1.0
 10
203.5367332615293
 20
135.2988988111563
 42
1.0
 10
203.6697428591107
 20
135.317797599293
 42
1.0
 72
     4
 94
        3
 73
     1
 74
     0
 95
        8
 96
        4
 40
0.0
 40
0.0
 40
0.0
 40
0.0
 40
0.0025529029218444
 40
0.0025529029218444
 40
0.0025529029218444
 40
0.0025529029218444
 10
203.6697428591108
 20
135.317797599293
 42
1.0
 10
202.8574438633995
 20
135.2023813669102
 42
1.0
 10
202.039912300752
 20
135.1008589769005
 42
1.0
 10
201.2197428591108
 20
135.0083158480073
 42
1.0
 97
        0
 75
     0
 76
     1
 52
0.0
 41
1.0
 77
     0
 78
     4
 53
45.0
 43
0.0
 44
0.0
 45
-13.47038418160373
 46
13.47038418160373
 79
     0
 53
45.0
 43
4.49013
 44
0.0
 45
-13.47038418160373
 46
13.47038418160373
 79
     0
 53
45.0
 43
8.98026
 44
0.0
 45
-13.47038418160373
 46
13.47038418160373
 79
     0
 53
45.0
 43
13.4704
 44
0.0
 45
-13.47038418160373
 46
13.47038418160373
 79
     0
 98
        1
 10
0.0
 20
0.0
  0
HATCH
  5
411
330
1F
100
AcDbEntity
  8
0
  6
Continuous
 62
     7
370
     0
100
AcDbHatch
 10
0.0
 20
0.0
 30
0.0
210
0.0
220
0.0
230
1.0
  2
ANSI32
 70
     0
 71
     0
 91
        1
 92
        0
 93
        2
 72
     4
 94
        3
 73
     1
 74
     0
 95
        8
 96
        4
 40
0.0
 40
0.0
 40
0.0
 40
0.0
 40
0.0008006830968138
 40
0.0008006830968138
 40
0.0008006830968138
 40
0.0008006830968138
 10
205.0697428591108
 20
138.759880249301
 42
1.0
 10
204.8067653285752
 20
138.8039724823819
 42
1.0
 10
204.5433919935624
 20
138.8458507447897
 42
1.0
 10
204.2797428591108
 20
138.8859434716876
 42
1.0
 72
     4
 94
        3
 73
     1
 74
     0
 95
        8
 96
        4
 40
0.0
 40
0.0
 40
0.0
 40
0.0
 40
0.0008098881241043
 40
0.0008098881241043
 40
0.0008098881241043
 40
0.0008098881241043
 10
204.2797428591108
 20
138.8859434716876
 42
1.0
 10
204.5437000301777
 20
138.8458039021254
 42
1.0
 10
204.8071138740615
 20
138.8039140433631
 42
1.0
 10
205.0697428591108
 20
138.759880249301
 42
1.0
 97
        0
 75
     0
 76
     1
 52
0.0
 41
1.0
 77
     0
 78
     2
 53
45.0
 43
0.0
 44
0.0
 45
-6.735192090801865
 46
6.735192090801866
 79
     0
 53
45.0
 43
4.49013
 44
0.0
 45
-6.735192090801865
 46
6.735192090801866
 79
     0
 98
        1
 10
0.0
 20
0.0
  0
HATCH
  5
412
330
1F
100
AcDbEntity
  8
0
  6
Continuous
 62
     7
370
     0
100
AcDbHatch
 10
0.0
 20
0.0
 30
0.0
210
0.0
220
0.0
230
1.0
  2
ANSI32
 70
     0
 71
     0
 91
        1
 92
        0
 93
        2
 72
     4
 94
        3
 73
     1
 74
     0
 95
        8
 96
        4
 40
0.0
 40
0.0
 40
0.0
 40
0.0
 40
0.0008107937306532
 40
0.0008107937306532
 40
0.0008107937306532
 40
0.0008107937306532
 10
204.2797428591108
 20
135.407438198846
 42
1.0
 10
204.5436557607702
 20
135.447571036426
 42
1.0
 10
204.8070586572212
 20
135.4894583692167
 42
1.0
 10
205.0697428591108
 20
135.5335014212326
 42
1.0
 72
     4
 94
        3
 73
     1
 74
     0
 95
        8
 96
        4
 40
0.0
 40
0.0
 40
0.0
 40
0.0
 40
0.0008203181249027
 40
0.0008203181249027
 40
0.0008203181249027
 40
0.0008203181249027
 10
205.0697428591108
 20
135.5335014212325
 42
1.0
 10
204.8072857160047
 20
135.4894964391187
 42
1.0
 10
204.5438626160026
 20
135.4476024925897
 42
1.0
 10
204.2797428591108
 20
135.407438198846
 42
1.0
 97
        0
 75
     0
 76
     1
 52
0.0
 41
1.0
 77
     0
 78
     2
 53
45.0
 43
0.0
 44
0.0
 45
-6.735192090801865
 46
6.735192090801866
 79
     0
 53
45.0
 43
4.49013
 44
0.0
 45
-6.735192090801865
 46
6.735192090801866
 79
     0
 98
        1
 10
0.0
 20
0.0
  0
HATCH
  5
413
330
1F
100
AcDbEntity
  8
0
  6
Continuous
 62
     7
370
     0
100
AcDbHatch
 10
0.0
 20
0.0
 30
0.0
210
0.0
220
0.0
230
1.0
  2
ANSI32
 70
     0
 71
     0
 91
        1
 92
        0
 93
        3
 72
     4
 94
        3
 73
     1
 74
     0
 95
       50
 96
       46
 40
0.0
 40
0.0
 40
0.0
 40
0.0
 40
0.0014549838480681
 40
0.0014549838480681
 40
0.0014549838480681
 40
0.002026725483809
 40
0.002026725483809
 40
0.002026725483809
 40
0.0022457426815397
 40
0.0022457426815397
 40
0.0022457426815397
 40
0.002469174316489
 40
0.002469174316489
 40
0.002469174316489
 40
0.0026616896798002
 40
0.0026616896798002
 40
0.0026616896798002
 40
0.0029121913327765
 40
0.0029121913327765
 40
0.0029121913327765
 40
0.003243390415978
 40
0.003243390415978
 40
0.003243390415978
 40
0.0035708882601346
 40
0.0035708882601346
 40
0.0035708882601346
 40
0.0038655341969903
 40
0.0038655341969903
 40
0.0038655341969903
 40
0.0040590668481201
 40
0.0040590668481201
 40
0.0040590668481201
 40
0.0042554060364141
 40
0.0042554060364141
 40
0.0042554060364141
 40
0.0044658124828717
 40
0.0044658124828717
 40
0.0044658124828717
 40
0.0048345153543571
 40
0.0048345153543571
 40
0.0048345153543571
 40
0.0060890492735395
 40
0.0060890492735395
 40
0.0060890492735395
 40
0.0066500990920045
 40
0.0066500990920045
 40
0.0066500990920045
 40
0.0066500990920045
 10
207.3862428591105
 20
138.2906196796313
 42
1.0
 10
207.8548219664676
 20
138.1726311981428
 42
1.0
 10
208.3260689361668
 20
138.0398638492584
 42
1.0
 10
208.7721751427961
 20
137.8506756588291
 42
1.0
 10
208.9477008275653
 20
137.7762373609935
 42
1.0
 10
209.1222580886278
 20
137.6916086679577
 42
1.0
 10
209.2755614737779
 20
137.5861220408779
 42
1.0
 10
209.3346916262468
 20
137.5454351353895
 42
1.0
 10
209.3909694082774
 20
137.5009790092001
 42
1.0
 10
209.439313368183
 20
137.4530723273587
 42
1.0
 10
209.4882060878534
 20
137.4046218493632
 42
1.0
 10
209.5296471604762
 20
137.3509113318239
 42
1.0
 10
209.5557733886515
 20
137.2985126558119
 42
1.0
 10
209.5783722132246
 20
137.2531885286892
 42
1.0
 10
209.5900013064098
 20
137.2079731421863
 42
1.0
 10
209.5928254305527
 20
137.1684911840537
 42
1.0
 10
209.5965043167431
 20
137.1170594398392
 42
1.0
 10
209.586627686478
 20
137.0735722460855
 42
1.0
 10
209.5751080072591
 20
137.040518779502
 42
1.0
 10
209.5599328385575
 20
136.9969766007622
 42
1.0
 10
209.5422947590887
 20
136.9696832794566
 42
1.0
 10
209.5370237652982
 20
136.9610420535066
 42
1.0
 10
209.5318232478562
 20
136.9525163659304
 42
1.0
 10
209.5389481198086
 20
136.9622731351014
 42
1.0
 10
209.5527906570495
 20
136.9890005009873
 42
1.0
 10
209.5653177402133
 20
137.0131879696121
 42
1.0
 10
209.5830225637647
 20
137.0515793849328
 42
1.0
 10
209.5904056006915
 20
137.1025295999156
 42
1.0
 10
209.5952652696136
 20
137.1360660942854
 42
1.0
 10
209.5952680568018
 20
137.1759155657456
 42
1.0
 10
209.5849970437703
 20
137.2191240644989
 42
1.0
 10
209.5746347266489
 20
137.262716664863
 42
1.0
 10
209.552866145457
 20
137.3107918248515
 42
1.0
 10
209.5212336274281
 20
137.356631477016
 42
1.0
 10
209.4872128777162
 20
137.4059319889686
 42
1.0
 10
209.4415767873463
 20
137.4539662260225
 42
1.0
 10
209.3910883716958
 20
137.4975970730903
 42
1.0
 10
209.3028300602071
 20
137.5738677352097
 42
1.0
 10
209.1981845062453
 20
137.6400022365053
 42
1.0
 10
209.090935064827
 20
137.6984985272121
 42
1.0
 10
208.7288975185775
 20
137.8959620596287
 42
1.0
 10
208.3245728034447
 20
138.0276888438071
 42
1.0
 10
207.9261080044097
 20
138.1443658982632
 42
1.0
 10
207.7469898448484
 20
138.196814644822
 42
1.0
 10
207.5668210004751
 20
138.245150002569
 42
1.0
 10
207.3862428591105
 20
138.2906196796312
 42
1.0
 72
     4
 94
        3
 73
     1
 74
     0
 95
        8
 96
        4
 40
0.0
 40
0.0
 40
0.0
 40
0.0
 40
0.0003433223344717
 40
0.0003433223344717
 40
0.0003433223344717
 40
0.0003433223344717
 10
207.3862428591104
 20
138.2906196796313
 42
1.0
 10
207.3121254149138
 20
138.3092824935623
 42
1.0
 10
207.2393047150176
 20
138.3271025647726
 42
1.0
 10
207.1697428591108
 20
138.3437455225803
 42
1.0
 72
     4
 94
        3
 73
     1
 74
     0
 95
        8
 96
        4
 40
0.0
 40
0.0
 40
0.0
 40
0.0
 40
0.0003433223344717
 40
0.0003433223344717
 40
0.0003433223344717
 40
0.0003433223344717
 10
207.1697428591108
 20
138.3437455225803
 42
1.0
 10
207.2393047150176
 20
138.3271025647726
 42
1.0
 10
207.312125414914
 20
138.3092824935622
 42
1.0
 10
207.3862428591106
 20
138.2906196796312
 42
1.0
 97
        0
 75
     0
 76
     1
 52
0.0
 41
1.0
 77
     0
 78
     2
 53
45.0
 43
0.0
 44
0.0
 45
-6.735192090801865
 46
6.735192090801866
 79
     0
 53
45.0
 43
4.49013
 44
0.0
 45
-6.735192090801865
 46
6.735192090801866
 79
     0
 98
        1
 10
0.0
 20
0.0
  0
LINE
  5
414
330
1F
100
AcDbEntity
  8
0
  6
Continuous
 62
     7
370
     0
100
AcDbLine
 10
220.6697434254
 20
191.0448735375
 30
0.0
 11
220.6697434254
 21
190.9714592416
 31
0.0
  0
LWPOLYLINE
  5
415
330
1F
100
AcDbEntity
  8
0
  6
Continuous
 62
     7
370
     0
100
AcDbPolyline
 90
        5
 70
   128
 43
0.0
 10
220.6696271896
 20
190.9714592416
 10
220.6697434254
 20
190.7584005762
 10
220.6697434254
 20
190.4265517164
 10
220.6697434254
 20
190.0084009189
 10
220.6697434254
 20
189.544874223
  0
LINE
  5
416
330
1F
100
AcDbEntity
  8
0
  6
Continuous
 62
     7
370
     0
100
AcDbLine
 10
220.6697434254
 20
136.1004253645
 30
0.0
 11
220.6697434254
 21
136.0270092059
 31
0.0
  0
LWPOLYLINE
  5
417
330
1F
100
AcDbEntity
  8
0
  6
Continuous
 62
     7
370
     0
100
AcDbPolyline
 90
        5
 70
   128
 43
0.0
 10
220.6696271896
 20
136.0270092059
 10
220.6697434254
 20
135.8139505405
 10
220.6697434254
 20
135.4821016807
 10
220.6697434254
 20
135.0639508832
 10
220.6697434254
 20
134.6004241873
  0
LINE
  5
418
330
1F
100
AcDbEntity
  8
0
  6
Continuous
 62
     7
370
     0
100
AcDbLine
 10
197.169742833
 20
138.6691415478
 30
0.0
 11
203.1697428852
 21
138.6691415478
 31
0.0
  0
LINE
  5
419
330
1F
100
AcDbEntity
  8
0
  6
Continuous
 62
     7
370
     0
100
AcDbLine
 10
203.1697428852
 20
135.669141056
 30
0.0
 11
197.169742833
 21
135.669141056
 31
0.0
  0
LINE
  5
41A
330
1F
100
AcDbEntity
  8
0
  6
Continuous
 62
     7
370
     0
100
AcDbLine
 10
203.1697428852
 20
135.9191415627
 30
0.0
 11
203.1697428852
 21
135.669141056
 31
0.0
  0
LINE
  5
41B
330
1F
100
AcDbEntity
  8
0
  6
Continuous
 62
     7
370
     0
100
AcDbLine
 10
203.1697428852
 20
138.6691415478
 30
0.0
 11
203.1697428852
 21
138.4191410411
 31
0.0
  0
LWPOLYLINE
  5
41C
330
1F
100
AcDbEntity
  8
0
  6
Continuous
 62
     7
370
     0
100
AcDbPolyline
 90
       10
 70
   128
 43
0.0
 10
203.1697034836
 20
135.9191415627
 10
203.1697428852
 20
135.9945246745
 10
203.1697428852
 20
136.2115861643
 10
203.1697428852
 20
136.5441409666
 10
203.1697428852
 20
136.9520807434
 10
203.1697428852
 20
137.3862018604
 10
203.1697428852
 20
137.7941416372
 10
203.1697428852
 20
138.1266964395
 10
203.1697428852
 20
138.3437579293
 10
203.1697428852
 20
138.4191410411
  0
LINE
  5
41D
330
1F
100
AcDbEntity
  8
0
  6
CENTERX2
 62
     7
370
     0
100
AcDbLine
 10
247.4944260931
 20
159.6691412646
 30
0.0
 11
192.3871946083
 21
159.6691412646
 31
0.0
  0
LINE
  5
41E
330
1F
100
AcDbEntity
  8
0
  6
CENTERX2
 62
     7
370
     0
100
AcDbLine
 10
206.358045663
 20
137.1691412646
 30
0.0
 11
195.7876212363
 21
137.1691412646
 31
0.0
  0
LINE
  5
41F
330
1F
100
AcDbEntity
  8
0
  6
CENTERX2
 62
     7
370
     0
100
AcDbLine
 10
240.3697428591
 20
188.1981421703
 30
0.0
 11
240.3697428591
 21
217.6691412644
 31
0.0
  0
LINE
  5
420
330
1F
100
AcDbEntity
  8
0
  6
CENTERX2
 62
     7
370
     0
100
AcDbLine
 10
237.8197428591
 20
187.8065180622
 30
0.0
 11
237.8197428591
 21
217.6691415525
 31
0.0
  0
LINE
  5
421
330
1F
100
AcDbEntity
  8
0
  6
CENTERX2
 62
     7
370
     0
100
AcDbLine
 10
231.2225928704
 20
132.0637173721
 30
0.0
 11
240.857510058
 21
132.0637173721
 31
0.0
  0
LINE
  5
422
330
1F
100
AcDbEntity
  8
0
  6
CENTERX2
 62
     7
370
     0
100
AcDbLine
 10
232.3491071917
 20
178.9986671697
 30
0.0
 11
241.0149658195
 21
178.9986671697
 31
0.0
  0
ENDSEC
  0
SECTION
  2
OBJECTS
  0
DICTIONARY
  5
C
330
0
100
AcDbDictionary
281
     1
  3
ACAD_GROUP
350
D
  3
ACAD_LAYOUT
350
1A
  3
ACAD_MLINESTYLE
350
17
  3
ACAD_PLOTSETTINGS
350
19
  3
ACAD_PLOTSTYLENAME
350
E
  3
ACAD_SCALELIST
350
47
  0
DICTIONARY
  5
D
102
{ACAD_REACTORS
330
C
102
}
330
C
100
AcDbDictionary
281
     1
  0
DICTIONARY
  5
1A
102
{ACAD_REACTORS
330
C
102
}
330
C
100
AcDbDictionary
281
     1
  3
Layout1
350
1E
  3
Layout2
350
26
  3
Model
350
22
  0
DICTIONARY
  5
17
102
{ACAD_REACTORS
330
C
102
}
330
C
100
AcDbDictionary
281
     1
  3
Standard
350
18
  0
DICTIONARY
  5
19
102
{ACAD_REACTORS
330
C
102
}
330
C
100
AcDbDictionary
281
     1
  0
ACDBDICTIONARYWDFLT
  5
E
102
{ACAD_REACTORS
330
C
102
}
330
C
100
AcDbDictionary
281
     1
  3
Normal
350
F
100
AcDbDictionaryWithDefault
340
F
  0
DICTIONARY
  5
47
102
{ACAD_REACTORS
330
C
102
}
330
C
100
AcDbDictionary
281
     1
  3
A0
350
48
  3
A1
350
49
  3
A2
350
4A
  3
A3
350
4B
  3
A4
350
4C
  3
A5
350
4D
  3
A6
350
4E
  3
A7
350
4F
  3
A8
350
50
  3
A9
350
51
  3
B0
350
52
  3
B1
350
53
  3
B2
350
54
  3
B3
350
55
  3
B4
350
56
  3
B5
350
57
  3
B6
350
58
  3
B7
350
59
  3
B8
350
5A
  3
B9
350
5B
  3
C0
350
5C
  3
C1
350
5D
  3
C2
350
5E
  3
C3
350
5F
  3
C4
350
60
  3
C5
350
61
  3
C6
350
62
  3
C7
350
63
  3
C8
350
64
  3
C9
350
65
  3
D0
350
66
  3
D1
350
67
  3
D2
350
68
  0
LAYOUT
  5
1E
102
{ACAD_REACTORS
330
1A
102
}
330
1A
100
AcDbPlotSettings
  1

  2
none_device
  4

  6

 40
0.0
 41
0.0
 42
0.0
 43
0.0
 44
0.0
 45
0.0
 46
0.0
 47
0.0
 48
0.0
 49
0.0
140
0.0
141
0.0
142
1.0
143
1.0
 70
   688
 72
     1
 73
     0
 74
     5
  7

 75
    16
147
1.0
148
0.0
149
0.0
100
AcDbLayout
  1
Layout1
 70
     1
 71
     1
 10
0.0
 20
0.0
 11
420.0
 21
297.0
 12
0.0
 22
0.0
 32
0.0
 14
1.0000000000E+20
 24
1.0000000000E+20
 34
1.0000000000E+20
 15
-1.0000000000E+20
 25
-1.0000000000E+20
 35
-1.0000000000E+20
146
0.0
 13
0.0
 23
0.0
 33
0.0
 16
1.0
 26
0.0
 36
0.0
 17
0.0
 27
1.0
 37
0.0
 76
     0
330
1B
  0
LAYOUT
  5
26
102
{ACAD_REACTORS
330
1A
102
}
330
1A
100
AcDbPlotSettings
  1

  2
none_device
  4

  6

 40
0.0
 41
0.0
 42
0.0
 43
0.0
 44
0.0
 45
0.0
 46
0.0
 47
0.0
 48
0.0
 49
0.0
140
0.0
141
0.0
142
1.0
143
1.0
 70
   688
 72
     1
 73
     0
 74
     5
  7

 75
    16
147
1.0
148
0.0
149
0.0
100
AcDbLayout
  1
Layout2
 70
     1
 71
     2
 10
0.0
 20
0.0
 11
0.0
 21
0.0
 12
0.0
 22
0.0
 32
0.0
 14
0.0
 24
0.0
 34
0.0
 15
0.0
 25
0.0
 35
0.0
146
0.0
 13
0.0
 23
0.0
 33
0.0
 16
1.0
 26
0.0
 36
0.0
 17
0.0
 27
1.0
 37
0.0
 76
     0
330
23
  0
LAYOUT
  5
22
102
{ACAD_REACTORS
330
1A
102
}
330
1A
100
AcDbPlotSettings
  1

  2
none_device
  4
Letter_(8.50_x_11.00_Inches)
  6

 40
6.35
 41
6.35
 42
6.35000508
 43
6.35000508
 44
215.9
 45
279.4
 46
0.0
 47
0.0
 48
0.0
 49
0.0
140
0.0
141
0.0
142
1.0
143
1.0
 70
  1712
 72
     1
 73
     0
 74
     0
  7

 75
     0
147
1.0
148
0.0
149
0.0
100
AcDbLayout
  1
Model
 70
     1
 71
     0
 10
0.0
 20
0.0
 11
420.0
 21
297.0
 12
0.0
 22
0.0
 32
0.0
 14
0.0
 24
0.0
 34
0.0
 15
420.0
 25
297.0
 35
0.0
146
0.0
 13
0.0
 23
0.0
 33
0.0
 16
1.0
 26
0.0
 36
0.0
 17
0.0
 27
1.0
 37
0.0
 76
     0
330
1F
331
29
  0
MLINESTYLE
  5
18
102
{ACAD_REACTORS
330
17
102
}
330
17
100
AcDbMlineStyle
  2
Standard
 70
     0
  3

 62
   256
 51
90.0
 52
90.0
 71
     2
 49
0.5
 62
   256
  6
BYLAYER
 49
-0.5
 62
   256
  6
BYLAYER
  0
ACDBPLACEHOLDER
  5
F
102
{ACAD_REACTORS
330
E
102
}
330
E
  0
SCALE
  5
48
102
{ACAD_REACTORS
330
47
102
}
330
47
100
AcDbScale
 70
     0
300
1:1
140
1.0
141
1.0
290
     1
  0
SCALE
  5
49
102
{ACAD_REACTORS
330
47
102
}
330
47
100
AcDbScale
 70
     0
300
1:2
140
1.0
141
2.0
290
     0
  0
SCALE
  5
4A
102
{ACAD_REACTORS
330
47
102
}
330
47
100
AcDbScale
 70
     0
300
1:4
140
1.0
141
4.0
290
     0
  0
SCALE
  5
4B
102
{ACAD_REACTORS
330
47
102
}
330
47
100
AcDbScale
 70
     0
300
1:5
140
1.0
141
5.0
290
     0
  0
SCALE
  5
4C
102
{ACAD_REACTORS
330
47
102
}
330
47
100
AcDbScale
 70
     0
300
1:8
140
1.0
141
8.0
290
     0
  0
SCALE
  5
4D
102
{ACAD_REACTORS
330
47
102
}
330
47
100
AcDbScale
 70
     0
300
1:10
140
1.0
141
10.0
290
     0
  0
SCALE
  5
4E
102
{ACAD_REACTORS
330
47
102
}
330
47
100
AcDbScale
 70
     0
300
1:16
140
1.0
141
16.0
290
     0
  0
SCALE
  5
4F
102
{ACAD_REACTORS
330
47
102
}
330
47
100
AcDbScale
 70
     0
300
1:20
140
1.0
141
20.0
290
     0
  0
SCALE
  5
50
102
{ACAD_REACTORS
330
47
102
}
330
47
100
AcDbScale
 70
     0
300
1:30
140
1.0
141
30.0
290
     0
  0
SCALE
  5
51
102
{ACAD_REACTORS
330
47
102
}
330
47
100
AcDbScale
 70
     0
300
1:40
140
1.0
141
40.0
290
     0
  0
SCALE
  5
52
102
{ACAD_REACTORS
330
47
102
}
330
47
100
AcDbScale
 70
     0
300
1:50
140
1.0
141
50.0
290
     0
  0
SCALE
  5
53
102
{ACAD_REACTORS
330
47
102
}
330
47
100
AcDbScale
 70
     0
300
1:100
140
1.0
141
100.0
290
     0
  0
SCALE
  5
54
102
{ACAD_REACTORS
330
47
102
}
330
47
100
AcDbScale
 70
     0
300
2:1
140
2.0
141
1.0
290
     0
  0
SCALE
  5
55
102
{ACAD_REACTORS
330
47
102
}
330
47
100
AcDbScale
 70
     0
300
4:1
140
4.0
141
1.0
290
     0
  0
SCALE
  5
56
102
{ACAD_REACTORS
330
47
102
}
330
47
100
AcDbScale
 70
     0
300
8:1
140
8.0
141
1.0
290
     0
  0
SCALE
  5
57
102
{ACAD_REACTORS
330
47
102
}
330
47
100
AcDbScale
 70
     0
300
10:1
140
10.0
141
1.0
290
     0
  0
SCALE
  5
58
102
{ACAD_REACTORS
330
47
102
}
330
47
100
AcDbScale
 70
     0
300
100:1
140
100.0
141
1.0
290
     0
  0
SCALE
  5
59
102
{ACAD_REACTORS
330
47
102
}
330
47
100
AcDbScale
 70
     0
300
1/128" = 1'-0"
140
0.0078125
141
12.0
290
     0
  0
SCALE
  5
5A
102
{ACAD_REACTORS
330
47
102
}
330
47
100
AcDbScale
 70
     0
300
1/64" = 1'-0"
140
0.015625
141
12.0
290
     0
  0
SCALE
  5
5B
102
{ACAD_REACTORS
330
47
102
}
330
47
100
AcDbScale
 70
     0
300
1/32" = 1'-0"
140
0.03125
141
12.0
290
     0
  0
SCALE
  5
5C
102
{ACAD_REACTORS
330
47
102
}
330
47
100
AcDbScale
 70
     0
300
1/16" = 1'-0"
140
0.0625
141
12.0
290
     0
  0
SCALE
  5
5D
102
{ACAD_REACTORS
330
47
102
}
330
47
100
AcDbScale
 70
     0
300
3/32" = 1'-0"
140
0.09375
141
12.0
290
     0
  0
SCALE
  5
5E
102
{ACAD_REACTORS
330
47
102
}
330
47
100
AcDbScale
 70
     0
300
1/8" = 1'-0"
140
0.125
141
12.0
290
     0
  0
SCALE
  5
5F
102
{ACAD_REACTORS
330
47
102
}
330
47
100
AcDbScale
 70
     0
300
3/16" = 1'-0"
140
0.1875
141
12.0
290
     0
  0
SCALE
  5
60
102
{ACAD_REACTORS
330
47
102
}
330
47
100
AcDbScale
 70
     0
300
1/4" = 1'-0"
140
0.25
141
12.0
290
     0
  0
SCALE
  5
61
102
{ACAD_REACTORS
330
47
102
}
330
47
100
AcDbScale
 70
     0
300
3/8" = 1'-0"
140
0.375
141
12.0
290
     0
  0
SCALE
  5
62
102
{ACAD_REACTORS
330
47
102
}
330
47
100
AcDbScale
 70
     0
300
1/2" = 1'-0"
140
0.5
141
12.0
290
     0
  0
SCALE
  5
63
102
{ACAD_REACTORS
330
47
102
}
330
47
100
AcDbScale
 70
     0
300
3/4" = 1'-0"
140
0.75
141
12.0
290
     0
  0
SCALE
  5
64
102
{ACAD_REACTORS
330
47
102
}
330
47
100
AcDbScale
 70
     0
300
1" = 1'-0"
140
1.0
141
12.0
290
     0
  0
SCALE
  5
65
102
{ACAD_REACTORS
330
47
102
}
330
47
100
AcDbScale
 70
     0
300
1-1/2" = 1'-0"
140
1.5
141
12.0
290
     0
  0
SCALE
  5
66
102
{ACAD_REACTORS
330
47
102
}
330
47
100
AcDbScale
 70
     0
300
3" = 1'-0"
140
3.0
141
12.0
290
     0
  0
SCALE
  5
67
102
{ACAD_REACTORS
330
47
102
}
330
47
100
AcDbScale
 70
     0
300
6" = 1'-0"
140
6.0
141
12.0
290
     0
  0
SCALE
  5
68
102
{ACAD_REACTORS
330
47
102
}
330
47
100
AcDbScale
 70
     0
300
1'-0" = 1'-0"
140
12.0
141
12.0
290
     0
  0
ENDSEC
  0
EOF
