  0
SECTION
  2
HEADER
  9
$ACADVER
  1
AC1015
  9
$ACADMAINTVER
 70
     6
  9
$DWGCODEPAGE
  3
DOS932
  9
$INSBASE
 10
0.0
 20
0.0
 30
0.0
  9
$EXTMIN
 10
0.0
 20
0.0
 30
0.0
  9
$EXTMAX
 10
420.0
 20
297.0
 30
0.0
  9
$LIMMIN
 10
0.0
 20
0.0
  9
$LIMMAX
 10
420.0
 20
297.0
  9
$ORTHOMODE
 70
     0
  9
$REGENMODE
 70
     1
  9
$FILLMODE
 70
     1
  9
$QTEXTMODE
 70
     0
  9
$MIRRTEXT
 70
     1
  9
$LTSCALE
 40
1.0
  9
$ATTMODE
 70
     1
  9
$TEXTSIZE
 40
4.2333333333
  9
$TRACEWID
 40
1.0
  9
$TEXTSTYLE
  7
Standard
  9
$CLAYER
  8
0
  9
$CELTYPE
  6
ByLayer
  9
$CECOLOR
 62
   256
  9
$CELTSCALE
 40
1.0
  9
$DISPSILH
 70
     0
  9
$DIMSCALE
 40
1.0
  9
$DIMASZ
 40
2.6975097656
  9
$DIMEXO
 40
1.0
  9
$DIMDLI
 40
3.75
  9
$DIMRND
 40
0.0
  9
$DIMDLE
 40
0.0
  9
$DIMEXE
 40
1.0
  9
$DIMTP
 40
0.0
  9
$DIMTM
 40
0.0
  9
$DIMTXT
 40
3.5277777778
  9
$DIMCEN
 40
2.5
  9
$DIMTSZ
 40
0.0
  9
$DIMTOL
 70
     0
  9
$DIMLIM
 70
     0
  9
$DIMTIH
 70
     1
  9
$DIMTOH
 70
     1
  9
$DIMSE1
 70
     0
  9
$DIMSE2
 70
     0
  9
$DIMTAD
 70
     1
  9
$DIMZIN
 70
     0
  9
$DIMBLK
  1

  9
$DIMASO
 70
     1
  9
$DIMSHO
 70
     1
  9
$DIMPOST
  1

  9
$DIMAPOST
  1

  9
$DIMALT
 70
     0
  9
$DIMALTD
 70
     3
  9
$DIMALTF
 40
0.0393700787
  9
$DIMLFAC
 40
1.0
  9
$DIMTOFL
 70
     1
  9
$DIMTVP
 40
0.0
  9
$DIMTIX
 70
     0
  9
$DIMSOXD
 70
     0
  9
$DIMSAH
 70
     0
  9
$DIMBLK1
  1

  9
$DIMBLK2
  1

  9
$DIMSTYLE
  2
ISO-25
  9
$DIMCLRD
 70
     0
  9
$DIMCLRE
 70
     0
  9
$DIMCLRT
 70
     0
  9
$DIMTFAC
 40
1.0
  9
$DIMGAP
 40
2.0
  9
$DIMJUST
 70
     0
  9
$DIMSD1
 70
     0
  9
$DIMSD2
 70
     0
  9
$DIMTOLJ
 70
     0
  9
$DIMTZIN
 70
     0
  9
$DIMALTZ
 70
     0
  9
$DIMALTTZ
 70
     0
  9
$DIMUPT
 70
     0
  9
$DIMDEC
 70
     3
  9
$DIMTDEC
 70
     3
  9
$DIMALTU
 70
     2
  9
$DIMALTTD
 70
     3
  9
$DIMTXSTY
  7
Standard
  9
$DIMAUNIT
 70
     0
  9
$DIMADEC
 70
     3
  9
$DIMALTRND
 40
0.0
  9
$DIMAZIN
 70
     0
  9
$DIMDSEP
 70
    44
  9
$DIMATFIT
 70
     3
  9
$DIMFRAC
 70
     0
  9
$DIMLDRBLK
  1

  9
$DIMLUNIT
 70
     2
  9
$DIMLWD
 70
    -2
  9
$DIMLWE
 70
    -2
  9
$DIMTMOVE
 70
     0
  9
$LUNITS
 70
     2
  9
$LUPREC
 70
     3
  9
$SKETCHINC
 40
1.0
  9
$FILLETRAD
 40
10.0
  9
$AUNITS
 70
     0
  9
$AUPREC
 70
     0
  9
$MENU
  1
.
  9
$ELEVATION
 40
0.0
  9
$PELEVATION
 40
0.0
  9
$THICKNESS
 40
0.0
  9
$LIMCHECK
 70
     0
  9
$CHAMFERA
 40
0.0
  9
$CHAMFERB
 40
0.0
  9
$CHAMFERC
 40
0.0
  9
$CHAMFERD
 40
0.0
  9
$SKPOLY
 70
     0
  9
$TDCREATE
 40
2458185.447025926
  9
$TDUCREATE
 40
2458185.072025926
  9
$TDUPDATE
 40
2458185.447028634
  9
$TDUUPDATE
 40
2458185.072028634
  9
$TDINDWG
 40
0.0000000116
  9
$TDUSRTIMER
 40
0.0000000116
  9
$USRTIMER
 70
     1
  9
$ANGBASE
 50
0.0
  9
$ANGDIR
 70
     0
  9
$PDMODE
 70
     0
  9
$PDSIZE
 40
-1.0
  9
$PLINEWID
 40
0.0
  9
$SPLFRAME
 70
     0
  9
$SPLINETYPE
 70
     6
  9
$SPLINESEGS
 70
     8
  9
$HANDSEED
  5
484
  9
$SURFTAB1
 70
     6
  9
$SURFTAB2
 70
     6
  9
$SURFTYPE
 70
     6
  9
$SURFU
 70
     6
  9
$SURFV
 70
     6
  9
$UCSBASE
  2

  9
$UCSNAME
  2

  9
$UCSORG
 10
0.0
 20
0.0
 30
0.0
  9
$UCSXDIR
 10
1.0
 20
0.0
 30
0.0
  9
$UCSYDIR
 10
0.0
 20
1.0
 30
0.0
  9
$UCSORTHOREF
  2

  9
$UCSORTHOVIEW
 70
     0
  9
$UCSORGTOP
 10
0.0
 20
0.0
 30
0.0
  9
$UCSORGBOTTOM
 10
0.0
 20
0.0
 30
0.0
  9
$UCSORGLEFT
 10
0.0
 20
0.0
 30
0.0
  9
$UCSORGRIGHT
 10
0.0
 20
0.0
 30
0.0
  9
$UCSORGFRONT
 10
0.0
 20
0.0
 30
0.0
  9
$UCSORGBACK
 10
0.0
 20
0.0
 30
0.0
  9
$PUCSBASE
  2

  9
$PUCSNAME
  2

  9
$PUCSORG
 10
0.0
 20
0.0
 30
0.0
  9
$PUCSXDIR
 10
1.0
 20
0.0
 30
0.0
  9
$PUCSYDIR
 10
0.0
 20
1.0
 30
0.0
  9
$PUCSORTHOREF
  2

  9
$PUCSORTHOVIEW
 70
     0
  9
$PUCSORGTOP
 10
0.0
 20
0.0
 30
0.0
  9
$PUCSORGBOTTOM
 10
0.0
 20
0.0
 30
0.0
  9
$PUCSORGLEFT
 10
0.0
 20
0.0
 30
0.0
  9
$PUCSORGRIGHT
 10
0.0
 20
0.0
 30
0.0
  9
$PUCSORGFRONT
 10
0.0
 20
0.0
 30
0.0
  9
$PUCSORGBACK
 10
0.0
 20
0.0
 30
0.0
  9
$USERI1
 70
     0
  9
$USERI2
 70
     0
  9
$USERI3
 70
     0
  9
$USERI4
 70
     0
  9
$USERI5
 70
     0
  9
$USERR1
 40
0.0
  9
$USERR2
 40
0.0
  9
$USERR3
 40
0.0
  9
$USERR4
 40
0.0
  9
$USERR5
 40
0.0
  9
$WORLDVIEW
 70
     1
  9
$SHADEDGE
 70
     3
  9
$SHADEDIF
 70
    70
  9
$TILEMODE
 70
     1
  9
$MAXACTVP
 70
    64
  9
$PINSBASE
 10
0.0
 20
0.0
 30
0.0
  9
$PLIMCHECK
 70
     0
  9
$PEXTMIN
 10
1.0000000000E+20
 20
1.0000000000E+20
 30
1.0000000000E+20
  9
$PEXTMAX
 10
-1.0000000000E+20
 20
-1.0000000000E+20
 30
-1.0000000000E+20
  9
$PLIMMIN
 10
0.0
 20
0.0
  9
$PLIMMAX
 10
420.0
 20
297.0
  9
$UNITMODE
 70
     0
  9
$VISRETAIN
 70
     1
  9
$PLINEGEN
 70
     0
  9
$PSLTSCALE
 70
     1
  9
$TREEDEPTH
 70
  3020
  9
$CMLSTYLE
  2
Standard
  9
$CMLJUST
 70
     0
  9
$CMLSCALE
 40
20.0
  9
$PROXYGRAPHICS
 70
     1
  9
$MEASUREMENT
 70
     1
  9
$CELWEIGHT
370
    -1
  9
$ENDCAPS
280
     0
  9
$JOINSTYLE
280
     0
  9
$LWDISPLAY
290
     1
  9
$INSUNITS
 70
     4
  9
$HYPERLINKBASE
  1

  9
$STYLESHEET
  1

  9
$XEDIT
290
     1
  9
$CEPSNTYPE
380
     0
  9
$PSTYLEMODE
290
     1
  9
$FINGERPRINTGUID
  2
{EED4AB8E-5310-4F26-A631-7D5D5715C44C}
  9
$VERSIONGUID
  2
{FAEB1C32-E019-11D5-929B-00C0DF256EC4}
  9
$EXTNAMES
290
     1
  9
$PSVPSCALE
 40
0.0
  9
$OLESTARTUP
290
     0
  0
ENDSEC
  0
SECTION
  2
CLASSES
  0
CLASS
  1
ACDBDICTIONARYWDFLT
  2
AcDbDictionaryWithDefault
  3
ObjectDBX Classes
 90
        0
280
     0
281
     0
  0
CLASS
  1
VISUALSTYLE
  2
AcDbVisualStyle
  3
ObjectDBX Classes
 90
     4095
280
     0
281
     0
  0
CLASS
  1
MATERIAL
  2
AcDbMaterial
  3
ObjectDBX Classes
 90
     1153
280
     0
281
     0
  0
CLASS
  1
SCALE
  2
AcDbScale
  3
ObjectDBX Classes
 90
     1153
280
     0
281
     0
  0
CLASS
  1
TABLESTYLE
  2
AcDbTableStyle
  3
ObjectDBX Classes
 90
     4095
280
     0
281
     0
  0
CLASS
  1
MLEADERSTYLE
  2
AcDbMLeaderStyle
  3
ACDB_MLEADERSTYLE_CLASS
 90
     4095
280
     0
281
     0
  0
CLASS
  1
SUN
  2
AcDbSun
  3
SCENEOE
 90
     1153
280
     0
281
     0
  0
CLASS
  1
ACDBPLACEHOLDER
  2
AcDbPlaceHolder
  3
ObjectDBX Classes
 90
        0
280
     0
281
     0
  0
CLASS
  1
LAYOUT
  2
AcDbLayout
  3
ObjectDBX Classes
 90
        0
280
     0
281
     0
  0
ENDSEC
  0
SECTION
  2
TABLES
  0
TABLE
  2
VPORT
  5
8
330
0
100
AcDbSymbolTable
 70
     1
  0
VPORT
  5
29
330
8
100
AcDbSymbolTableRecord
100
AcDbViewportTableRecord
  2
*Active
 70
     0
 10
0.0
 20
0.0
 11
1.0
 21
1.0
 12
210.0
 22
148.5
 13
0.0
 23
0.0
 14
10.0
 24
10.0
 15
10.0
 25
10.0
 16
0.0
 26
0.0
 36
1.0
 17
0.0
 27
0.0
 37
0.0
 40
297.0
 41
1.4141414141
 42
50.0
 43
0.0
 44
0.0
 50
0.0
 51
0.0
 71
     0
 72
  2000
 73
     1
 74
     3
 75
     0
 76
     0
 77
     0
 78
     0
281
     0
 65
     1
110
0.0
120
0.0
130
0.0
111
1.0
121
0.0
131
0.0
112
0.0
122
1.0
132
0.0
 79
     0
146
0.0
  0
ENDTAB
  0
TABLE
  2
LTYPE
  5
5
330
0
100
AcDbSymbolTable
 70
     6
  0
LTYPE
  5
14
330
5
100
AcDbSymbolTableRecord
100
AcDbLinetypeTableRecord
  2
ByBlock
 70
     0
  3

 72
    65
 73
     0
 40
0.0
  0
LTYPE
  5
15
330
5
100
AcDbSymbolTableRecord
100
AcDbLinetypeTableRecord
  2
ByLayer
 70
     0
  3

 72
    65
 73
     0
 40
0.0
  0
LTYPE
  5
16
330
5
100
AcDbSymbolTableRecord
100
AcDbLinetypeTableRecord
  2
Continuous
 70
     0
  3
Solid line
 72
    65
 73
     0
 40
0.0
  0
LTYPE
  5
6E
330
5
100
AcDbSymbolTableRecord
100
AcDbLinetypeTableRecord
  2
HIDDEN
 70
     0
  3
Hidden __ __ __ __ __ __ __ __ __ __ __ __ __ __
 72
    65
 73
     2
 40
1.905
 49
1.27
 74
     0
 49
-0.635
 74
     0
  0
LTYPE
  5
6F
330
5
100
AcDbSymbolTableRecord
100
AcDbLinetypeTableRecord
  2
PHANTOM
 70
     0
  3
Phantom ______  __  __  ______  __  __  ______
 72
    65
 73
     6
 40
12.7
 49
6.35
 74
     0
 49
-1.27
 74
     0
 49
1.27
 74
     0
 49
-1.27
 74
     0
 49
1.27
 74
     0
 49
-1.27
 74
     0
  0
LTYPE
  5
70
330
5
100
AcDbSymbolTableRecord
100
AcDbLinetypeTableRecord
  2
CENTER
 70
     0
  3
Center ____ _ ____ _ ____ _ ____ _ ____ _ ____
 72
    65
 73
     4
 40
10.16
 49
6.35
 74
     0
 49
-1.27
 74
     0
 49
1.27
 74
     0
 49
-1.27
 74
     0
  0
LTYPE
  5
71
330
5
100
AcDbSymbolTableRecord
100
AcDbLinetypeTableRecord
  2
CENTERX2
 70
     0
  3
Center (2x) ________  __  ________  __  _____
 72
    65
 73
     4
 40
20.32
 49
12.7
 74
     0
 49
-2.54
 74
     0
 49
2.54
 74
     0
 49
-2.54
 74
     0
  0
LTYPE
  5
72
330
5
100
AcDbSymbolTableRecord
100
AcDbLinetypeTableRecord
  2
DOT2
 70
     0
  3
Dot (.5x) ........................................
 72
    65
 73
     2
 40
0.635
 49
0.0
 74
     0
 49
-0.635
 74
     0
  0
ENDTAB
  0
TABLE
  2
LAYER
  5
2
330
0
100
AcDbSymbolTable
 70
     6
  0
LAYER
  5
10
330
2
100
AcDbSymbolTableRecord
100
AcDbLayerTableRecord
  2
0
 70
     0
 62
     7
  6
Continuous
370
    -3
390
F
  0
LAYER
  5
73
330
2
100
AcDbSymbolTableRecord
100
AcDbLayerTableRecord
  2
SLD-0
 70
     0
 62
   179
  6
Continuous
370
    -3
390
F
  0
LAYER
  5
74
330
2
100
AcDbSymbolTableRecord
100
AcDbLayerTableRecord
  2
1
 70
     0
 62
   179
  6
Continuous
370
    -3
390
F
  0
LAYER
  5
75
330
2
100
AcDbSymbolTableRecord
100
AcDbLayerTableRecord
  2
FORMAT
 70
     0
 62
     7
  6
Continuous
370
    -3
390
F
  0
LAYER
  5
76
330
2
100
AcDbSymbolTableRecord
100
AcDbLayerTableRecord
  2
注記
 70
     0
 62
   190
  6
Continuous
370
    -3
390
F
  0
LAYER
  5
77
330
2
100
AcDbSymbolTableRecord
100
AcDbLayerTableRecord
  2
寸法
 70
     0
 62
    96
  6
Continuous
370
    -3
390
F
  0
ENDTAB
  0
TABLE
  2
STYLE
  5
3
330
0
100
AcDbSymbolTable
 70
     2
  0
STYLE
  5
11
330
3
100
AcDbSymbolTableRecord
100
AcDbTextStyleTableRecord
  2
Standard
 70
     0
 40
0.0
 41
1.0
 50
0.0
 71
     0
 42
4.2333333333
  3
txt
  4
bigfont
  0
STYLE
  5
78
330
3
100
AcDbSymbolTableRecord
100
AcDbTextStyleTableRecord
  2
SLDTEXTSTYLE0
 70
     0
 40
0.0
 41
0.7
 50
0.0
 71
     0
 42
4.2333333333
  3
TXT
  4
bigfont
  0
ENDTAB
  0
TABLE
  2
VIEW
  5
6
330
0
100
AcDbSymbolTable
 70
     0
  0
ENDTAB
  0
TABLE
  2
UCS
  5
7
330
0
100
AcDbSymbolTable
 70
     0
  0
ENDTAB
  0
TABLE
  2
APPID
  5
9
330
0
100
AcDbSymbolTable
 70
     1
  0
APPID
  5
12
330
9
100
AcDbSymbolTableRecord
100
AcDbRegAppTableRecord
  2
ACAD
 70
     0
  0
ENDTAB
  0
TABLE
  2
DIMSTYLE
  5
A
330
0
100
AcDbSymbolTable
 70
     1
100
AcDbDimStyleTable
  0
DIMSTYLE
105
27
330
A
100
AcDbSymbolTableRecord
100
AcDbDimStyleTableRecord
  2
ISO-25
 70
     0
 41
2.5
 42
0.625
 43
3.75
 44
1.25
 73
     0
 74
     0
 77
     1
 78
     8
140
2.5
141
2.5
143
0.0393700787
147
0.625
171
     3
172
     1
178
     0
271
     2
272
     2
274
     3
278
    44
283
     0
284
     8
340
11
  0
ENDTAB
  0
TABLE
  2
BLOCK_RECORD
  5
1
330
0
100
AcDbSymbolTable
 70
    12
  0
BLOCK_RECORD
  5
1F
330
1
100
AcDbSymbolTableRecord
100
AcDbBlockTableRecord
  2
*Model_Space
340
22
  0
BLOCK_RECORD
  5
1B
330
1
100
AcDbSymbolTableRecord
100
AcDbBlockTableRecord
  2
*Paper_Space
340
1E
  0
BLOCK_RECORD
  5
23
330
1
100
AcDbSymbolTableRecord
100
AcDbBlockTableRecord
  2
*Paper_Space0
340
26
  0
BLOCK_RECORD
  5
10E
330
1
100
AcDbSymbolTableRecord
100
AcDbBlockTableRecord
  2
SW_CENTERMARKSYMBOL_0
340
0
102
{BLKREFS
331
165
102
}
  0
BLOCK_RECORD
  5
166
330
1
100
AcDbSymbolTableRecord
100
AcDbBlockTableRecord
  2
SW_CENTERMARKSYMBOL_1
340
0
102
{BLKREFS
331
1A1
102
}
  0
BLOCK_RECORD
  5
1A2
330
1
100
AcDbSymbolTableRecord
100
AcDbBlockTableRecord
  2
SW_CENTERMARKSYMBOL_2
340
0
102
{BLKREFS
331
1AD
102
}
  0
BLOCK_RECORD
  5
1AE
330
1
100
AcDbSymbolTableRecord
100
AcDbBlockTableRecord
  2
SW_CENTERMARKSYMBOL_3
340
0
102
{BLKREFS
331
1B9
102
}
  0
BLOCK_RECORD
  5
1BA
330
1
100
AcDbSymbolTableRecord
100
AcDbBlockTableRecord
  2
SW_CENTERMARKSYMBOL_4
340
0
102
{BLKREFS
331
1DD
102
}
  0
BLOCK_RECORD
  5
1EE
330
1
100
AcDbSymbolTableRecord
100
AcDbBlockTableRecord
  2
SW_DOWELSYMBOL_0
340
0
102
{BLKREFS
331
1F4
102
}
  0
BLOCK_RECORD
  5
2CA
330
1
100
AcDbSymbolTableRecord
100
AcDbBlockTableRecord
  2
SW_CENTERMARKSYMBOL_5
340
0
102
{BLKREFS
331
2ED
102
}
  0
BLOCK_RECORD
  5
2EE
330
1
100
AcDbSymbolTableRecord
100
AcDbBlockTableRecord
  2
SW_CENTERMARKSYMBOL_6
340
0
102
{BLKREFS
331
311
102
}
  0
BLOCK_RECORD
  5
312
330
1
100
AcDbSymbolTableRecord
100
AcDbBlockTableRecord
  2
SW_CENTERMARKSYMBOL_7
340
0
102
{BLKREFS
331
31D
102
}
  0
BLOCK_RECORD
  5
31E
330
1
100
AcDbSymbolTableRecord
100
AcDbBlockTableRecord
  2
SW_CENTERMARKSYMBOL_8
340
0
102
{BLKREFS
331
375
102
}
  0
BLOCK_RECORD
  5
376
330
1
100
AcDbSymbolTableRecord
100
AcDbBlockTableRecord
  2
SW_CENTERMARKSYMBOL_9
340
0
102
{BLKREFS
331
381
102
}
  0
ENDTAB
  0
ENDSEC
  0
SECTION
  2
BLOCKS
  0
BLOCK
  5
20
330
1F
100
AcDbEntity
  8
0
100
AcDbBlockBegin
  2
*Model_Space
 70
     0
 10
0.0
 20
0.0
 30
0.0
  3
*Model_Space
  1

  0
ENDBLK
  5
21
330
1F
100
AcDbEntity
  8
0
100
AcDbBlockEnd
  0
BLOCK
  5
1C
330
1B
100
AcDbEntity
 67
     1
  8
0
100
AcDbBlockBegin
  2
*Paper_Space
 70
     0
 10
0.0
 20
0.0
 30
0.0
  3
*Paper_Space
  1

  0
ENDBLK
  5
1D
330
1B
100
AcDbEntity
 67
     1
  8
0
100
AcDbBlockEnd
  0
BLOCK
  5
24
330
23
100
AcDbEntity
  8
0
100
AcDbBlockBegin
  2
*Paper_Space0
 70
     0
 10
0.0
 20
0.0
 30
0.0
  3
*Paper_Space0
  1

  0
ENDBLK
  5
25
330
23
100
AcDbEntity
  8
0
100
AcDbBlockEnd
  0
BLOCK
  5
10F
330
10E
100
AcDbEntity
  8
0
100
AcDbBlockBegin
  2
SW_CENTERMARKSYMBOL_0
 70
     0
 10
0.0
 20
0.0
 30
0.0
  3
SW_CENTERMARKSYMBOL_0
  1

  0
ARC
  5
111
330
10E
100
AcDbEntity
  8
0
  6
Continuous
 62
     0
370
     0
100
AcDbCircle
 10
-10.9998094169
 20
-41.0518476173
 30
0.0
 40
42.5
100
AcDbArc
 50
75.0
 51
76.3481359885
  0
ARC
  5
112
330
10E
100
AcDbEntity
  8
0
  6
Continuous
 62
     0
370
     0
100
AcDbCircle
 10
-10.9998094169
 20
-41.0518476173
 30
0.0
 40
42.50000000000001
100
AcDbArc
 50
73.6518640115
 51
75.0
  0
ARC
  5
113
330
10E
100
AcDbEntity
  8
0
  6
Continuous
 62
     0
370
     0
100
AcDbCircle
 10
-10.9998094169
 20
-41.0518476173
 30
0.0
 40
42.50000000000001
100
AcDbArc
 50
45.0
 51
46.3481359885
  0
ARC
  5
114
330
10E
100
AcDbEntity
  8
0
  6
Continuous
 62
     0
370
     0
100
AcDbCircle
 10
-10.9998094169
 20
-41.0518476173
 30
0.0
 40
42.50000000000001
100
AcDbArc
 50
43.6518640115
 51
45.0
  0
ARC
  5
115
330
10E
100
AcDbEntity
  8
0
  6
Continuous
 62
     0
370
     0
100
AcDbCircle
 10
-10.9998094169
 20
-41.0518476173
 30
0.0
 40
42.50000000000001
100
AcDbArc
 50
15.0
 51
16.3481359885
  0
ARC
  5
116
330
10E
100
AcDbEntity
  8
0
  6
Continuous
 62
     0
370
     0
100
AcDbCircle
 10
-10.9998094169
 20
-41.0518476173
 30
0.0
 40
42.50000000000001
100
AcDbArc
 50
13.6518640115
 51
15.0
  0
ARC
  5
117
330
10E
100
AcDbEntity
  8
0
  6
Continuous
 62
     0
370
     0
100
AcDbCircle
 10
-10.9998094169
 20
-41.0518476173
 30
0.0
 40
42.50000000000001
100
AcDbArc
 50
345.0
 51
346.3481359885
  0
ARC
  5
118
330
10E
100
AcDbEntity
  8
0
  6
Continuous
 62
     0
370
     0
100
AcDbCircle
 10
-10.9998094169
 20
-41.0518476173
 30
0.0
 40
42.50000000000001
100
AcDbArc
 50
343.6518640115
 51
345.0
  0
ARC
  5
119
330
10E
100
AcDbEntity
  8
0
  6
Continuous
 62
     0
370
     0
100
AcDbCircle
 10
-10.9998094169
 20
-41.0518476173
 30
0.0
 40
42.50000000000001
100
AcDbArc
 50
315.0
 51
316.3481359885
  0
ARC
  5
11A
330
10E
100
AcDbEntity
  8
0
  6
Continuous
 62
     0
370
     0
100
AcDbCircle
 10
-10.9998094169
 20
-41.0518476173
 30
0.0
 40
42.50000000000001
100
AcDbArc
 50
313.6518640115
 51
315.0
  0
ARC
  5
11B
330
10E
100
AcDbEntity
  8
0
  6
Continuous
 62
     0
370
     0
100
AcDbCircle
 10
-10.9998094169
 20
-41.0518476173
 30
0.0
 40
42.5
100
AcDbArc
 50
285.0
 51
286.3481359885
  0
ARC
  5
11C
330
10E
100
AcDbEntity
  8
0
  6
Continuous
 62
     0
370
     0
100
AcDbCircle
 10
-10.9998094169
 20
-41.0518476173
 30
0.0
 40
42.5
100
AcDbArc
 50
283.6518640115
 51
285.0
  0
ARC
  5
11D
330
10E
100
AcDbEntity
  8
0
  6
Continuous
 62
     0
370
     0
100
AcDbCircle
 10
-10.9998094169
 20
-41.0518476173
 30
0.0
 40
42.50000000000001
100
AcDbArc
 50
255.0
 51
256.3481359885
  0
ARC
  5
11E
330
10E
100
AcDbEntity
  8
0
  6
Continuous
 62
     0
370
     0
100
AcDbCircle
 10
-10.9998094169
 20
-41.0518476173
 30
0.0
 40
42.50000000000001
100
AcDbArc
 50
253.6518640115
 51
255.0
  0
ARC
  5
11F
330
10E
100
AcDbEntity
  8
0
  6
Continuous
 62
     0
370
     0
100
AcDbCircle
 10
-10.9998094169
 20
-41.0518476173
 30
0.0
 40
42.50000000000001
100
AcDbArc
 50
225.0
 51
226.3481359885
  0
ARC
  5
120
330
10E
100
AcDbEntity
  8
0
  6
Continuous
 62
     0
370
     0
100
AcDbCircle
 10
-10.9998094169
 20
-41.0518476173
 30
0.0
 40
42.50000000000001
100
AcDbArc
 50
223.6518640115
 51
225.0
  0
ARC
  5
121
330
10E
100
AcDbEntity
  8
0
  6
Continuous
 62
     0
370
     0
100
AcDbCircle
 10
-10.9998094169
 20
-41.0518476173
 30
0.0
 40
42.5
100
AcDbArc
 50
195.0
 51
196.3481359885
  0
ARC
  5
122
330
10E
100
AcDbEntity
  8
0
  6
Continuous
 62
     0
370
     0
100
AcDbCircle
 10
-10.9998094169
 20
-41.0518476173
 30
0.0
 40
42.5
100
AcDbArc
 50
193.6518640115
 51
195.0
  0
ARC
  5
123
330
10E
100
AcDbEntity
  8
0
  6
Continuous
 62
     0
370
     0
100
AcDbCircle
 10
-10.9998094169
 20
-41.0518476173
 30
0.0
 40
42.5
100
AcDbArc
 50
165.0
 51
166.3481359885
  0
ARC
  5
124
330
10E
100
AcDbEntity
  8
0
  6
Continuous
 62
     0
370
     0
100
AcDbCircle
 10
-10.9998094169
 20
-41.0518476173
 30
0.0
 40
42.5
100
AcDbArc
 50
163.6518640115
 51
165.0
  0
ARC
  5
125
330
10E
100
AcDbEntity
  8
0
  6
Continuous
 62
     0
370
     0
100
AcDbCircle
 10
-10.9998094169
 20
-41.0518476173
 30
0.0
 40
42.50000000000001
100
AcDbArc
 50
135.0
 51
136.3481359885
  0
ARC
  5
126
330
10E
100
AcDbEntity
  8
0
  6
Continuous
 62
     0
370
     0
100
AcDbCircle
 10
-10.9998094169
 20
-41.0518476173
 30
0.0
 40
42.50000000000001
100
AcDbArc
 50
133.6518640115
 51
135.0
  0
ARC
  5
127
330
10E
100
AcDbEntity
  8
0
  6
Continuous
 62
     0
370
     0
100
AcDbCircle
 10
-10.9998094169
 20
-41.0518476173
 30
0.0
 40
42.50000000000001
100
AcDbArc
 50
105.0
 51
106.3481359885
  0
ARC
  5
128
330
10E
100
AcDbEntity
  8
0
  6
Continuous
 62
     0
370
     0
100
AcDbCircle
 10
-10.9998094169
 20
-41.0518476173
 30
0.0
 40
42.50000000000001
100
AcDbArc
 50
103.6518640115
 51
105.0
  0
ARC
  5
129
330
10E
100
AcDbEntity
  8
0
  6
CENTERX2
 62
     0
370
     0
100
AcDbCircle
 10
-10.9998094169
 20
-41.0518476173
 30
0.0
 40
42.5
100
AcDbArc
 50
17.6962719771
 51
42.3037280229
  0
ARC
  5
12A
330
10E
100
AcDbEntity
  8
0
  6
CENTERX2
 62
     0
370
     0
100
AcDbCircle
 10
-10.9998094169
 20
-41.0518476173
 30
0.0
 40
42.5
100
AcDbArc
 50
47.6962719771
 51
72.3037280229
  0
ARC
  5
12B
330
10E
100
AcDbEntity
  8
0
  6
CENTERX2
 62
     0
370
     0
100
AcDbCircle
 10
-10.9998094169
 20
-41.0518476173
 30
0.0
 40
42.5
100
AcDbArc
 50
77.6962719771
 51
102.3037280229
  0
ARC
  5
12C
330
10E
100
AcDbEntity
  8
0
  6
CENTERX2
 62
     0
370
     0
100
AcDbCircle
 10
-10.9998094169
 20
-41.0518476173
 30
0.0
 40
42.5
100
AcDbArc
 50
107.6962719771
 51
132.3037280229
  0
ARC
  5
12D
330
10E
100
AcDbEntity
  8
0
  6
CENTERX2
 62
     0
370
     0
100
AcDbCircle
 10
-10.9998094169
 20
-41.0518476173
 30
0.0
 40
42.49999999999999
100
AcDbArc
 50
137.6962719771
 51
162.3037280229
  0
ARC
  5
12E
330
10E
100
AcDbEntity
  8
0
  6
CENTERX2
 62
     0
370
     0
100
AcDbCircle
 10
-10.9998094169
 20
-41.0518476173
 30
0.0
 40
42.5
100
AcDbArc
 50
167.6962719771
 51
192.3037280229
  0
ARC
  5
12F
330
10E
100
AcDbEntity
  8
0
  6
CENTERX2
 62
     0
370
     0
100
AcDbCircle
 10
-10.9998094169
 20
-41.0518476173
 30
0.0
 40
42.5
100
AcDbArc
 50
197.6962719771
 51
222.3037280229
  0
ARC
  5
130
330
10E
100
AcDbEntity
  8
0
  6
CENTERX2
 62
     0
370
     0
100
AcDbCircle
 10
-10.9998094169
 20
-41.0518476173
 30
0.0
 40
42.50000000000001
100
AcDbArc
 50
227.6962719771
 51
252.3037280229
  0
ARC
  5
131
330
10E
100
AcDbEntity
  8
0
  6
CENTERX2
 62
     0
370
     0
100
AcDbCircle
 10
-10.9998094169
 20
-41.0518476173
 30
0.0
 40
42.5
100
AcDbArc
 50
257.6962719771
 51
282.3037280229
  0
ARC
  5
132
330
10E
100
AcDbEntity
  8
0
  6
CENTERX2
 62
     0
370
     0
100
AcDbCircle
 10
-10.9998094169
 20
-41.0518476173
 30
0.0
 40
42.50000000000001
100
AcDbArc
 50
287.6962719771
 51
312.3037280229
  0
ARC
  5
133
330
10E
100
AcDbEntity
  8
0
  6
CENTERX2
 62
     0
370
     0
100
AcDbCircle
 10
-10.9998094169
 20
-41.0518476173
 30
0.0
 40
42.5
100
AcDbArc
 50
317.6962719771
 51
342.3037280229
  0
ARC
  5
134
330
10E
100
AcDbEntity
  8
0
  6
CENTERX2
 62
     0
370
     0
100
AcDbCircle
 10
-10.9998094169
 20
-41.0518476173
 30
0.0
 40
42.5
100
AcDbArc
 50
347.6962719771
 51
12.3037280229
  0
LINE
  5
135
330
10E
100
AcDbEntity
  8
0
  6
Continuous
 62
     0
370
     0
100
AcDbLine
 10
0.0
 20
0.0
 30
0.0
 11
0.2588190451
 21
0.9659258263
 31
0.0
  0
LINE
  5
136
330
10E
100
AcDbEntity
  8
0
  6
Continuous
 62
     0
370
     0
100
AcDbLine
 10
0.0
 20
0.0
 30
0.0
 11
-0.2588190451
 21
-0.9659258263
 31
0.0
  0
LINE
  5
137
330
10E
100
AcDbEntity
  8
0
  6
Continuous
 62
     0
370
     0
100
AcDbLine
 10
0.5176380902
 20
1.9318516526
 30
0.0
 11
0.7893980876
 21
2.9460737702
 31
0.0
  0
LINE
  5
138
330
10E
100
AcDbEntity
  8
0
  6
Continuous
 62
     0
370
     0
100
AcDbLine
 10
-0.5176380902
 20
-1.9318516526
 30
0.0
 11
-0.7893980876
 21
-2.9460737702
 31
0.0
  0
LINE
  5
139
330
10E
100
AcDbEntity
  8
0
  6
Continuous
 62
     0
370
     0
100
AcDbLine
 10
19.0522287836
 20
-10.9998094169
 30
0.0
 11
19.7593355648
 21
-10.2927026357
 31
0.0
  0
LINE
  5
13A
330
10E
100
AcDbEntity
  8
0
  6
Continuous
 62
     0
370
     0
100
AcDbLine
 10
19.0522287836
 20
-10.9998094169
 30
0.0
 11
18.3451220024
 21
-11.706916198
 31
0.0
  0
LINE
  5
13B
330
10E
100
AcDbEntity
  8
0
  6
Continuous
 62
     0
370
     0
100
AcDbLine
 10
20.4664423459
 20
-9.5855958545
 30
0.0
 11
21.2089044662
 21
-8.8431337342
 31
0.0
  0
LINE
  5
13C
330
10E
100
AcDbEntity
  8
0
  6
Continuous
 62
     0
370
     0
100
AcDbLine
 10
17.6380152212
 20
-12.4140229792
 30
0.0
 11
16.895553101
 21
-13.1564850995
 31
0.0
  0
LINE
  5
13D
330
10E
100
AcDbEntity
  8
0
  6
Continuous
 62
     0
370
     0
100
AcDbLine
 10
30.0520382004
 20
-30.0520382004
 30
0.0
 11
31.0179640267
 21
-29.7932191553
 31
0.0
  0
LINE
  5
13E
330
10E
100
AcDbEntity
  8
0
  6
Continuous
 62
     0
370
     0
100
AcDbLine
 10
30.0520382004
 20
-30.0520382004
 30
0.0
 11
29.0861123741
 21
-30.3108572455
 31
0.0
  0
LINE
  5
13F
330
10E
100
AcDbEntity
  8
0
  6
Continuous
 62
     0
370
     0
100
AcDbLine
 10
31.983889853
 20
-29.5344001102
 30
0.0
 11
32.9981119706
 21
-29.2626401129
 31
0.0
  0
LINE
  5
140
330
10E
100
AcDbEntity
  8
0
  6
Continuous
 62
     0
370
     0
100
AcDbLine
 10
28.1201865479
 20
-30.5696762906
 30
0.0
 11
27.1059644302
 21
-30.841436288
 31
0.0
  0
LINE
  5
141
330
10E
100
AcDbEntity
  8
0
  6
Continuous
 62
     0
370
     0
100
AcDbLine
 10
30.0520382004
 20
-52.0516570341
 30
0.0
 11
31.0179640267
 21
-52.3104760792
 31
0.0
  0
LINE
  5
142
330
10E
100
AcDbEntity
  8
0
  6
Continuous
 62
     0
370
     0
100
AcDbLine
 10
30.0520382004
 20
-52.0516570341
 30
0.0
 11
29.0861123741
 21
-51.792837989
 31
0.0
  0
LINE
  5
143
330
10E
100
AcDbEntity
  8
0
  6
Continuous
 62
     0
370
     0
100
AcDbLine
 10
31.983889853
 20
-52.5692951243
 30
0.0
 11
32.9981119706
 21
-52.8410551217
 31
0.0
  0
LINE
  5
144
330
10E
100
AcDbEntity
  8
0
  6
Continuous
 62
     0
370
     0
100
AcDbLine
 10
28.1201865479
 20
-51.5340189439
 30
0.0
 11
27.1059644302
 21
-51.2622589466
 31
0.0
  0
LINE
  5
145
330
10E
100
AcDbEntity
  8
0
  6
Continuous
 62
     0
370
     0
100
AcDbLine
 10
19.0522287836
 20
-71.1038858177
 30
0.0
 11
19.7593355648
 21
-71.8109925989
 31
0.0
  0
LINE
  5
146
330
10E
100
AcDbEntity
  8
0
  6
Continuous
 62
     0
370
     0
100
AcDbLine
 10
19.0522287836
 20
-71.1038858177
 30
0.0
 11
18.3451220024
 21
-70.3967790365
 31
0.0
  0
LINE
  5
147
330
10E
100
AcDbEntity
  8
0
  6
Continuous
 62
     0
370
     0
100
AcDbLine
 10
20.4664423459
 20
-72.5180993801
 30
0.0
 11
21.2089044662
 21
-73.2605615003
 31
0.0
  0
LINE
  5
148
330
10E
100
AcDbEntity
  8
0
  6
Continuous
 62
     0
370
     0
100
AcDbLine
 10
17.6380152212
 20
-69.6896722553
 30
0.0
 11
16.895553101
 21
-68.9472101351
 31
0.0
  0
LINE
  5
149
330
10E
100
AcDbEntity
  8
0
  6
Continuous
 62
     0
370
     0
100
AcDbLine
 10
0.0
 20
-82.1036952346
 30
0.0
 11
0.2588190451
 21
-83.0696210609
 31
0.0
  0
LINE
  5
14A
330
10E
100
AcDbEntity
  8
0
  6
Continuous
 62
     0
370
     0
100
AcDbLine
 10
0.0
 20
-82.1036952346
 30
0.0
 11
-0.2588190451
 21
-81.1377694083
 31
0.0
  0
LINE
  5
14B
330
10E
100
AcDbEntity
  8
0
  6
Continuous
 62
     0
370
     0
100
AcDbLine
 10
0.5176380902
 20
-84.0355468871
 30
0.0
 11
0.7893980876
 21
-85.0497690048
 31
0.0
  0
LINE
  5
14C
330
10E
100
AcDbEntity
  8
0
  6
Continuous
 62
     0
370
     0
100
AcDbLine
 10
-0.5176380902
 20
-80.171843582
 30
0.0
 11
-0.7893980876
 21
-79.1576214644
 31
0.0
  0
LINE
  5
14D
330
10E
100
AcDbEntity
  8
0
  6
Continuous
 62
     0
370
     0
100
AcDbLine
 10
-21.9996188337
 20
-82.1036952346
 30
0.0
 11
-22.2584378788
 21
-83.0696210609
 31
0.0
  0
LINE
  5
14E
330
10E
100
AcDbEntity
  8
0
  6
Continuous
 62
     0
370
     0
100
AcDbLine
 10
-21.9996188337
 20
-82.1036952346
 30
0.0
 11
-21.7407997886
 21
-81.1377694083
 31
0.0
  0
LINE
  5
14F
330
10E
100
AcDbEntity
  8
0
  6
Continuous
 62
     0
370
     0
100
AcDbLine
 10
-22.5172569239
 20
-84.0355468871
 30
0.0
 11
-22.7890169213
 21
-85.0497690048
 31
0.0
  0
LINE
  5
150
330
10E
100
AcDbEntity
  8
0
  6
Continuous
 62
     0
370
     0
100
AcDbLine
 10
-21.4819807435
 20
-80.171843582
 30
0.0
 11
-21.2102207462
 21
-79.1576214644
 31
0.0
  0
LINE
  5
151
330
10E
100
AcDbEntity
  8
0
  6
Continuous
 62
     0
370
     0
100
AcDbLine
 10
-41.0518476173
 20
-71.1038858177
 30
0.0
 11
-41.7589543985
 21
-71.8109925989
 31
0.0
  0
LINE
  5
152
330
10E
100
AcDbEntity
  8
0
  6
Continuous
 62
     0
370
     0
100
AcDbLine
 10
-41.0518476173
 20
-71.1038858177
 30
0.0
 11
-40.3447408361
 21
-70.3967790365
 31
0.0
  0
LINE
  5
153
330
10E
100
AcDbEntity
  8
0
  6
Continuous
 62
     0
370
     0
100
AcDbLine
 10
-42.4660611797
 20
-72.5180993801
 30
0.0
 11
-43.2085232999
 21
-73.2605615003
 31
0.0
  0
LINE
  5
154
330
10E
100
AcDbEntity
  8
0
  6
Continuous
 62
     0
370
     0
100
AcDbLine
 10
-39.6376340549
 20
-69.6896722553
 30
0.0
 11
-38.8951719347
 21
-68.9472101351
 31
0.0
  0
LINE
  5
155
330
10E
100
AcDbEntity
  8
0
  6
Continuous
 62
     0
370
     0
100
AcDbLine
 10
-52.0516570341
 20
-52.0516570341
 30
0.0
 11
-53.0175828604
 21
-52.3104760792
 31
0.0
  0
LINE
  5
156
330
10E
100
AcDbEntity
  8
0
  6
Continuous
 62
     0
370
     0
100
AcDbLine
 10
-52.0516570341
 20
-52.0516570341
 30
0.0
 11
-51.0857312079
 21
-51.792837989
 31
0.0
  0
LINE
  5
157
330
10E
100
AcDbEntity
  8
0
  6
Continuous
 62
     0
370
     0
100
AcDbLine
 10
-53.9835086867
 20
-52.5692951243
 30
0.0
 11
-54.9977308043
 21
-52.8410551217
 31
0.0
  0
LINE
  5
158
330
10E
100
AcDbEntity
  8
0
  6
Continuous
 62
     0
370
     0
100
AcDbLine
 10
-50.1198053816
 20
-51.5340189439
 30
0.0
 11
-49.105583264
 21
-51.2622589466
 31
0.0
  0
LINE
  5
159
330
10E
100
AcDbEntity
  8
0
  6
Continuous
 62
     0
370
     0
100
AcDbLine
 10
-52.0516570341
 20
-30.0520382004
 30
0.0
 11
-53.0175828604
 21
-29.7932191553
 31
0.0
  0
LINE
  5
15A
330
10E
100
AcDbEntity
  8
0
  6
Continuous
 62
     0
370
     0
100
AcDbLine
 10
-52.0516570341
 20
-30.0520382004
 30
0.0
 11
-51.0857312079
 21
-30.3108572455
 31
0.0
  0
LINE
  5
15B
330
10E
100
AcDbEntity
  8
0
  6
Continuous
 62
     0
370
     0
100
AcDbLine
 10
-53.9835086867
 20
-29.5344001102
 30
0.0
 11
-54.9977308043
 21
-29.2626401129
 31
0.0
  0
LINE
  5
15C
330
10E
100
AcDbEntity
  8
0
  6
Continuous
 62
     0
370
     0
100
AcDbLine
 10
-50.1198053816
 20
-30.5696762906
 30
0.0
 11
-49.105583264
 21
-30.841436288
 31
0.0
  0
LINE
  5
15D
330
10E
100
AcDbEntity
  8
0
  6
Continuous
 62
     0
370
     0
100
AcDbLine
 10
-41.0518476173
 20
-10.9998094169
 30
0.0
 11
-41.7589543985
 21
-10.2927026357
 31
0.0
  0
LINE
  5
15E
330
10E
100
AcDbEntity
  8
0
  6
Continuous
 62
     0
370
     0
100
AcDbLine
 10
-41.0518476173
 20
-10.9998094169
 30
0.0
 11
-40.3447408361
 21
-11.706916198
 31
0.0
  0
LINE
  5
15F
330
10E
100
AcDbEntity
  8
0
  6
Continuous
 62
     0
370
     0
100
AcDbLine
 10
-42.4660611797
 20
-9.5855958545
 30
0.0
 11
-43.2085232999
 21
-8.8431337342
 31
0.0
  0
LINE
  5
160
330
10E
100
AcDbEntity
  8
0
  6
Continuous
 62
     0
370
     0
100
AcDbLine
 10
-39.6376340549
 20
-12.4140229792
 30
0.0
 11
-38.8951719347
 21
-13.1564850995
 31
0.0
  0
LINE
  5
161
330
10E
100
AcDbEntity
  8
0
  6
Continuous
 62
     0
370
     0
100
AcDbLine
 10
-21.9996188337
 20
0.0
 30
0.0
 11
-22.2584378788
 21
0.9659258263
 31
0.0
  0
LINE
  5
162
330
10E
100
AcDbEntity
  8
0
  6
Continuous
 62
     0
370
     0
100
AcDbLine
 10
-21.9996188337
 20
0.0
 30
0.0
 11
-21.7407997886
 21
-0.9659258263
 31
0.0
  0
LINE
  5
163
330
10E
100
AcDbEntity
  8
0
  6
Continuous
 62
     0
370
     0
100
AcDbLine
 10
-22.5172569239
 20
1.9318516526
 30
0.0
 11
-22.7890169213
 21
2.9460737702
 31
0.0
  0
LINE
  5
164
330
10E
100
AcDbEntity
  8
0
  6
Continuous
 62
     0
370
     0
100
AcDbLine
 10
-21.4819807435
 20
-1.9318516526
 30
0.0
 11
-21.2102207462
 21
-2.9460737702
 31
0.0
  0
ENDBLK
  5
110
330
10E
100
AcDbEntity
  8
0
100
AcDbBlockEnd
  0
BLOCK
  5
167
330
166
100
AcDbEntity
  8
0
100
AcDbBlockBegin
  2
SW_CENTERMARKSYMBOL_1
 70
     0
 10
0.0
 20
0.0
 30
0.0
  3
SW_CENTERMARKSYMBOL_1
  1

  0
ARC
  5
169
330
166
100
AcDbEntity
  8
0
  6
Continuous
 62
     0
370
     0
100
AcDbCircle
 10
0.0
 20
-25.0
 30
0.0
 40
25.0
100
AcDbArc
 50
90.0
 51
92.2918311805
  0
ARC
  5
16A
330
166
100
AcDbEntity
  8
0
  6
Continuous
 62
     0
370
     0
100
AcDbCircle
 10
0.0
 20
-25.0
 30
0.0
 40
25.0
100
AcDbArc
 50
87.7081688195
 51
90.0
  0
ARC
  5
16B
330
166
100
AcDbEntity
  8
0
  6
Continuous
 62
     0
370
     0
100
AcDbCircle
 10
0.0
 20
-25.0
 30
0.0
 40
25.0
100
AcDbArc
 50
135.0
 51
137.2918311805
  0
ARC
  5
16C
330
166
100
AcDbEntity
  8
0
  6
Continuous
 62
     0
370
     0
100
AcDbCircle
 10
0.0
 20
-25.0
 30
0.0
 40
25.00000000000001
100
AcDbArc
 50
132.7081688195
 51
135.0
  0
ARC
  5
16D
330
166
100
AcDbEntity
  8
0
  6
Continuous
 62
     0
370
     0
100
AcDbCircle
 10
0.0
 20
-25.0
 30
0.0
 40
25.0
100
AcDbArc
 50
180.0
 51
182.2918311805
  0
ARC
  5
16E
330
166
100
AcDbEntity
  8
0
  6
Continuous
 62
     0
370
     0
100
AcDbCircle
 10
0.0
 20
-25.0
 30
0.0
 40
25.0
100
AcDbArc
 50
177.7081688195
 51
180.0
  0
ARC
  5
16F
330
166
100
AcDbEntity
  8
0
  6
Continuous
 62
     0
370
     0
100
AcDbCircle
 10
0.0
 20
-25.0
 30
0.0
 40
25.00000000000001
100
AcDbArc
 50
225.0
 51
227.2918311805
  0
ARC
  5
170
330
166
100
AcDbEntity
  8
0
  6
Continuous
 62
     0
370
     0
100
AcDbCircle
 10
0.0
 20
-25.0
 30
0.0
 40
25.00000000000001
100
AcDbArc
 50
222.7081688195
 51
225.0
  0
ARC
  5
171
330
166
100
AcDbEntity
  8
0
  6
Continuous
 62
     0
370
     0
100
AcDbCircle
 10
0.0
 20
-25.0
 30
0.0
 40
25.00000000000001
100
AcDbArc
 50
270.0
 51
272.2918311805
  0
ARC
  5
172
330
166
100
AcDbEntity
  8
0
  6
Continuous
 62
     0
370
     0
100
AcDbCircle
 10
0.0
 20
-25.0
 30
0.0
 40
24.99999999999999
100
AcDbArc
 50
267.7081688195
 51
270.0
  0
ARC
  5
173
330
166
100
AcDbEntity
  8
0
  6
Continuous
 62
     0
370
     0
100
AcDbCircle
 10
0.0
 20
-25.0
 30
0.0
 40
25.00000000000001
100
AcDbArc
 50
315.0
 51
317.2918311805
  0
ARC
  5
174
330
166
100
AcDbEntity
  8
0
  6
Continuous
 62
     0
370
     0
100
AcDbCircle
 10
0.0
 20
-25.0
 30
0.0
 40
25.00000000000001
100
AcDbArc
 50
312.7081688195
 51
315.0
  0
ARC
  5
175
330
166
100
AcDbEntity
  8
0
  6
Continuous
 62
     0
370
     0
100
AcDbCircle
 10
0.0
 20
-25.0
 30
0.0
 40
25.0
100
AcDbArc
 50
0.0
 51
2.2918311805
  0
ARC
  5
176
330
166
100
AcDbEntity
  8
0
  6
Continuous
 62
     0
370
     0
100
AcDbCircle
 10
0.0
 20
-25.0
 30
0.0
 40
25.0
100
AcDbArc
 50
357.7081688195
 51
0.0
  0
ARC
  5
177
330
166
100
AcDbEntity
  8
0
  6
Continuous
 62
     0
370
     0
100
AcDbCircle
 10
0.0
 20
-25.0
 30
0.0
 40
25.0
100
AcDbArc
 50
45.0
 51
47.2918311805
  0
ARC
  5
178
330
166
100
AcDbEntity
  8
0
  6
Continuous
 62
     0
370
     0
100
AcDbCircle
 10
0.0
 20
-25.0
 30
0.0
 40
25.0
100
AcDbArc
 50
42.7081688195
 51
45.0
  0
ARC
  5
179
330
166
100
AcDbEntity
  8
0
  6
CENTERX2
 62
     0
370
     0
100
AcDbCircle
 10
0.0
 20
-25.0
 30
0.0
 40
25.0
100
AcDbArc
 50
4.583662361
 51
40.416337639
  0
ARC
  5
17A
330
166
100
AcDbEntity
  8
0
  6
CENTERX2
 62
     0
370
     0
100
AcDbCircle
 10
0.0
 20
-25.0
 30
0.0
 40
25.0
100
AcDbArc
 50
49.583662361
 51
85.416337639
  0
ARC
  5
17B
330
166
100
AcDbEntity
  8
0
  6
CENTERX2
 62
     0
370
     0
100
AcDbCircle
 10
0.0
 20
-25.0
 30
0.0
 40
25.00000000000001
100
AcDbArc
 50
94.583662361
 51
130.416337639
  0
ARC
  5
17C
330
166
100
AcDbEntity
  8
0
  6
CENTERX2
 62
     0
370
     0
100
AcDbCircle
 10
0.0
 20
-25.0
 30
0.0
 40
25.00000000000001
100
AcDbArc
 50
139.583662361
 51
175.416337639
  0
ARC
  5
17D
330
166
100
AcDbEntity
  8
0
  6
CENTERX2
 62
     0
370
     0
100
AcDbCircle
 10
0.0
 20
-25.0
 30
0.0
 40
25.0
100
AcDbArc
 50
184.583662361
 51
220.416337639
  0
ARC
  5
17E
330
166
100
AcDbEntity
  8
0
  6
CENTERX2
 62
     0
370
     0
100
AcDbCircle
 10
0.0
 20
-25.0
 30
0.0
 40
25.00000000000001
100
AcDbArc
 50
229.583662361
 51
265.416337639
  0
ARC
  5
17F
330
166
100
AcDbEntity
  8
0
  6
CENTERX2
 62
     0
370
     0
100
AcDbCircle
 10
0.0
 20
-25.0
 30
0.0
 40
25.00000000000002
100
AcDbArc
 50
274.583662361
 51
310.416337639
  0
ARC
  5
180
330
166
100
AcDbEntity
  8
0
  6
CENTERX2
 62
     0
370
     0
100
AcDbCircle
 10
0.0
 20
-25.0
 30
0.0
 40
25.00000000000001
100
AcDbArc
 50
319.583662361
 51
355.416337639
  0
LINE
  5
181
330
166
100
AcDbEntity
  8
0
  6
Continuous
 62
     0
370
     0
100
AcDbLine
 10
0.0
 20
0.0
 30
0.0
 11
0.0
 21
1.0
 31
0.0
  0
LINE
  5
182
330
166
100
AcDbEntity
  8
0
  6
Continuous
 62
     0
370
     0
100
AcDbLine
 10
0.0
 20
0.0
 30
0.0
 11
0.0
 21
-1.0
 31
0.0
  0
LINE
  5
183
330
166
100
AcDbEntity
  8
0
  6
Continuous
 62
     0
370
     0
100
AcDbLine
 10
0.0
 20
2.0
 30
0.0
 11
0.0
 21
2.25
 31
0.0
  0
LINE
  5
184
330
166
100
AcDbEntity
  8
0
  6
Continuous
 62
     0
370
     0
100
AcDbLine
 10
0.0
 20
-2.0
 30
0.0
 11
0.0
 21
-2.25
 31
0.0
  0
LINE
  5
185
330
166
100
AcDbEntity
  8
0
  6
Continuous
 62
     0
370
     0
100
AcDbLine
 10
-17.6776695297
 20
-7.3223304703
 30
0.0
 11
-18.3847763109
 21
-6.6152236891
 31
0.0
  0
LINE
  5
186
330
166
100
AcDbEntity
  8
0
  6
Continuous
 62
     0
370
     0
100
AcDbLine
 10
-17.6776695297
 20
-7.3223304703
 30
0.0
 11
-16.9705627485
 21
-8.0294372515
 31
0.0
  0
LINE
  5
187
330
166
100
AcDbEntity
  8
0
  6
Continuous
 62
     0
370
     0
100
AcDbLine
 10
-19.091883092
 20
-5.908116908
 30
0.0
 11
-19.2686597873
 21
-5.7313402127
 31
0.0
  0
LINE
  5
188
330
166
100
AcDbEntity
  8
0
  6
Continuous
 62
     0
370
     0
100
AcDbLine
 10
-16.2634559673
 20
-8.7365440327
 30
0.0
 11
-16.086679272
 21
-8.913320728
 31
0.0
  0
LINE
  5
189
330
166
100
AcDbEntity
  8
0
  6
Continuous
 62
     0
370
     0
100
AcDbLine
 10
-25.0
 20
-25.0
 30
0.0
 11
-26.0
 21
-25.0
 31
0.0
  0
LINE
  5
18A
330
166
100
AcDbEntity
  8
0
  6
Continuous
 62
     0
370
     0
100
AcDbLine
 10
-25.0
 20
-25.0
 30
0.0
 11
-24.0
 21
-25.0
 31
0.0
  0
LINE
  5
18B
330
166
100
AcDbEntity
  8
0
  6
Continuous
 62
     0
370
     0
100
AcDbLine
 10
-27.0
 20
-25.0
 30
0.0
 11
-27.25
 21
-25.0
 31
0.0
  0
LINE
  5
18C
330
166
100
AcDbEntity
  8
0
  6
Continuous
 62
     0
370
     0
100
AcDbLine
 10
-23.0
 20
-25.0
 30
0.0
 11
-22.75
 21
-25.0
 31
0.0
  0
LINE
  5
18D
330
166
100
AcDbEntity
  8
0
  6
Continuous
 62
     0
370
     0
100
AcDbLine
 10
-17.6776695297
 20
-42.6776695297
 30
0.0
 11
-18.3847763109
 21
-43.3847763109
 31
0.0
  0
LINE
  5
18E
330
166
100
AcDbEntity
  8
0
  6
Continuous
 62
     0
370
     0
100
AcDbLine
 10
-17.6776695297
 20
-42.6776695297
 30
0.0
 11
-16.9705627485
 21
-41.9705627485
 31
0.0
  0
LINE
  5
18F
330
166
100
AcDbEntity
  8
0
  6
Continuous
 62
     0
370
     0
100
AcDbLine
 10
-19.091883092
 20
-44.091883092
 30
0.0
 11
-19.2686597873
 21
-44.2686597873
 31
0.0
  0
LINE
  5
190
330
166
100
AcDbEntity
  8
0
  6
Continuous
 62
     0
370
     0
100
AcDbLine
 10
-16.2634559673
 20
-41.2634559673
 30
0.0
 11
-16.086679272
 21
-41.086679272
 31
0.0
  0
LINE
  5
191
330
166
100
AcDbEntity
  8
0
  6
Continuous
 62
     0
370
     0
100
AcDbLine
 10
0.0
 20
-50.0
 30
0.0
 11
0.0
 21
-51.0
 31
0.0
  0
LINE
  5
192
330
166
100
AcDbEntity
  8
0
  6
Continuous
 62
     0
370
     0
100
AcDbLine
 10
0.0
 20
-50.0
 30
0.0
 11
0.0
 21
-49.0
 31
0.0
  0
LINE
  5
193
330
166
100
AcDbEntity
  8
0
  6
Continuous
 62
     0
370
     0
100
AcDbLine
 10
0.0
 20
-52.0
 30
0.0
 11
0.0
 21
-52.25
 31
0.0
  0
LINE
  5
194
330
166
100
AcDbEntity
  8
0
  6
Continuous
 62
     0
370
     0
100
AcDbLine
 10
0.0
 20
-48.0
 30
0.0
 11
0.0
 21
-47.75
 31
0.0
  0
LINE
  5
195
330
166
100
AcDbEntity
  8
0
  6
Continuous
 62
     0
370
     0
100
AcDbLine
 10
17.6776695297
 20
-42.6776695297
 30
0.0
 11
18.3847763109
 21
-43.3847763109
 31
0.0
  0
LINE
  5
196
330
166
100
AcDbEntity
  8
0
  6
Continuous
 62
     0
370
     0
100
AcDbLine
 10
17.6776695297
 20
-42.6776695297
 30
0.0
 11
16.9705627485
 21
-41.9705627485
 31
0.0
  0
LINE
  5
197
330
166
100
AcDbEntity
  8
0
  6
Continuous
 62
     0
370
     0
100
AcDbLine
 10
19.091883092
 20
-44.091883092
 30
0.0
 11
19.2686597873
 21
-44.2686597873
 31
0.0
  0
LINE
  5
198
330
166
100
AcDbEntity
  8
0
  6
Continuous
 62
     0
370
     0
100
AcDbLine
 10
16.2634559673
 20
-41.2634559673
 30
0.0
 11
16.086679272
 21
-41.086679272
 31
0.0
  0
LINE
  5
199
330
166
100
AcDbEntity
  8
0
  6
Continuous
 62
     0
370
     0
100
AcDbLine
 10
25.0
 20
-25.0
 30
0.0
 11
26.0
 21
-25.0
 31
0.0
  0
LINE
  5
19A
330
166
100
AcDbEntity
  8
0
  6
Continuous
 62
     0
370
     0
100
AcDbLine
 10
25.0
 20
-25.0
 30
0.0
 11
24.0
 21
-25.0
 31
0.0
  0
LINE
  5
19B
330
166
100
AcDbEntity
  8
0
  6
Continuous
 62
     0
370
     0
100
AcDbLine
 10
27.0
 20
-25.0
 30
0.0
 11
27.25
 21
-25.0
 31
0.0
  0
LINE
  5
19C
330
166
100
AcDbEntity
  8
0
  6
Continuous
 62
     0
370
     0
100
AcDbLine
 10
23.0
 20
-25.0
 30
0.0
 11
22.75
 21
-25.0
 31
0.0
  0
LINE
  5
19D
330
166
100
AcDbEntity
  8
0
  6
Continuous
 62
     0
370
     0
100
AcDbLine
 10
17.6776695297
 20
-7.3223304703
 30
0.0
 11
18.3847763109
 21
-6.6152236891
 31
0.0
  0
LINE
  5
19E
330
166
100
AcDbEntity
  8
0
  6
Continuous
 62
     0
370
     0
100
AcDbLine
 10
17.6776695297
 20
-7.3223304703
 30
0.0
 11
16.9705627485
 21
-8.0294372515
 31
0.0
  0
LINE
  5
19F
330
166
100
AcDbEntity
  8
0
  6
Continuous
 62
     0
370
     0
100
AcDbLine
 10
19.091883092
 20
-5.908116908
 30
0.0
 11
19.2686597873
 21
-5.7313402127
 31
0.0
  0
LINE
  5
1A0
330
166
100
AcDbEntity
  8
0
  6
Continuous
 62
     0
370
     0
100
AcDbLine
 10
16.2634559673
 20
-8.7365440327
 30
0.0
 11
16.086679272
 21
-8.913320728
 31
0.0
  0
ENDBLK
  5
168
330
166
100
AcDbEntity
  8
0
100
AcDbBlockEnd
  0
BLOCK
  5
1A3
330
1A2
100
AcDbEntity
  8
0
100
AcDbBlockBegin
  2
SW_CENTERMARKSYMBOL_2
 70
     0
 10
0.0
 20
0.0
 30
0.0
  3
SW_CENTERMARKSYMBOL_2
  1

  0
LINE
  5
1A5
330
1A2
100
AcDbEntity
  8
0
  6
Continuous
 62
     0
370
     0
100
AcDbLine
 10
0.0
 20
0.0
 30
0.0
 11
0.0
 21
1.0
 31
0.0
  0
LINE
  5
1A6
330
1A2
100
AcDbEntity
  8
0
  6
Continuous
 62
     0
370
     0
100
AcDbLine
 10
0.0
 20
0.0
 30
0.0
 11
-1.0
 21
0.0
 31
0.0
  0
LINE
  5
1A7
330
1A2
100
AcDbEntity
  8
0
  6
Continuous
 62
     0
370
     0
100
AcDbLine
 10
0.0
 20
0.0
 30
0.0
 11
0.0
 21
-1.0
 31
0.0
  0
LINE
  5
1A8
330
1A2
100
AcDbEntity
  8
0
  6
Continuous
 62
     0
370
     0
100
AcDbLine
 10
0.0
 20
0.0
 30
0.0
 11
1.0
 21
0.0
 31
0.0
  0
LINE
  5
1A9
330
1A2
100
AcDbEntity
  8
0
  6
Continuous
 62
     0
370
     0
100
AcDbLine
 10
0.0
 20
2.0
 30
0.0
 11
0.0
 21
58.8800883194
 31
0.0
  0
LINE
  5
1AA
330
1A2
100
AcDbEntity
  8
0
  6
Continuous
 62
     0
370
     0
100
AcDbLine
 10
-2.0
 20
0.0
 30
0.0
 11
-50.9387655462
 21
0.0
 31
0.0
  0
LINE
  5
1AB
330
1A2
100
AcDbEntity
  8
0
  6
Continuous
 62
     0
370
     0
100
AcDbLine
 10
0.0
 20
-2.0
 30
0.0
 11
0.0
 21
-52.1192929527
 31
0.0
  0
LINE
  5
1AC
330
1A2
100
AcDbEntity
  8
0
  6
Continuous
 62
     0
370
     0
100
AcDbLine
 10
2.0
 20
0.0
 30
0.0
 11
51.4517528219
 21
0.0
 31
0.0
  0
ENDBLK
  5
1A4
330
1A2
100
AcDbEntity
  8
0
100
AcDbBlockEnd
  0
BLOCK
  5
1AF
330
1AE
100
AcDbEntity
  8
0
100
AcDbBlockBegin
  2
SW_CENTERMARKSYMBOL_3
 70
     0
 10
0.0
 20
0.0
 30
0.0
  3
SW_CENTERMARKSYMBOL_3
  1

  0
ARC
  5
1B1
330
1AE
100
AcDbEntity
  8
0
  6
Continuous
 62
     0
370
     0
100
AcDbCircle
 10
-9.5670858091
 20
-23.0969883128
 30
0.0
 40
25.00000000000001
100
AcDbArc
 50
67.5
 51
70.9377467708
  0
ARC
  5
1B2
330
1AE
100
AcDbEntity
  8
0
  6
Continuous
 62
     0
370
     0
100
AcDbCircle
 10
-9.5670858091
 20
-23.0969883128
 30
0.0
 40
25.00000000000001
100
AcDbArc
 50
64.0622532292
 51
67.5
  0
ARC
  5
1B3
330
1AE
100
AcDbEntity
  8
0
  6
Continuous
 62
     0
370
     0
100
AcDbCircle
 10
-9.5670858091
 20
-23.0969883128
 30
0.0
 40
25.00000000000001
100
AcDbArc
 50
70.9377467708
 51
74.3754935416
  0
ARC
  5
1B4
330
1AE
100
AcDbEntity
  8
0
  6
Continuous
 62
     0
370
     0
100
AcDbCircle
 10
-9.5670858091
 20
-23.0969883128
 30
0.0
 40
25.00000000000001
100
AcDbArc
 50
60.6245064584
 51
64.0622532292
  0
LINE
  5
1B5
330
1AE
100
AcDbEntity
  8
0
  6
Continuous
 62
     0
370
     0
100
AcDbLine
 10
0.0
 20
0.0
 30
0.0
 11
0.5740251485
 21
1.3858192988
 31
0.0
  0
LINE
  5
1B6
330
1AE
100
AcDbEntity
  8
0
  6
Continuous
 62
     0
370
     0
100
AcDbLine
 10
0.0
 20
0.0
 30
0.0
 11
-0.5740251485
 21
-1.3858192988
 31
0.0
  0
LINE
  5
1B7
330
1AE
100
AcDbEntity
  8
0
  6
Continuous
 62
     0
370
     0
100
AcDbLine
 10
0.5740251485
 20
1.3858192988
 30
0.0
 11
1.1480502971
 21
2.7716385975
 31
0.0
  0
LINE
  5
1B8
330
1AE
100
AcDbEntity
  8
0
  6
Continuous
 62
     0
370
     0
100
AcDbLine
 10
-0.5740251485
 20
-1.3858192988
 30
0.0
 11
-1.1480502971
 21
-2.7716385975
 31
0.0
  0
ENDBLK
  5
1B0
330
1AE
100
AcDbEntity
  8
0
100
AcDbBlockEnd
  0
BLOCK
  5
1BB
330
1BA
100
AcDbEntity
  8
0
100
AcDbBlockBegin
  2
SW_CENTERMARKSYMBOL_4
 70
     0
 10
0.0
 20
0.0
 30
0.0
  3
SW_CENTERMARKSYMBOL_4
  1

  0
ARC
  5
1BD
330
1BA
100
AcDbEntity
  8
0
  6
Continuous
 62
     0
370
     0
100
AcDbCircle
 10
36.8060796608
 20
-21.25
 30
0.0
 40
42.50000000000002
100
AcDbArc
 50
150.0
 51
151.3481359885
  0
ARC
  5
1BE
330
1BA
100
AcDbEntity
  8
0
  6
Continuous
 62
     0
370
     0
100
AcDbCircle
 10
36.8060796608
 20
-21.25
 30
0.0
 40
42.50000000000002
100
AcDbArc
 50
148.6518640115
 51
150.0
  0
ARC
  5
1BF
330
1BA
100
AcDbEntity
  8
0
  6
Continuous
 62
     0
370
     0
100
AcDbCircle
 10
36.8060796608
 20
-21.25
 30
0.0
 40
42.50000000000004
100
AcDbArc
 50
152.6962719771
 51
153.4377467708
  0
ARC
  5
1C0
330
1BA
100
AcDbEntity
  8
0
  6
Continuous
 62
     0
370
     0
100
AcDbCircle
 10
36.8060796608
 20
-21.25
 30
0.0
 40
42.50000000000002
100
AcDbArc
 50
146.5622532292
 51
147.3037280229
  0
ARC
  5
1C1
330
1BA
100
AcDbEntity
  8
0
  6
Continuous
 62
     0
370
     0
100
AcDbCircle
 10
36.8060796608
 20
-21.25
 30
0.0
 40
42.50000000000002
100
AcDbArc
 50
240.0
 51
241.3481359885
  0
ARC
  5
1C2
330
1BA
100
AcDbEntity
  8
0
  6
Continuous
 62
     0
370
     0
100
AcDbCircle
 10
36.8060796608
 20
-21.25
 30
0.0
 40
42.50000000000002
100
AcDbArc
 50
238.6518640115
 51
240.0
  0
ARC
  5
1C3
330
1BA
100
AcDbEntity
  8
0
  6
Continuous
 62
     0
370
     0
100
AcDbCircle
 10
36.8060796608
 20
-21.25
 30
0.0
 40
42.50000000000004
100
AcDbArc
 50
242.6962719771
 51
243.4377467708
  0
ARC
  5
1C4
330
1BA
100
AcDbEntity
  8
0
  6
Continuous
 62
     0
370
     0
100
AcDbCircle
 10
36.8060796608
 20
-21.25
 30
0.0
 40
42.50000000000002
100
AcDbArc
 50
236.5622532292
 51
237.3037280229
  0
ARC
  5
1C5
330
1BA
100
AcDbEntity
  8
0
  6
Continuous
 62
     0
370
     0
100
AcDbCircle
 10
36.8060796608
 20
-21.25
 30
0.0
 40
42.50000000000003
100
AcDbArc
 50
60.0
 51
61.3481359885
  0
ARC
  5
1C6
330
1BA
100
AcDbEntity
  8
0
  6
Continuous
 62
     0
370
     0
100
AcDbCircle
 10
36.8060796608
 20
-21.25
 30
0.0
 40
42.50000000000002
100
AcDbArc
 50
58.6518640115
 51
60.0
  0
ARC
  5
1C7
330
1BA
100
AcDbEntity
  8
0
  6
Continuous
 62
     0
370
     0
100
AcDbCircle
 10
36.8060796608
 20
-21.25
 30
0.0
 40
42.50000000000004
100
AcDbArc
 50
62.6962719771
 51
63.4377467708
  0
ARC
  5
1C8
330
1BA
100
AcDbEntity
  8
0
  6
Continuous
 62
     0
370
     0
100
AcDbCircle
 10
36.8060796608
 20
-21.25
 30
0.0
 40
42.50000000000003
100
AcDbArc
 50
56.5622532292
 51
57.3037280229
  0
ARC
  5
1C9
330
1BA
100
AcDbEntity
  8
0
  6
Continuous
 62
     0
370
     0
100
AcDbCircle
 10
36.8060796608
 20
-21.25
 30
0.0
 40
42.50000000000002
100
AcDbArc
 50
330.0
 51
331.3481359885
  0
ARC
  5
1CA
330
1BA
100
AcDbEntity
  8
0
  6
Continuous
 62
     0
370
     0
100
AcDbCircle
 10
36.8060796608
 20
-21.25
 30
0.0
 40
42.50000000000004
100
AcDbArc
 50
328.6518640115
 51
330.0
  0
ARC
  5
1CB
330
1BA
100
AcDbEntity
  8
0
  6
Continuous
 62
     0
370
     0
100
AcDbCircle
 10
36.8060796608
 20
-21.25
 30
0.0
 40
42.50000000000003
100
AcDbArc
 50
332.6962719771
 51
333.4377467708
  0
ARC
  5
1CC
330
1BA
100
AcDbEntity
  8
0
  6
Continuous
 62
     0
370
     0
100
AcDbCircle
 10
36.8060796608
 20
-21.25
 30
0.0
 40
42.50000000000004
100
AcDbArc
 50
326.5622532292
 51
327.3037280229
  0
LINE
  5
1CD
330
1BA
100
AcDbEntity
  8
0
  6
Continuous
 62
     0
370
     0
100
AcDbLine
 10
0.0
 20
0.0
 30
0.0
 11
-0.8660254038
 21
0.5
 31
0.0
  0
LINE
  5
1CE
330
1BA
100
AcDbEntity
  8
0
  6
Continuous
 62
     0
370
     0
100
AcDbLine
 10
0.0
 20
0.0
 30
0.0
 11
0.8660254038
 21
-0.5
 31
0.0
  0
LINE
  5
1CF
330
1BA
100
AcDbEntity
  8
0
  6
Continuous
 62
     0
370
     0
100
AcDbLine
 10
-1.7320508076
 20
1.0
 30
0.0
 11
-2.2083647797
 21
1.275
 31
0.0
  0
LINE
  5
1D0
330
1BA
100
AcDbEntity
  8
0
  6
Continuous
 62
     0
370
     0
100
AcDbLine
 10
1.7320508076
 20
-1.0
 30
0.0
 11
2.2083647797
 21
-1.275
 31
0.0
  0
LINE
  5
1D1
330
1BA
100
AcDbEntity
  8
0
  6
Continuous
 62
     0
370
     0
100
AcDbLine
 10
15.5560796608
 20
-58.0560796608
 30
0.0
 11
15.0560796608
 21
-58.9221050646
 31
0.0
  0
LINE
  5
1D2
330
1BA
100
AcDbEntity
  8
0
  6
Continuous
 62
     0
370
     0
100
AcDbLine
 10
15.5560796608
 20
-58.0560796608
 30
0.0
 11
16.0560796608
 21
-57.1900542571
 31
0.0
  0
LINE
  5
1D3
330
1BA
100
AcDbEntity
  8
0
  6
Continuous
 62
     0
370
     0
100
AcDbLine
 10
14.5560796608
 20
-59.7881304684
 30
0.0
 11
14.2810796608
 21
-60.2644444405
 31
0.0
  0
LINE
  5
1D4
330
1BA
100
AcDbEntity
  8
0
  6
Continuous
 62
     0
370
     0
100
AcDbLine
 10
16.5560796608
 20
-56.3240288533
 30
0.0
 11
16.8310796608
 21
-55.8477148812
 31
0.0
  0
LINE
  5
1D5
330
1BA
100
AcDbEntity
  8
0
  6
Continuous
 62
     0
370
     0
100
AcDbLine
 10
58.0560796608
 20
15.5560796608
 30
0.0
 11
58.5560796608
 21
16.4221050646
 31
0.0
  0
LINE
  5
1D6
330
1BA
100
AcDbEntity
  8
0
  6
Continuous
 62
     0
370
     0
100
AcDbLine
 10
58.0560796608
 20
15.5560796608
 30
0.0
 11
57.5560796608
 21
14.6900542571
 31
0.0
  0
LINE
  5
1D7
330
1BA
100
AcDbEntity
  8
0
  6
Continuous
 62
     0
370
     0
100
AcDbLine
 10
59.0560796608
 20
17.2881304684
 30
0.0
 11
59.3310796608
 21
17.7644444405
 31
0.0
  0
LINE
  5
1D8
330
1BA
100
AcDbEntity
  8
0
  6
Continuous
 62
     0
370
     0
100
AcDbLine
 10
57.0560796608
 20
13.8240288533
 30
0.0
 11
56.7810796608
 21
13.3477148812
 31
0.0
  0
LINE
  5
1D9
330
1BA
100
AcDbEntity
  8
0
  6
Continuous
 62
     0
370
     0
100
AcDbLine
 10
73.6121593217
 20
-42.5
 30
0.0
 11
74.4781847255
 21
-43.0
 31
0.0
  0
LINE
  5
1DA
330
1BA
100
AcDbEntity
  8
0
  6
Continuous
 62
     0
370
     0
100
AcDbLine
 10
73.6121593217
 20
-42.5
 30
0.0
 11
72.7461339179
 21
-42.0
 31
0.0
  0
LINE
  5
1DB
330
1BA
100
AcDbEntity
  8
0
  6
Continuous
 62
     0
370
     0
100
AcDbLine
 10
75.3442101292
 20
-43.5
 30
0.0
 11
75.8205241013
 21
-43.775
 31
0.0
  0
LINE
  5
1DC
330
1BA
100
AcDbEntity
  8
0
  6
Continuous
 62
     0
370
     0
100
AcDbLine
 10
71.8801085141
 20
-41.5
 30
0.0
 11
71.403794542
 21
-41.225
 31
0.0
  0
ENDBLK
  5
1BC
330
1BA
100
AcDbEntity
  8
0
100
AcDbBlockEnd
  0
BLOCK
  5
1EF
330
1EE
100
AcDbEntity
  8
0
100
AcDbBlockBegin
  2
SW_DOWELSYMBOL_0
 70
     0
 10
0.0
 20
0.0
 30
0.0
  3
SW_DOWELSYMBOL_0
  1

  0
CIRCLE
  5
1F1
330
1EE
100
AcDbEntity
  8
0
  6
Continuous
 62
     0
370
     0
100
AcDbCircle
 10
0.0
 20
0.0
 30
0.0
 40
1.500000000000001
  0
HATCH
  5
1F2
330
1EE
100
AcDbEntity
  8
0
  6
Continuous
 62
     0
370
     0
100
AcDbHatch
 10
0.0
 20
0.0
 30
0.0
210
0.0
220
0.0
230
1.0
  2
SOLID
 70
     1
 71
     0
 91
        1
 92
        0
 93
        3
 72
     2
 10
0.0
 20
0.0
 40
1.500000000000001
 50
0.0
 51
90.0
 73
     1
 72
     1
 10
0.0
 20
1.500000000000001
 11
0.0
 21
0.0
 72
     1
 10
0.0
 20
0.0
 11
1.500000000000001
 21
0.0
 97
        0
 75
     0
 76
     1
 98
        1
 10
0.0
 20
0.0
  0
HATCH
  5
1F3
330
1EE
100
AcDbEntity
  8
0
  6
Continuous
 62
     0
370
     0
100
AcDbHatch
 10
0.0
 20
0.0
 30
0.0
210
0.0
220
0.0
230
1.0
  2
SOLID
 70
     1
 71
     0
 91
        1
 92
        0
 93
        3
 72
     2
 10
0.0
 20
0.0
 40
1.500000000000001
 50
180.0
 51
270.0000000000008
 73
     1
 72
     1
 10
0.0
 20
-1.500000000000001
 11
0.0
 21
0.0
 72
     1
 10
0.0
 20
0.0
 11
-1.500000000000001
 21
0.0
 97
        0
 75
     0
 76
     1
 98
        1
 10
0.0
 20
0.0
  0
ENDBLK
  5
1F0
330
1EE
100
AcDbEntity
  8
0
100
AcDbBlockEnd
  0
BLOCK
  5
2CB
330
2CA
100
AcDbEntity
  8
0
100
AcDbBlockBegin
  2
SW_CENTERMARKSYMBOL_5
 70
     0
 10
0.0
 20
0.0
 30
0.0
  3
SW_CENTERMARKSYMBOL_5
  1

  0
ARC
  5
2CD
330
2CA
100
AcDbEntity
  8
0
  6
Continuous
 62
     0
370
     0
100
AcDbCircle
 10
21.25
 20
-36.8060796608
 30
0.0
 40
42.50000000000001
100
AcDbArc
 50
120.0
 51
122.6962719771
  0
ARC
  5
2CE
330
2CA
100
AcDbEntity
  8
0
  6
Continuous
 62
     0
370
     0
100
AcDbCircle
 10
21.25
 20
-36.8060796608
 30
0.0
 40
42.50000000000001
100
AcDbArc
 50
117.3037280229
 51
120.0
  0
ARC
  5
2CF
330
2CA
100
AcDbEntity
  8
0
  6
Continuous
 62
     0
370
     0
100
AcDbCircle
 10
21.25
 20
-36.8060796608
 30
0.0
 40
42.50000000000003
100
AcDbArc
 50
125.3925439542
 51
126.5249781845
  0
ARC
  5
2D0
330
2CA
100
AcDbEntity
  8
0
  6
Continuous
 62
     0
370
     0
100
AcDbCircle
 10
21.25
 20
-36.8060796608
 30
0.0
 40
42.49999999999999
100
AcDbArc
 50
113.4750218155
 51
114.6074560458
  0
ARC
  5
2D1
330
2CA
100
AcDbEntity
  8
0
  6
Continuous
 62
     0
370
     0
100
AcDbCircle
 10
21.25
 20
-36.8060796608
 30
0.0
 40
42.5
100
AcDbArc
 50
30.0
 51
32.6962719771
  0
ARC
  5
2D2
330
2CA
100
AcDbEntity
  8
0
  6
Continuous
 62
     0
370
     0
100
AcDbCircle
 10
21.25
 20
-36.8060796608
 30
0.0
 40
42.49999999999999
100
AcDbArc
 50
27.3037280229
 51
30.0
  0
ARC
  5
2D3
330
2CA
100
AcDbEntity
  8
0
  6
Continuous
 62
     0
370
     0
100
AcDbCircle
 10
21.25
 20
-36.8060796608
 30
0.0
 40
42.50000000000001
100
AcDbArc
 50
35.3925439542
 51
36.5249781845
  0
ARC
  5
2D4
330
2CA
100
AcDbEntity
  8
0
  6
Continuous
 62
     0
370
     0
100
AcDbCircle
 10
21.25
 20
-36.8060796608
 30
0.0
 40
42.5
100
AcDbArc
 50
23.4750218155
 51
24.6074560458
  0
ARC
  5
2D5
330
2CA
100
AcDbEntity
  8
0
  6
Continuous
 62
     0
370
     0
100
AcDbCircle
 10
21.25
 20
-36.8060796608
 30
0.0
 40
42.50000000000001
100
AcDbArc
 50
300.0
 51
302.6962719771
  0
ARC
  5
2D6
330
2CA
100
AcDbEntity
  8
0
  6
Continuous
 62
     0
370
     0
100
AcDbCircle
 10
21.25
 20
-36.8060796608
 30
0.0
 40
42.50000000000001
100
AcDbArc
 50
297.3037280229
 51
300.0
  0
ARC
  5
2D7
330
2CA
100
AcDbEntity
  8
0
  6
Continuous
 62
     0
370
     0
100
AcDbCircle
 10
21.25
 20
-36.8060796608
 30
0.0
 40
42.50000000000002
100
AcDbArc
 50
305.3925439542
 51
306.5249781845
  0
ARC
  5
2D8
330
2CA
100
AcDbEntity
  8
0
  6
Continuous
 62
     0
370
     0
100
AcDbCircle
 10
21.25
 20
-36.8060796608
 30
0.0
 40
42.5
100
AcDbArc
 50
293.4750218155
 51
294.6074560458
  0
ARC
  5
2D9
330
2CA
100
AcDbEntity
  8
0
  6
Continuous
 62
     0
370
     0
100
AcDbCircle
 10
21.25
 20
-36.8060796608
 30
0.0
 40
42.50000000000001
100
AcDbArc
 50
210.0
 51
212.6962719771
  0
ARC
  5
2DA
330
2CA
100
AcDbEntity
  8
0
  6
Continuous
 62
     0
370
     0
100
AcDbCircle
 10
21.25
 20
-36.8060796608
 30
0.0
 40
42.50000000000001
100
AcDbArc
 50
207.3037280229
 51
210.0
  0
ARC
  5
2DB
330
2CA
100
AcDbEntity
  8
0
  6
Continuous
 62
     0
370
     0
100
AcDbCircle
 10
21.25
 20
-36.8060796608
 30
0.0
 40
42.49999999999999
100
AcDbArc
 50
215.3925439542
 51
216.5249781845
  0
ARC
  5
2DC
330
2CA
100
AcDbEntity
  8
0
  6
Continuous
 62
     0
370
     0
100
AcDbCircle
 10
21.25
 20
-36.8060796608
 30
0.0
 40
42.50000000000003
100
AcDbArc
 50
203.4750218155
 51
204.6074560458
  0
LINE
  5
2DD
330
2CA
100
AcDbEntity
  8
0
  6
Continuous
 62
     0
370
     0
100
AcDbLine
 10
0.0
 20
0.0
 30
0.0
 11
-1.0
 21
1.7320508076
 31
0.0
  0
LINE
  5
2DE
330
2CA
100
AcDbEntity
  8
0
  6
Continuous
 62
     0
370
     0
100
AcDbLine
 10
0.0
 20
0.0
 30
0.0
 11
1.0
 21
-1.7320508076
 31
0.0
  0
LINE
  5
2DF
330
2CA
100
AcDbEntity
  8
0
  6
Continuous
 62
     0
370
     0
100
AcDbLine
 10
-2.0
 20
3.4641016151
 30
0.0
 11
-2.42
 21
4.1915629543
 31
0.0
  0
LINE
  5
2E0
330
2CA
100
AcDbEntity
  8
0
  6
Continuous
 62
     0
370
     0
100
AcDbLine
 10
2.0
 20
-3.4641016151
 30
0.0
 11
2.42
 21
-4.1915629543
 31
0.0
  0
LINE
  5
2E1
330
2CA
100
AcDbEntity
  8
0
  6
Continuous
 62
     0
370
     0
100
AcDbLine
 10
58.0560796608
 20
-15.5560796608
 30
0.0
 11
59.7881304684
 21
-14.5560796608
 31
0.0
  0
LINE
  5
2E2
330
2CA
100
AcDbEntity
  8
0
  6
Continuous
 62
     0
370
     0
100
AcDbLine
 10
58.0560796608
 20
-15.5560796608
 30
0.0
 11
56.3240288533
 21
-16.5560796608
 31
0.0
  0
LINE
  5
2E3
330
2CA
100
AcDbEntity
  8
0
  6
Continuous
 62
     0
370
     0
100
AcDbLine
 10
61.520181276
 20
-13.5560796608
 30
0.0
 11
62.2476426152
 21
-13.1360796608
 31
0.0
  0
LINE
  5
2E4
330
2CA
100
AcDbEntity
  8
0
  6
Continuous
 62
     0
370
     0
100
AcDbLine
 10
54.5919780457
 20
-17.5560796608
 30
0.0
 11
53.8645167065
 21
-17.9760796608
 31
0.0
  0
LINE
  5
2E5
330
2CA
100
AcDbEntity
  8
0
  6
Continuous
 62
     0
370
     0
100
AcDbLine
 10
42.5
 20
-73.6121593217
 30
0.0
 11
43.5
 21
-75.3442101292
 31
0.0
  0
LINE
  5
2E6
330
2CA
100
AcDbEntity
  8
0
  6
Continuous
 62
     0
370
     0
100
AcDbLine
 10
42.5
 20
-73.6121593217
 30
0.0
 11
41.5
 21
-71.8801085141
 31
0.0
  0
LINE
  5
2E7
330
2CA
100
AcDbEntity
  8
0
  6
Continuous
 62
     0
370
     0
100
AcDbLine
 10
44.5
 20
-77.0762609368
 30
0.0
 11
44.92
 21
-77.803722276
 31
0.0
  0
LINE
  5
2E8
330
2CA
100
AcDbEntity
  8
0
  6
Continuous
 62
     0
370
     0
100
AcDbLine
 10
40.5
 20
-70.1480577065
 30
0.0
 11
40.08
 21
-69.4205963674
 31
0.0
  0
LINE
  5
2E9
330
2CA
100
AcDbEntity
  8
0
  6
Continuous
 62
     0
370
     0
100
AcDbLine
 10
-15.5560796608
 20
-58.0560796608
 30
0.0
 11
-17.2881304684
 21
-59.0560796608
 31
0.0
  0
LINE
  5
2EA
330
2CA
100
AcDbEntity
  8
0
  6
Continuous
 62
     0
370
     0
100
AcDbLine
 10
-15.5560796608
 20
-58.0560796608
 30
0.0
 11
-13.8240288533
 21
-57.0560796608
 31
0.0
  0
LINE
  5
2EB
330
2CA
100
AcDbEntity
  8
0
  6
Continuous
 62
     0
370
     0
100
AcDbLine
 10
-19.020181276
 20
-60.0560796608
 30
0.0
 11
-19.7476426152
 21
-60.4760796608
 31
0.0
  0
LINE
  5
2EC
330
2CA
100
AcDbEntity
  8
0
  6
Continuous
 62
     0
370
     0
100
AcDbLine
 10
-12.0919780457
 20
-56.0560796608
 30
0.0
 11
-11.3645167065
 21
-55.6360796608
 31
0.0
  0
ENDBLK
  5
2CC
330
2CA
100
AcDbEntity
  8
0
100
AcDbBlockEnd
  0
BLOCK
  5
2EF
330
2EE
100
AcDbEntity
  8
0
100
AcDbBlockBegin
  2
SW_CENTERMARKSYMBOL_6
 70
     0
 10
0.0
 20
0.0
 30
0.0
  3
SW_CENTERMARKSYMBOL_6
  1

  0
ARC
  5
2F1
330
2EE
100
AcDbEntity
  8
0
  6
Continuous
 62
     0
370
     0
100
AcDbCircle
 10
-19.25
 20
-33.3419780457
 30
0.0
 40
38.5
100
AcDbArc
 50
60.0
 51
62.9764041306
  0
ARC
  5
2F2
330
2EE
100
AcDbEntity
  8
0
  6
Continuous
 62
     0
370
     0
100
AcDbCircle
 10
-19.25
 20
-33.3419780457
 30
0.0
 40
38.50000000000003
100
AcDbArc
 50
57.0235958695
 51
60.0
  0
ARC
  5
2F3
330
2EE
100
AcDbEntity
  8
0
  6
Continuous
 62
     0
370
     0
100
AcDbCircle
 10
-19.25
 20
-33.3419780457
 30
0.0
 40
38.5
100
AcDbArc
 50
65.9528082611
 51
67.3666002231
  0
ARC
  5
2F4
330
2EE
100
AcDbEntity
  8
0
  6
Continuous
 62
     0
370
     0
100
AcDbCircle
 10
-19.25
 20
-33.3419780457
 30
0.0
 40
38.50000000000001
100
AcDbArc
 50
52.6333997769
 51
54.0471917389
  0
ARC
  5
2F5
330
2EE
100
AcDbEntity
  8
0
  6
Continuous
 62
     0
370
     0
100
AcDbCircle
 10
-19.25
 20
-33.3419780457
 30
0.0
 40
38.49999999999999
100
AcDbArc
 50
330.0
 51
332.9764041306
  0
ARC
  5
2F6
330
2EE
100
AcDbEntity
  8
0
  6
Continuous
 62
     0
370
     0
100
AcDbCircle
 10
-19.25
 20
-33.3419780457
 30
0.0
 40
38.5
100
AcDbArc
 50
327.0235958695
 51
330.0
  0
ARC
  5
2F7
330
2EE
100
AcDbEntity
  8
0
  6
Continuous
 62
     0
370
     0
100
AcDbCircle
 10
-19.25
 20
-33.3419780457
 30
0.0
 40
38.50000000000002
100
AcDbArc
 50
335.9528082611
 51
337.3666002231
  0
ARC
  5
2F8
330
2EE
100
AcDbEntity
  8
0
  6
Continuous
 62
     0
370
     0
100
AcDbCircle
 10
-19.25
 20
-33.3419780457
 30
0.0
 40
38.49999999999999
100
AcDbArc
 50
322.6333997769
 51
324.0471917389
  0
ARC
  5
2F9
330
2EE
100
AcDbEntity
  8
0
  6
Continuous
 62
     0
370
     0
100
AcDbCircle
 10
-19.25
 20
-33.3419780457
 30
0.0
 40
38.5
100
AcDbArc
 50
240.0
 51
242.9764041306
  0
ARC
  5
2FA
330
2EE
100
AcDbEntity
  8
0
  6
Continuous
 62
     0
370
     0
100
AcDbCircle
 10
-19.25
 20
-33.3419780457
 30
0.0
 40
38.50000000000004
100
AcDbArc
 50
237.0235958695
 51
240.0
  0
ARC
  5
2FB
330
2EE
100
AcDbEntity
  8
0
  6
Continuous
 62
     0
370
     0
100
AcDbCircle
 10
-19.25
 20
-33.3419780457
 30
0.0
 40
38.50000000000001
100
AcDbArc
 50
245.9528082611
 51
247.3666002231
  0
ARC
  5
2FC
330
2EE
100
AcDbEntity
  8
0
  6
Continuous
 62
     0
370
     0
100
AcDbCircle
 10
-19.25
 20
-33.3419780457
 30
0.0
 40
38.50000000000001
100
AcDbArc
 50
232.6333997769
 51
234.0471917389
  0
ARC
  5
2FD
330
2EE
100
AcDbEntity
  8
0
  6
Continuous
 62
     0
370
     0
100
AcDbCircle
 10
-19.25
 20
-33.3419780457
 30
0.0
 40
38.50000000000001
100
AcDbArc
 50
150.0
 51
152.9764041306
  0
ARC
  5
2FE
330
2EE
100
AcDbEntity
  8
0
  6
Continuous
 62
     0
370
     0
100
AcDbCircle
 10
-19.25
 20
-33.3419780457
 30
0.0
 40
38.50000000000001
100
AcDbArc
 50
147.0235958695
 51
150.0
  0
ARC
  5
2FF
330
2EE
100
AcDbEntity
  8
0
  6
Continuous
 62
     0
370
     0
100
AcDbCircle
 10
-19.25
 20
-33.3419780457
 30
0.0
 40
38.50000000000002
100
AcDbArc
 50
155.9528082611
 51
157.3666002231
  0
ARC
  5
300
330
2EE
100
AcDbEntity
  8
0
  6
Continuous
 62
     0
370
     0
100
AcDbCircle
 10
-19.25
 20
-33.3419780457
 30
0.0
 40
38.5
100
AcDbArc
 50
142.6333997769
 51
144.0471917389
  0
LINE
  5
301
330
2EE
100
AcDbEntity
  8
0
  6
Continuous
 62
     0
370
     0
100
AcDbLine
 10
0.0
 20
0.0
 30
0.0
 11
1.0
 21
1.7320508076
 31
0.0
  0
LINE
  5
302
330
2EE
100
AcDbEntity
  8
0
  6
Continuous
 62
     0
370
     0
100
AcDbLine
 10
0.0
 20
0.0
 30
0.0
 11
-1.0
 21
-1.7320508076
 31
0.0
  0
LINE
  5
303
330
2EE
100
AcDbEntity
  8
0
  6
Continuous
 62
     0
370
     0
100
AcDbLine
 10
2.0
 20
3.4641016151
 30
0.0
 11
2.475
 21
4.2868257487
 31
0.0
  0
LINE
  5
304
330
2EE
100
AcDbEntity
  8
0
  6
Continuous
 62
     0
370
     0
100
AcDbLine
 10
-2.0
 20
-3.4641016151
 30
0.0
 11
-2.475
 21
-4.2868257487
 31
0.0
  0
LINE
  5
305
330
2EE
100
AcDbEntity
  8
0
  6
Continuous
 62
     0
370
     0
100
AcDbLine
 10
14.0919780457
 20
-52.5919780457
 30
0.0
 11
15.8240288533
 21
-53.5919780457
 31
0.0
  0
LINE
  5
306
330
2EE
100
AcDbEntity
  8
0
  6
Continuous
 62
     0
370
     0
100
AcDbLine
 10
14.0919780457
 20
-52.5919780457
 30
0.0
 11
12.3599272381
 21
-51.5919780457
 31
0.0
  0
LINE
  5
307
330
2EE
100
AcDbEntity
  8
0
  6
Continuous
 62
     0
370
     0
100
AcDbLine
 10
17.5560796608
 20
-54.5919780457
 30
0.0
 11
18.3788037944
 21
-55.0669780457
 31
0.0
  0
LINE
  5
308
330
2EE
100
AcDbEntity
  8
0
  6
Continuous
 62
     0
370
     0
100
AcDbLine
 10
10.6278764306
 20
-50.5919780457
 30
0.0
 11
9.805152297
 21
-50.1169780457
 31
0.0
  0
LINE
  5
309
330
2EE
100
AcDbEntity
  8
0
  6
Continuous
 62
     0
370
     0
100
AcDbLine
 10
-38.5
 20
-66.6839560914
 30
0.0
 11
-39.5
 21
-68.416006899
 31
0.0
  0
LINE
  5
30A
330
2EE
100
AcDbEntity
  8
0
  6
Continuous
 62
     0
370
     0
100
AcDbLine
 10
-38.5
 20
-66.6839560914
 30
0.0
 11
-37.5
 21
-64.9519052838
 31
0.0
  0
LINE
  5
30B
330
2EE
100
AcDbEntity
  8
0
  6
Continuous
 62
     0
370
     0
100
AcDbLine
 10
-40.5
 20
-70.1480577065
 30
0.0
 11
-40.975
 21
-70.9707818401
 31
0.0
  0
LINE
  5
30C
330
2EE
100
AcDbEntity
  8
0
  6
Continuous
 62
     0
370
     0
100
AcDbLine
 10
-36.5
 20
-63.2198544763
 30
0.0
 11
-36.025
 21
-62.3971303427
 31
0.0
  0
LINE
  5
30D
330
2EE
100
AcDbEntity
  8
0
  6
Continuous
 62
     0
370
     0
100
AcDbLine
 10
-52.5919780457
 20
-14.0919780457
 30
0.0
 11
-54.3240288533
 21
-13.0919780457
 31
0.0
  0
LINE
  5
30E
330
2EE
100
AcDbEntity
  8
0
  6
Continuous
 62
     0
370
     0
100
AcDbLine
 10
-52.5919780457
 20
-14.0919780457
 30
0.0
 11
-50.8599272381
 21
-15.0919780457
 31
0.0
  0
LINE
  5
30F
330
2EE
100
AcDbEntity
  8
0
  6
Continuous
 62
     0
370
     0
100
AcDbLine
 10
-56.0560796608
 20
-12.0919780457
 30
0.0
 11
-56.8788037944
 21
-11.6169780457
 31
0.0
  0
LINE
  5
310
330
2EE
100
AcDbEntity
  8
0
  6
Continuous
 62
     0
370
     0
100
AcDbLine
 10
-49.1278764306
 20
-16.0919780457
 30
0.0
 11
-48.305152297
 21
-16.5669780457
 31
0.0
  0
ENDBLK
  5
2F0
330
2EE
100
AcDbEntity
  8
0
100
AcDbBlockEnd
  0
BLOCK
  5
313
330
312
100
AcDbEntity
  8
0
100
AcDbBlockBegin
  2
SW_CENTERMARKSYMBOL_7
 70
     0
 10
0.0
 20
0.0
 30
0.0
  3
SW_CENTERMARKSYMBOL_7
  1

  0
LINE
  5
315
330
312
100
AcDbEntity
  8
0
  6
Continuous
 62
     0
370
     0
100
AcDbLine
 10
0.0
 20
0.0
 30
0.0
 11
0.0
 21
1.0
 31
0.0
  0
LINE
  5
316
330
312
100
AcDbEntity
  8
0
  6
Continuous
 62
     0
370
     0
100
AcDbLine
 10
0.0
 20
0.0
 30
0.0
 11
-1.0
 21
0.0
 31
0.0
  0
LINE
  5
317
330
312
100
AcDbEntity
  8
0
  6
Continuous
 62
     0
370
     0
100
AcDbLine
 10
0.0
 20
0.0
 30
0.0
 11
0.0
 21
-1.0
 31
0.0
  0
LINE
  5
318
330
312
100
AcDbEntity
  8
0
  6
Continuous
 62
     0
370
     0
100
AcDbLine
 10
0.0
 20
0.0
 30
0.0
 11
1.0
 21
0.0
 31
0.0
  0
LINE
  5
319
330
312
100
AcDbEntity
  8
0
  6
Continuous
 62
     0
370
     0
100
AcDbLine
 10
0.0
 20
2.0
 30
0.0
 11
0.0
 21
58.7352408002
 31
0.0
  0
LINE
  5
31A
330
312
100
AcDbEntity
  8
0
  6
Continuous
 62
     0
370
     0
100
AcDbLine
 10
-2.0
 20
0.0
 30
0.0
 11
-51.6107972351
 21
0.0
 31
0.0
  0
LINE
  5
31B
330
312
100
AcDbEntity
  8
0
  6
Continuous
 62
     0
370
     0
100
AcDbLine
 10
0.0
 20
-2.0
 30
0.0
 11
0.0
 21
-52.5755791142
 31
0.0
  0
LINE
  5
31C
330
312
100
AcDbEntity
  8
0
  6
Continuous
 62
     0
370
     0
100
AcDbLine
 10
2.0
 20
0.0
 30
0.0
 11
51.8421147012
 21
0.0
 31
0.0
  0
ENDBLK
  5
314
330
312
100
AcDbEntity
  8
0
100
AcDbBlockEnd
  0
BLOCK
  5
31F
330
31E
100
AcDbEntity
  8
0
100
AcDbBlockBegin
  2
SW_CENTERMARKSYMBOL_8
 70
     0
 10
0.0
 20
0.0
 30
0.0
  3
SW_CENTERMARKSYMBOL_8
  1

  0
ARC
  5
321
330
31E
100
AcDbEntity
  8
0
  6
Continuous
 62
     0
370
     0
100
AcDbCircle
 10
-10.9998094169
 20
-41.0518476173
 30
0.0
 40
42.50000000000001
100
AcDbArc
 50
75.0
 51
76.3481359885
  0
ARC
  5
322
330
31E
100
AcDbEntity
  8
0
  6
Continuous
 62
     0
370
     0
100
AcDbCircle
 10
-10.9998094169
 20
-41.0518476173
 30
0.0
 40
42.50000000000001
100
AcDbArc
 50
73.6518640115
 51
75.0
  0
ARC
  5
323
330
31E
100
AcDbEntity
  8
0
  6
Continuous
 62
     0
370
     0
100
AcDbCircle
 10
-10.9998094169
 20
-41.0518476173
 30
0.0
 40
42.5
100
AcDbArc
 50
255.0
 51
256.3481359885
  0
ARC
  5
324
330
31E
100
AcDbEntity
  8
0
  6
Continuous
 62
     0
370
     0
100
AcDbCircle
 10
-10.9998094169
 20
-41.0518476173
 30
0.0
 40
42.50000000000001
100
AcDbArc
 50
253.6518640115
 51
255.0
  0
ARC
  5
325
330
31E
100
AcDbEntity
  8
0
  6
Continuous
 62
     0
370
     0
100
AcDbCircle
 10
-10.9998094169
 20
-41.0518476173
 30
0.0
 40
42.5
100
AcDbArc
 50
285.0
 51
286.3481359885
  0
ARC
  5
326
330
31E
100
AcDbEntity
  8
0
  6
Continuous
 62
     0
370
     0
100
AcDbCircle
 10
-10.9998094169
 20
-41.0518476173
 30
0.0
 40
42.5
100
AcDbArc
 50
283.6518640115
 51
285.0
  0
ARC
  5
327
330
31E
100
AcDbEntity
  8
0
  6
Continuous
 62
     0
370
     0
100
AcDbCircle
 10
-10.9998094169
 20
-41.0518476173
 30
0.0
 40
42.50000000000003
100
AcDbArc
 50
315.0
 51
316.3481359885
  0
ARC
  5
328
330
31E
100
AcDbEntity
  8
0
  6
Continuous
 62
     0
370
     0
100
AcDbCircle
 10
-10.9998094169
 20
-41.0518476173
 30
0.0
 40
42.50000000000003
100
AcDbArc
 50
313.6518640115
 51
315.0
  0
ARC
  5
329
330
31E
100
AcDbEntity
  8
0
  6
Continuous
 62
     0
370
     0
100
AcDbCircle
 10
-10.9998094169
 20
-41.0518476173
 30
0.0
 40
42.50000000000001
100
AcDbArc
 50
345.0
 51
346.3481359885
  0
ARC
  5
32A
330
31E
100
AcDbEntity
  8
0
  6
Continuous
 62
     0
370
     0
100
AcDbCircle
 10
-10.9998094169
 20
-41.0518476173
 30
0.0
 40
42.50000000000001
100
AcDbArc
 50
343.6518640115
 51
345.0
  0
ARC
  5
32B
330
31E
100
AcDbEntity
  8
0
  6
Continuous
 62
     0
370
     0
100
AcDbCircle
 10
-10.9998094169
 20
-41.0518476173
 30
0.0
 40
42.50000000000001
100
AcDbArc
 50
15.0
 51
16.3481359885
  0
ARC
  5
32C
330
31E
100
AcDbEntity
  8
0
  6
Continuous
 62
     0
370
     0
100
AcDbCircle
 10
-10.9998094169
 20
-41.0518476173
 30
0.0
 40
42.50000000000001
100
AcDbArc
 50
13.6518640115
 51
15.0
  0
ARC
  5
32D
330
31E
100
AcDbEntity
  8
0
  6
Continuous
 62
     0
370
     0
100
AcDbCircle
 10
-10.9998094169
 20
-41.0518476173
 30
0.0
 40
42.50000000000001
100
AcDbArc
 50
45.0
 51
46.3481359885
  0
ARC
  5
32E
330
31E
100
AcDbEntity
  8
0
  6
Continuous
 62
     0
370
     0
100
AcDbCircle
 10
-10.9998094169
 20
-41.0518476173
 30
0.0
 40
42.50000000000001
100
AcDbArc
 50
43.6518640115
 51
45.0
  0
ARC
  5
32F
330
31E
100
AcDbEntity
  8
0
  6
Continuous
 62
     0
370
     0
100
AcDbCircle
 10
-10.9998094169
 20
-41.0518476173
 30
0.0
 40
42.50000000000001
100
AcDbArc
 50
105.0
 51
106.3481359885
  0
ARC
  5
330
330
31E
100
AcDbEntity
  8
0
  6
Continuous
 62
     0
370
     0
100
AcDbCircle
 10
-10.9998094169
 20
-41.0518476173
 30
0.0
 40
42.50000000000001
100
AcDbArc
 50
103.6518640115
 51
105.0
  0
ARC
  5
331
330
31E
100
AcDbEntity
  8
0
  6
Continuous
 62
     0
370
     0
100
AcDbCircle
 10
-10.9998094169
 20
-41.0518476173
 30
0.0
 40
42.5
100
AcDbArc
 50
135.0
 51
136.3481359885
  0
ARC
  5
332
330
31E
100
AcDbEntity
  8
0
  6
Continuous
 62
     0
370
     0
100
AcDbCircle
 10
-10.9998094169
 20
-41.0518476173
 30
0.0
 40
42.50000000000001
100
AcDbArc
 50
133.6518640115
 51
135.0
  0
ARC
  5
333
330
31E
100
AcDbEntity
  8
0
  6
Continuous
 62
     0
370
     0
100
AcDbCircle
 10
-10.9998094169
 20
-41.0518476173
 30
0.0
 40
42.50000000000002
100
AcDbArc
 50
165.0
 51
166.3481359885
  0
ARC
  5
334
330
31E
100
AcDbEntity
  8
0
  6
Continuous
 62
     0
370
     0
100
AcDbCircle
 10
-10.9998094169
 20
-41.0518476173
 30
0.0
 40
42.50000000000002
100
AcDbArc
 50
163.6518640115
 51
165.0
  0
ARC
  5
335
330
31E
100
AcDbEntity
  8
0
  6
Continuous
 62
     0
370
     0
100
AcDbCircle
 10
-10.9998094169
 20
-41.0518476173
 30
0.0
 40
42.50000000000001
100
AcDbArc
 50
195.0
 51
196.3481359885
  0
ARC
  5
336
330
31E
100
AcDbEntity
  8
0
  6
Continuous
 62
     0
370
     0
100
AcDbCircle
 10
-10.9998094169
 20
-41.0518476173
 30
0.0
 40
42.50000000000001
100
AcDbArc
 50
193.6518640115
 51
195.0
  0
ARC
  5
337
330
31E
100
AcDbEntity
  8
0
  6
Continuous
 62
     0
370
     0
100
AcDbCircle
 10
-10.9998094169
 20
-41.0518476173
 30
0.0
 40
42.50000000000001
100
AcDbArc
 50
225.0
 51
226.3481359885
  0
ARC
  5
338
330
31E
100
AcDbEntity
  8
0
  6
Continuous
 62
     0
370
     0
100
AcDbCircle
 10
-10.9998094169
 20
-41.0518476173
 30
0.0
 40
42.50000000000001
100
AcDbArc
 50
223.6518640115
 51
225.0
  0
ARC
  5
339
330
31E
100
AcDbEntity
  8
0
  6
CENTERX2
 62
     0
370
     0
100
AcDbCircle
 10
-10.9998094169
 20
-41.0518476173
 30
0.0
 40
42.49999999999999
100
AcDbArc
 50
17.6962719771
 51
42.3037280229
  0
ARC
  5
33A
330
31E
100
AcDbEntity
  8
0
  6
CENTERX2
 62
     0
370
     0
100
AcDbCircle
 10
-10.9998094169
 20
-41.0518476173
 30
0.0
 40
42.49999999999999
100
AcDbArc
 50
47.6962719771
 51
72.3037280229
  0
ARC
  5
33B
330
31E
100
AcDbEntity
  8
0
  6
CENTERX2
 62
     0
370
     0
100
AcDbCircle
 10
-10.9998094169
 20
-41.0518476173
 30
0.0
 40
42.49999999999999
100
AcDbArc
 50
77.6962719771
 51
102.3037280229
  0
ARC
  5
33C
330
31E
100
AcDbEntity
  8
0
  6
CENTERX2
 62
     0
370
     0
100
AcDbCircle
 10
-10.9998094169
 20
-41.0518476173
 30
0.0
 40
42.50000000000001
100
AcDbArc
 50
107.6962719771
 51
132.3037280229
  0
ARC
  5
33D
330
31E
100
AcDbEntity
  8
0
  6
CENTERX2
 62
     0
370
     0
100
AcDbCircle
 10
-10.9998094169
 20
-41.0518476173
 30
0.0
 40
42.50000000000001
100
AcDbArc
 50
137.6962719771
 51
162.3037280229
  0
ARC
  5
33E
330
31E
100
AcDbEntity
  8
0
  6
CENTERX2
 62
     0
370
     0
100
AcDbCircle
 10
-10.9998094169
 20
-41.0518476173
 30
0.0
 40
42.50000000000002
100
AcDbArc
 50
167.6962719771
 51
192.3037280229
  0
ARC
  5
33F
330
31E
100
AcDbEntity
  8
0
  6
CENTERX2
 62
     0
370
     0
100
AcDbCircle
 10
-10.9998094169
 20
-41.0518476173
 30
0.0
 40
42.50000000000003
100
AcDbArc
 50
197.6962719771
 51
222.3037280229
  0
ARC
  5
340
330
31E
100
AcDbEntity
  8
0
  6
CENTERX2
 62
     0
370
     0
100
AcDbCircle
 10
-10.9998094169
 20
-41.0518476173
 30
0.0
 40
42.49999999999999
100
AcDbArc
 50
227.6962719771
 51
252.3037280229
  0
ARC
  5
341
330
31E
100
AcDbEntity
  8
0
  6
CENTERX2
 62
     0
370
     0
100
AcDbCircle
 10
-10.9998094169
 20
-41.0518476173
 30
0.0
 40
42.5
100
AcDbArc
 50
257.6962719771
 51
282.3037280229
  0
ARC
  5
342
330
31E
100
AcDbEntity
  8
0
  6
CENTERX2
 62
     0
370
     0
100
AcDbCircle
 10
-10.9998094169
 20
-41.0518476173
 30
0.0
 40
42.50000000000001
100
AcDbArc
 50
287.6962719771
 51
312.3037280229
  0
ARC
  5
343
330
31E
100
AcDbEntity
  8
0
  6
CENTERX2
 62
     0
370
     0
100
AcDbCircle
 10
-10.9998094169
 20
-41.0518476173
 30
0.0
 40
42.5
100
AcDbArc
 50
317.6962719771
 51
342.3037280229
  0
ARC
  5
344
330
31E
100
AcDbEntity
  8
0
  6
CENTERX2
 62
     0
370
     0
100
AcDbCircle
 10
-10.9998094169
 20
-41.0518476173
 30
0.0
 40
42.50000000000002
100
AcDbArc
 50
347.6962719771
 51
12.3037280229
  0
LINE
  5
345
330
31E
100
AcDbEntity
  8
0
  6
Continuous
 62
     0
370
     0
100
AcDbLine
 10
0.0
 20
0.0
 30
0.0
 11
0.2588190451
 21
0.9659258263
 31
0.0
  0
LINE
  5
346
330
31E
100
AcDbEntity
  8
0
  6
Continuous
 62
     0
370
     0
100
AcDbLine
 10
0.0
 20
0.0
 30
0.0
 11
-0.2588190451
 21
-0.9659258263
 31
0.0
  0
LINE
  5
347
330
31E
100
AcDbEntity
  8
0
  6
Continuous
 62
     0
370
     0
100
AcDbLine
 10
0.5176380902
 20
1.9318516526
 30
0.0
 11
0.6988114218
 21
2.607999731
 31
0.0
  0
LINE
  5
348
330
31E
100
AcDbEntity
  8
0
  6
Continuous
 62
     0
370
     0
100
AcDbLine
 10
-0.5176380902
 20
-1.9318516526
 30
0.0
 11
-0.6988114218
 21
-2.607999731
 31
0.0
  0
LINE
  5
349
330
31E
100
AcDbEntity
  8
0
  6
Continuous
 62
     0
370
     0
100
AcDbLine
 10
-21.9996188337
 20
-82.1036952346
 30
0.0
 11
-22.2584378788
 21
-83.0696210609
 31
0.0
  0
LINE
  5
34A
330
31E
100
AcDbEntity
  8
0
  6
Continuous
 62
     0
370
     0
100
AcDbLine
 10
-21.9996188337
 20
-82.1036952346
 30
0.0
 11
-21.7407997886
 21
-81.1377694083
 31
0.0
  0
LINE
  5
34B
330
31E
100
AcDbEntity
  8
0
  6
Continuous
 62
     0
370
     0
100
AcDbLine
 10
-22.5172569239
 20
-84.0355468871
 30
0.0
 11
-22.6984302555
 21
-84.7116949656
 31
0.0
  0
LINE
  5
34C
330
31E
100
AcDbEntity
  8
0
  6
Continuous
 62
     0
370
     0
100
AcDbLine
 10
-21.4819807435
 20
-80.171843582
 30
0.0
 11
-21.3008074119
 21
-79.4956955036
 31
0.0
  0
LINE
  5
34D
330
31E
100
AcDbEntity
  8
0
  6
Continuous
 62
     0
370
     0
100
AcDbLine
 10
0.0
 20
-82.1036952346
 30
0.0
 11
0.2588190451
 21
-83.0696210609
 31
0.0
  0
LINE
  5
34E
330
31E
100
AcDbEntity
  8
0
  6
Continuous
 62
     0
370
     0
100
AcDbLine
 10
0.0
 20
-82.1036952346
 30
0.0
 11
-0.2588190451
 21
-81.1377694083
 31
0.0
  0
LINE
  5
34F
330
31E
100
AcDbEntity
  8
0
  6
Continuous
 62
     0
370
     0
100
AcDbLine
 10
0.5176380902
 20
-84.0355468871
 30
0.0
 11
0.6988114218
 21
-84.7116949656
 31
0.0
  0
LINE
  5
350
330
31E
100
AcDbEntity
  8
0
  6
Continuous
 62
     0
370
     0
100
AcDbLine
 10
-0.5176380902
 20
-80.171843582
 30
0.0
 11
-0.6988114218
 21
-79.4956955036
 31
0.0
  0
LINE
  5
351
330
31E
100
AcDbEntity
  8
0
  6
Continuous
 62
     0
370
     0
100
AcDbLine
 10
19.0522287836
 20
-71.1038858177
 30
0.0
 11
19.7593355648
 21
-71.8109925989
 31
0.0
  0
LINE
  5
352
330
31E
100
AcDbEntity
  8
0
  6
Continuous
 62
     0
370
     0
100
AcDbLine
 10
19.0522287836
 20
-71.1038858177
 30
0.0
 11
18.3451220024
 21
-70.3967790365
 31
0.0
  0
LINE
  5
353
330
31E
100
AcDbEntity
  8
0
  6
Continuous
 62
     0
370
     0
100
AcDbLine
 10
20.4664423459
 20
-72.5180993801
 30
0.0
 11
20.9614170928
 21
-73.0130741269
 31
0.0
  0
LINE
  5
354
330
31E
100
AcDbEntity
  8
0
  6
Continuous
 62
     0
370
     0
100
AcDbLine
 10
17.6380152212
 20
-69.6896722553
 30
0.0
 11
17.1430404744
 21
-69.1946975085
 31
0.0
  0
LINE
  5
355
330
31E
100
AcDbEntity
  8
0
  6
Continuous
 62
     0
370
     0
100
AcDbLine
 10
30.0520382004
 20
-52.0516570341
 30
0.0
 11
31.0179640267
 21
-52.3104760792
 31
0.0
  0
LINE
  5
356
330
31E
100
AcDbEntity
  8
0
  6
Continuous
 62
     0
370
     0
100
AcDbLine
 10
30.0520382004
 20
-52.0516570341
 30
0.0
 11
29.0861123741
 21
-51.792837989
 31
0.0
  0
LINE
  5
357
330
31E
100
AcDbEntity
  8
0
  6
Continuous
 62
     0
370
     0
100
AcDbLine
 10
31.983889853
 20
-52.5692951243
 30
0.0
 11
32.6600379314
 21
-52.7504684559
 31
0.0
  0
LINE
  5
358
330
31E
100
AcDbEntity
  8
0
  6
Continuous
 62
     0
370
     0
100
AcDbLine
 10
28.1201865479
 20
-51.5340189439
 30
0.0
 11
27.4440384694
 21
-51.3528456124
 31
0.0
  0
LINE
  5
359
330
31E
100
AcDbEntity
  8
0
  6
Continuous
 62
     0
370
     0
100
AcDbLine
 10
30.0520382004
 20
-30.0520382004
 30
0.0
 11
31.0179640267
 21
-29.7932191553
 31
0.0
  0
LINE
  5
35A
330
31E
100
AcDbEntity
  8
0
  6
Continuous
 62
     0
370
     0
100
AcDbLine
 10
30.0520382004
 20
-30.0520382004
 30
0.0
 11
29.0861123741
 21
-30.3108572455
 31
0.0
  0
LINE
  5
35B
330
31E
100
AcDbEntity
  8
0
  6
Continuous
 62
     0
370
     0
100
AcDbLine
 10
31.983889853
 20
-29.5344001102
 30
0.0
 11
32.6600379314
 21
-29.3532267787
 31
0.0
  0
LINE
  5
35C
330
31E
100
AcDbEntity
  8
0
  6
Continuous
 62
     0
370
     0
100
AcDbLine
 10
28.1201865479
 20
-30.5696762906
 30
0.0
 11
27.4440384694
 21
-30.7508496222
 31
0.0
  0
LINE
  5
35D
330
31E
100
AcDbEntity
  8
0
  6
Continuous
 62
     0
370
     0
100
AcDbLine
 10
19.0522287836
 20
-10.9998094169
 30
0.0
 11
19.7593355648
 21
-10.2927026357
 31
0.0
  0
LINE
  5
35E
330
31E
100
AcDbEntity
  8
0
  6
Continuous
 62
     0
370
     0
100
AcDbLine
 10
19.0522287836
 20
-10.9998094169
 30
0.0
 11
18.3451220024
 21
-11.706916198
 31
0.0
  0
LINE
  5
35F
330
31E
100
AcDbEntity
  8
0
  6
Continuous
 62
     0
370
     0
100
AcDbLine
 10
20.4664423459
 20
-9.5855958545
 30
0.0
 11
20.9614170928
 21
-9.0906211077
 31
0.0
  0
LINE
  5
360
330
31E
100
AcDbEntity
  8
0
  6
Continuous
 62
     0
370
     0
100
AcDbLine
 10
17.6380152212
 20
-12.4140229792
 30
0.0
 11
17.1430404744
 21
-12.9089977261
 31
0.0
  0
LINE
  5
361
330
31E
100
AcDbEntity
  8
0
  6
Continuous
 62
     0
370
     0
100
AcDbLine
 10
-21.9996188337
 20
0.0
 30
0.0
 11
-22.2584378788
 21
0.9659258263
 31
0.0
  0
LINE
  5
362
330
31E
100
AcDbEntity
  8
0
  6
Continuous
 62
     0
370
     0
100
AcDbLine
 10
-21.9996188337
 20
0.0
 30
0.0
 11
-21.7407997886
 21
-0.9659258263
 31
0.0
  0
LINE
  5
363
330
31E
100
AcDbEntity
  8
0
  6
Continuous
 62
     0
370
     0
100
AcDbLine
 10
-22.5172569239
 20
1.9318516526
 30
0.0
 11
-22.6984302555
 21
2.607999731
 31
0.0
  0
LINE
  5
364
330
31E
100
AcDbEntity
  8
0
  6
Continuous
 62
     0
370
     0
100
AcDbLine
 10
-21.4819807435
 20
-1.9318516526
 30
0.0
 11
-21.3008074119
 21
-2.607999731
 31
0.0
  0
LINE
  5
365
330
31E
100
AcDbEntity
  8
0
  6
Continuous
 62
     0
370
     0
100
AcDbLine
 10
-41.0518476173
 20
-10.9998094169
 30
0.0
 11
-41.7589543985
 21
-10.2927026357
 31
0.0
  0
LINE
  5
366
330
31E
100
AcDbEntity
  8
0
  6
Continuous
 62
     0
370
     0
100
AcDbLine
 10
-41.0518476173
 20
-10.9998094169
 30
0.0
 11
-40.3447408361
 21
-11.706916198
 31
0.0
  0
LINE
  5
367
330
31E
100
AcDbEntity
  8
0
  6
Continuous
 62
     0
370
     0
100
AcDbLine
 10
-42.4660611797
 20
-9.5855958545
 30
0.0
 11
-42.9610359265
 21
-9.0906211077
 31
0.0
  0
LINE
  5
368
330
31E
100
AcDbEntity
  8
0
  6
Continuous
 62
     0
370
     0
100
AcDbLine
 10
-39.6376340549
 20
-12.4140229792
 30
0.0
 11
-39.1426593081
 21
-12.9089977261
 31
0.0
  0
LINE
  5
369
330
31E
100
AcDbEntity
  8
0
  6
Continuous
 62
     0
370
     0
100
AcDbLine
 10
-52.0516570341
 20
-30.0520382004
 30
0.0
 11
-53.0175828604
 21
-29.7932191553
 31
0.0
  0
LINE
  5
36A
330
31E
100
AcDbEntity
  8
0
  6
Continuous
 62
     0
370
     0
100
AcDbLine
 10
-52.0516570341
 20
-30.0520382004
 30
0.0
 11
-51.0857312079
 21
-30.3108572455
 31
0.0
  0
LINE
  5
36B
330
31E
100
AcDbEntity
  8
0
  6
Continuous
 62
     0
370
     0
100
AcDbLine
 10
-53.9835086867
 20
-29.5344001102
 30
0.0
 11
-54.6596567651
 21
-29.3532267787
 31
0.0
  0
LINE
  5
36C
330
31E
100
AcDbEntity
  8
0
  6
Continuous
 62
     0
370
     0
100
AcDbLine
 10
-50.1198053816
 20
-30.5696762906
 30
0.0
 11
-49.4436573032
 21
-30.7508496222
 31
0.0
  0
LINE
  5
36D
330
31E
100
AcDbEntity
  8
0
  6
Continuous
 62
     0
370
     0
100
AcDbLine
 10
-52.0516570341
 20
-52.0516570341
 30
0.0
 11
-53.0175828604
 21
-52.3104760792
 31
0.0
  0
LINE
  5
36E
330
31E
100
AcDbEntity
  8
0
  6
Continuous
 62
     0
370
     0
100
AcDbLine
 10
-52.0516570341
 20
-52.0516570341
 30
0.0
 11
-51.0857312079
 21
-51.792837989
 31
0.0
  0
LINE
  5
36F
330
31E
100
AcDbEntity
  8
0
  6
Continuous
 62
     0
370
     0
100
AcDbLine
 10
-53.9835086867
 20
-52.5692951243
 30
0.0
 11
-54.6596567651
 21
-52.7504684559
 31
0.0
  0
LINE
  5
370
330
31E
100
AcDbEntity
  8
0
  6
Continuous
 62
     0
370
     0
100
AcDbLine
 10
-50.1198053816
 20
-51.5340189439
 30
0.0
 11
-49.4436573032
 21
-51.3528456124
 31
0.0
  0
LINE
  5
371
330
31E
100
AcDbEntity
  8
0
  6
Continuous
 62
     0
370
     0
100
AcDbLine
 10
-41.0518476173
 20
-71.1038858177
 30
0.0
 11
-41.7589543985
 21
-71.8109925989
 31
0.0
  0
LINE
  5
372
330
31E
100
AcDbEntity
  8
0
  6
Continuous
 62
     0
370
     0
100
AcDbLine
 10
-41.0518476173
 20
-71.1038858177
 30
0.0
 11
-40.3447408361
 21
-70.3967790365
 31
0.0
  0
LINE
  5
373
330
31E
100
AcDbEntity
  8
0
  6
Continuous
 62
     0
370
     0
100
AcDbLine
 10
-42.4660611797
 20
-72.5180993801
 30
0.0
 11
-42.9610359265
 21
-73.0130741269
 31
0.0
  0
LINE
  5
374
330
31E
100
AcDbEntity
  8
0
  6
Continuous
 62
     0
370
     0
100
AcDbLine
 10
-39.6376340549
 20
-69.6896722553
 30
0.0
 11
-39.1426593081
 21
-69.1946975085
 31
0.0
  0
ENDBLK
  5
320
330
31E
100
AcDbEntity
  8
0
100
AcDbBlockEnd
  0
BLOCK
  5
377
330
376
100
AcDbEntity
  8
0
100
AcDbBlockBegin
  2
SW_CENTERMARKSYMBOL_9
 70
     0
 10
0.0
 20
0.0
 30
0.0
  3
SW_CENTERMARKSYMBOL_9
  1

  0
ARC
  5
379
330
376
100
AcDbEntity
  8
0
  6
Continuous
 62
     0
370
     0
100
AcDbCircle
 10
3.7041190668
 20
-42.3382746689
 30
0.0
 40
42.50000000000001
100
AcDbArc
 50
95.0
 51
99.0444079656
  0
ARC
  5
37A
330
376
100
AcDbEntity
  8
0
  6
Continuous
 62
     0
370
     0
100
AcDbCircle
 10
3.7041190668
 20
-42.3382746689
 30
0.0
 40
42.50000000000002
100
AcDbArc
 50
90.9555920344
 51
95.0
  0
ARC
  5
37B
330
376
100
AcDbEntity
  8
0
  6
Continuous
 62
     0
370
     0
100
AcDbCircle
 10
3.7041190668
 20
-42.3382746689
 30
0.0
 40
42.50000000000001
100
AcDbArc
 50
99.0444079656
 51
100.7295779513
  0
ARC
  5
37C
330
376
100
AcDbEntity
  8
0
  6
Continuous
 62
     0
370
     0
100
AcDbCircle
 10
3.7041190668
 20
-42.3382746689
 30
0.0
 40
42.50000000000002
100
AcDbArc
 50
89.2704220487
 51
90.9555920344
  0
LINE
  5
37D
330
376
100
AcDbEntity
  8
0
  6
Continuous
 62
     0
370
     0
100
AcDbLine
 10
0.0
 20
0.0
 30
0.0
 11
-0.2614672282
 21
2.9885840943
 31
0.0
  0
LINE
  5
37E
330
376
100
AcDbEntity
  8
0
  6
Continuous
 62
     0
370
     0
100
AcDbLine
 10
0.0
 20
0.0
 30
0.0
 11
0.2614672282
 21
-2.9885840943
 31
0.0
  0
LINE
  5
37F
330
376
100
AcDbEntity
  8
0
  6
Continuous
 62
     0
370
     0
100
AcDbLine
 10
-0.2614672282
 20
2.9885840943
 30
0.0
 11
-0.3704119067
 21
4.2338274669
 31
0.0
  0
LINE
  5
380
330
376
100
AcDbEntity
  8
0
  6
Continuous
 62
     0
370
     0
100
AcDbLine
 10
0.2614672282
 20
-2.9885840943
 30
0.0
 11
0.3704119067
 21
-4.2338274669
 31
0.0
  0
ENDBLK
  5
378
330
376
100
AcDbEntity
  8
0
100
AcDbBlockEnd
  0
ENDSEC
  0
SECTION
  2
ENTITIES
  0
MTEXT
  5
79
330
1F
100
AcDbEntity
  8
注記
100
AcDbMText
 10
79.3321064687
 20
86.6459399597
 30
0.0
 40
5.2916666667
 41
0.0
 71
     2
 72
     1
  1
FLA-17A-xxFB-H-xx
  7
SLDTEXTSTYLE0
 73
     1
 44
1.0
  0
LINE
  5
7A
330
1F
100
AcDbEntity
  8
0
  6
Continuous
 62
     7
370
    30
100
AcDbLine
 10
77.5741018212
 20
210.6835698361
 30
0.0
 11
77.5741018212
 21
206.5393262903
 31
0.0
  0
LINE
  5
7B
330
1F
100
AcDbEntity
  8
0
  6
Continuous
 62
     7
370
    30
100
AcDbLine
 10
79.2541018212
 20
206.6417943448
 30
0.0
 11
79.2541018212
 21
210.6835698361
 31
0.0
  0
LINE
  5
7C
330
1F
100
AcDbEntity
  8
0
  6
Continuous
 62
     7
370
    30
100
AcDbLine
 10
78.8141018212
 20
210.6835698361
 30
0.0
 11
78.8141018212
 21
215.6835698361
 31
0.0
  0
LINE
  5
7D
330
1F
100
AcDbEntity
  8
0
  6
Continuous
 62
     7
370
    30
100
AcDbLine
 10
78.0141018212
 20
215.6835698361
 30
0.0
 11
78.0141018212
 21
210.6835698361
 31
0.0
  0
LINE
  5
7E
330
1F
100
AcDbEntity
  8
0
  6
Continuous
 62
     7
370
    30
100
AcDbLine
 10
80.3741018212
 20
210.6835698361
 30
0.0
 11
80.3741018212
 21
206.6758996313
 31
0.0
  0
LINE
  5
7F
330
1F
100
AcDbEntity
  8
0
  6
Continuous
 62
     7
370
    30
100
AcDbLine
 10
82.0541018212
 20
206.6758996313
 30
0.0
 11
82.0541018212
 21
210.6835698361
 31
0.0
  0
LINE
  5
80
330
1F
100
AcDbEntity
  8
0
  6
Continuous
 62
     7
370
    30
100
AcDbLine
 10
81.6141018212
 20
210.6835698361
 30
0.0
 11
81.6141018212
 21
215.6835698361
 31
0.0
  0
LINE
  5
81
330
1F
100
AcDbEntity
  8
0
  6
Continuous
 62
     7
370
    30
100
AcDbLine
 10
80.8141018212
 20
215.6835698361
 30
0.0
 11
80.8141018212
 21
210.6835698361
 31
0.0
  0
LINE
  5
82
330
1F
100
AcDbEntity
  8
0
  6
Continuous
 62
     7
370
    30
100
AcDbLine
 10
76.6091018212
 20
210.6835698361
 30
0.0
 11
76.6091018212
 21
206.4524891481
 31
0.0
  0
LINE
  5
83
330
1F
100
AcDbEntity
  8
0
  6
Continuous
 62
     7
370
    30
100
AcDbLine
 10
77.4191018212
 20
206.5267588066
 30
0.0
 11
77.4191018212
 21
210.6835698361
 31
0.0
  0
LINE
  5
84
330
1F
100
AcDbEntity
  8
0
  6
Continuous
 62
     7
370
    30
100
AcDbLine
 10
77.2141018212
 20
210.6835698361
 30
0.0
 11
77.2141018212
 21
215.6835698361
 31
0.0
  0
LINE
  5
85
330
1F
100
AcDbEntity
  8
0
  6
Continuous
 62
     7
370
    30
100
AcDbLine
 10
76.8141018212
 20
215.6835698361
 30
0.0
 11
76.8141018212
 21
210.6835698361
 31
0.0
  0
LINE
  5
86
330
1F
100
AcDbEntity
  8
0
  6
Continuous
 62
     7
370
    30
100
AcDbLine
 10
83.1741018212
 20
210.6835698361
 30
0.0
 11
83.1741018212
 21
206.6417943448
 31
0.0
  0
LINE
  5
87
330
1F
100
AcDbEntity
  8
0
  6
Continuous
 62
     7
370
    30
100
AcDbLine
 10
84.8541018212
 20
206.5393262903
 30
0.0
 11
84.8541018212
 21
210.6835698361
 31
0.0
  0
LINE
  5
88
330
1F
100
AcDbEntity
  8
0
  6
Continuous
 62
     7
370
    30
100
AcDbLine
 10
84.4141018212
 20
210.6835698361
 30
0.0
 11
84.4141018212
 21
215.6835698361
 31
0.0
  0
LINE
  5
89
330
1F
100
AcDbEntity
  8
0
  6
Continuous
 62
     7
370
    30
100
AcDbLine
 10
83.6141018212
 20
215.6835698361
 30
0.0
 11
83.6141018212
 21
210.6835698361
 31
0.0
  0
LINE
  5
8A
330
1F
100
AcDbEntity
  8
0
  6
Continuous
 62
     7
370
    30
100
AcDbLine
 10
82.2091018212
 20
210.6835698361
 30
0.0
 11
82.2091018212
 21
206.6728074356
 31
0.0
  0
LINE
  5
8B
330
1F
100
AcDbEntity
  8
0
  6
Continuous
 62
     7
370
    30
100
AcDbLine
 10
83.0191018212
 20
206.6481428787
 30
0.0
 11
83.0191018212
 21
210.6835698361
 31
0.0
  0
LINE
  5
8C
330
1F
100
AcDbEntity
  8
0
  6
Continuous
 62
     7
370
    30
100
AcDbLine
 10
82.8141018212
 20
210.6835698361
 30
0.0
 11
82.8141018212
 21
215.6835698361
 31
0.0
  0
LINE
  5
8D
330
1F
100
AcDbEntity
  8
0
  6
Continuous
 62
     7
370
    30
100
AcDbLine
 10
82.4141018212
 20
215.6835698361
 30
0.0
 11
82.4141018212
 21
210.6835698361
 31
0.0
  0
LINE
  5
8E
330
1F
100
AcDbEntity
  8
0
  6
Continuous
 62
     7
370
    30
100
AcDbLine
 10
78.0091018212
 20
210.6835698361
 30
0.0
 11
78.0091018212
 21
206.5717815575
 31
0.0
  0
LINE
  5
8F
330
1F
100
AcDbEntity
  8
0
  6
Continuous
 62
     7
370
    30
100
AcDbLine
 10
78.8191018212
 20
206.6211794277
 30
0.0
 11
78.8191018212
 21
210.6835698361
 31
0.0
  0
LINE
  5
90
330
1F
100
AcDbEntity
  8
0
  6
Continuous
 62
     7
370
    30
100
AcDbLine
 10
78.6141018212
 20
210.6835698361
 30
0.0
 11
78.6141018212
 21
215.6835698361
 31
0.0
  0
LINE
  5
91
330
1F
100
AcDbEntity
  8
0
  6
Continuous
 62
     7
370
    30
100
AcDbLine
 10
78.2141018212
 20
215.6835698361
 30
0.0
 11
78.2141018212
 21
210.6835698361
 31
0.0
  0
LINE
  5
92
330
1F
100
AcDbEntity
  8
0
  6
Continuous
 62
     7
370
    30
100
AcDbLine
 10
83.6091018212
 20
210.6835698361
 30
0.0
 11
83.6091018212
 21
206.6211794277
 31
0.0
  0
LINE
  5
93
330
1F
100
AcDbEntity
  8
0
  6
Continuous
 62
     7
370
    30
100
AcDbLine
 10
84.4191018212
 20
206.5717815575
 30
0.0
 11
84.4191018212
 21
210.6835698361
 31
0.0
  0
LINE
  5
94
330
1F
100
AcDbEntity
  8
0
  6
Continuous
 62
     7
370
    30
100
AcDbLine
 10
84.2141018212
 20
210.6835698361
 30
0.0
 11
84.2141018212
 21
215.6835698361
 31
0.0
  0
LINE
  5
95
330
1F
100
AcDbEntity
  8
0
  6
Continuous
 62
     7
370
    30
100
AcDbLine
 10
83.8141018212
 20
215.6835698361
 30
0.0
 11
83.8141018212
 21
210.6835698361
 31
0.0
  0
LINE
  5
96
330
1F
100
AcDbEntity
  8
0
  6
Continuous
 62
     7
370
    30
100
AcDbLine
 10
79.4091018212
 20
210.6835698361
 30
0.0
 11
79.4091018212
 21
206.6481428787
 31
0.0
  0
LINE
  5
97
330
1F
100
AcDbEntity
  8
0
  6
Continuous
 62
     7
370
    30
100
AcDbLine
 10
80.2191018212
 20
206.6728074356
 30
0.0
 11
80.2191018212
 21
210.6835698361
 31
0.0
  0
LINE
  5
98
330
1F
100
AcDbEntity
  8
0
  6
Continuous
 62
     7
370
    30
100
AcDbLine
 10
80.0141018212
 20
210.6835698361
 30
0.0
 11
80.0141018212
 21
215.6835698361
 31
0.0
  0
LINE
  5
99
330
1F
100
AcDbEntity
  8
0
  6
Continuous
 62
     7
370
    30
100
AcDbLine
 10
79.6141018212
 20
215.6835698361
 30
0.0
 11
79.6141018212
 21
210.6835698361
 31
0.0
  0
LINE
  5
9A
330
1F
100
AcDbEntity
  8
0
  6
Continuous
 62
     7
370
    30
100
AcDbLine
 10
85.0091018212
 20
210.6835698361
 30
0.0
 11
85.0091018212
 21
206.5267588066
 31
0.0
  0
LINE
  5
9B
330
1F
100
AcDbEntity
  8
0
  6
Continuous
 62
     7
370
    30
100
AcDbLine
 10
85.8191018212
 20
206.4524891481
 30
0.0
 11
85.8191018212
 21
210.6835698361
 31
0.0
  0
LINE
  5
9C
330
1F
100
AcDbEntity
  8
0
  6
Continuous
 62
     7
370
    30
100
AcDbLine
 10
85.6141018212
 20
210.6835698361
 30
0.0
 11
85.6141018212
 21
215.6835698361
 31
0.0
  0
LINE
  5
9D
330
1F
100
AcDbEntity
  8
0
  6
Continuous
 62
     7
370
    30
100
AcDbLine
 10
85.2141018212
 20
215.6835698361
 30
0.0
 11
85.2141018212
 21
210.6835698361
 31
0.0
  0
CIRCLE
  5
9E
330
1F
100
AcDbEntity
  8
0
  6
Continuous
 62
     7
370
    30
100
AcDbCircle
 10
90.7811876303
 20
183.7805581489
 30
0.0
 40
1.5
  0
CIRCLE
  5
9F
330
1F
100
AcDbEntity
  8
0
  6
Continuous
 62
     7
370
    30
100
AcDbCircle
 10
98.8917713509
 20
178.3612393657
 30
0.0
 40
1.249999999999986
  0
CIRCLE
  5
A0
330
1F
100
AcDbEntity
  8
0
  6
Continuous
 62
     7
370
    30
100
AcDbCircle
 10
81.2141018212
 20
160.6835698361
 30
0.0
 40
18.07735026918964
  0
CIRCLE
  5
A1
330
1F
100
AcDbEntity
  8
0
  6
Continuous
 62
     7
370
    30
100
AcDbCircle
 10
81.2141018212
 20
185.6835698361
 30
0.0
 40
1.249999999999986
  0
CIRCLE
  5
A2
330
1F
100
AcDbEntity
  8
0
  6
Continuous
 62
     7
370
    30
100
AcDbCircle
 10
63.5364322915
 20
178.3612393657
 30
0.0
 40
1.249999999999993
  0
CIRCLE
  5
A3
330
1F
100
AcDbEntity
  8
0
  6
Continuous
 62
     7
370
    30
100
AcDbCircle
 10
63.5364322915
 20
143.0059003064
 30
0.0
 40
1.250000000000007
  0
CIRCLE
  5
A4
330
1F
100
AcDbEntity
  8
0
  6
Continuous
 62
     7
370
    30
100
AcDbCircle
 10
81.2141018212
 20
135.6835698361
 30
0.0
 40
1.249999999999986
  0
CIRCLE
  5
A5
330
1F
100
AcDbEntity
  8
0
  6
Continuous
 62
     7
370
    30
100
AcDbCircle
 10
98.8917713509
 20
143.0059003064
 30
0.0
 40
1.249999999999986
  0
CIRCLE
  5
A6
330
1F
100
AcDbEntity
  8
0
  6
Continuous
 62
     7
370
    30
100
AcDbCircle
 10
56.2141018212
 20
160.6835698361
 30
0.0
 40
1.249999999999986
  0
CIRCLE
  5
A7
330
1F
100
AcDbEntity
  8
0
  6
Continuous
 62
     7
370
    30
100
AcDbCircle
 10
106.2141018212
 20
160.6835698361
 30
0.0
 40
1.25
  0
CIRCLE
  5
A8
330
1F
100
AcDbEntity
  8
0
  6
Continuous
 62
     7
370
    30
100
AcDbCircle
 10
81.2141018212
 20
160.6835698361
 30
0.0
 40
30.0
  0
CIRCLE
  5
A9
330
1F
100
AcDbEntity
  8
0
  6
Continuous
 62
     7
370
    30
100
AcDbCircle
 10
81.2141018212
 20
160.6835698361
 30
0.0
 40
17.5
  0
CIRCLE
  5
AA
330
1F
100
AcDbEntity
  8
0
  6
Continuous
 62
     7
370
    30
100
AcDbCircle
 10
81.2141018212
 20
160.6835698361
 30
0.0
 40
36.6
  0
CIRCLE
  5
AB
330
1F
100
AcDbEntity
  8
0
  6
Continuous
 62
     7
370
    30
100
AcDbCircle
 10
81.2141018212
 20
160.6835698361
 30
0.0
 40
38.47606903900974
  0
CIRCLE
  5
AC
330
1F
100
AcDbEntity
  8
0
  6
Continuous
 62
     7
370
    30
100
AcDbCircle
 10
81.2141018212
 20
160.6835698361
 30
0.0
 40
38.8760690390097
  0
CIRCLE
  5
AD
330
1F
100
AcDbEntity
  8
0
  6
Continuous
 62
     7
370
    30
100
AcDbCircle
 10
81.2141018212
 20
160.6835698361
 30
0.0
 40
39.00000000000001
  0
CIRCLE
  5
AE
330
1F
100
AcDbEntity
  8
0
  6
Continuous
 62
     7
370
    30
100
AcDbCircle
 10
81.2141018212
 20
160.6835698361
 30
0.0
 40
39.19999999999997
  0
CIRCLE
  5
AF
330
1F
100
AcDbEntity
  8
0
  6
Continuous
 62
     7
370
    30
100
AcDbCircle
 10
81.2141018212
 20
160.6835698361
 30
0.0
 40
39.5
  0
CIRCLE
  5
B0
330
1F
100
AcDbEntity
  8
0
  6
Continuous
 62
     7
370
    30
100
AcDbCircle
 10
118.020181482
 20
139.4335698361
 30
0.0
 40
1.549999999999973
  0
CIRCLE
  5
B1
330
1F
100
AcDbEntity
  8
0
  6
Continuous
 62
     7
370
    30
100
AcDbCircle
 10
118.020181482
 20
139.4335698361
 30
0.0
 40
1.249999999999976
  0
CIRCLE
  5
B2
330
1F
100
AcDbEntity
  8
0
  6
Continuous
 62
     7
370
    30
100
AcDbCircle
 10
92.2139112381
 20
201.7354174534
 30
0.0
 40
2.049999999999994
  0
CIRCLE
  5
B3
330
1F
100
AcDbEntity
  8
0
  6
Continuous
 62
     7
370
    30
100
AcDbCircle
 10
111.2661400216
 20
190.7356080365
 30
0.0
 40
2.050000000000002
  0
CIRCLE
  5
B4
330
1F
100
AcDbEntity
  8
0
  6
Continuous
 62
     7
370
    30
100
AcDbCircle
 10
122.2659494385
 20
171.6833792529
 30
0.0
 40
2.050000000000002
  0
CIRCLE
  5
B5
330
1F
100
AcDbEntity
  8
0
  6
Continuous
 62
     7
370
    30
100
AcDbCircle
 10
122.2659494385
 20
149.6837604192
 30
0.0
 40
2.050000000000002
  0
CIRCLE
  5
B6
330
1F
100
AcDbEntity
  8
0
  6
Continuous
 62
     7
370
    30
100
AcDbCircle
 10
111.2661400216
 20
130.6315316356
 30
0.0
 40
2.050000000000002
  0
CIRCLE
  5
B7
330
1F
100
AcDbEntity
  8
0
  6
Continuous
 62
     7
370
    30
100
AcDbCircle
 10
92.2139112381
 20
119.6317222188
 30
0.0
 40
2.050000000000002
  0
CIRCLE
  5
B8
330
1F
100
AcDbEntity
  8
0
  6
Continuous
 62
     7
370
    30
100
AcDbCircle
 10
70.2142924043
 20
119.6317222188
 30
0.0
 40
2.050000000000002
  0
CIRCLE
  5
B9
330
1F
100
AcDbEntity
  8
0
  6
Continuous
 62
     7
370
    30
100
AcDbCircle
 10
51.1620636208
 20
130.6315316356
 30
0.0
 40
2.050000000000008
  0
CIRCLE
  5
BA
330
1F
100
AcDbEntity
  8
0
  6
Continuous
 62
     7
370
    30
100
AcDbCircle
 10
40.1622542039
 20
149.6837604192
 30
0.0
 40
2.050000000000001
  0
CIRCLE
  5
BB
330
1F
100
AcDbEntity
  8
0
  6
Continuous
 62
     7
370
    30
100
AcDbCircle
 10
40.1622542039
 20
171.6833792529
 30
0.0
 40
2.050000000000001
  0
CIRCLE
  5
BC
330
1F
100
AcDbEntity
  8
0
  6
Continuous
 62
     7
370
    30
100
AcDbCircle
 10
51.1620636208
 20
190.7356080365
 30
0.0
 40
2.050000000000008
  0
CIRCLE
  5
BD
330
1F
100
AcDbEntity
  8
0
  6
Continuous
 62
     7
370
    30
100
AcDbCircle
 10
70.2142924044
 20
201.7354174534
 30
0.0
 40
2.050000000000009
  0
CIRCLE
  5
BE
330
1F
100
AcDbEntity
  8
0
  6
Continuous
 62
     7
370
    30
100
AcDbCircle
 10
102.4641018212
 20
197.4896494969
 30
0.0
 40
1.549999999999973
  0
CIRCLE
  5
BF
330
1F
100
AcDbEntity
  8
0
  6
Continuous
 62
     7
370
    30
100
AcDbCircle
 10
44.4080221604
 20
181.9335698361
 30
0.0
 40
1.549999999999966
  0
CIRCLE
  5
C0
330
1F
100
AcDbEntity
  8
0
  6
Continuous
 62
     7
370
    30
100
AcDbCircle
 10
59.9641018212
 20
123.8774901752
 30
0.0
 40
1.549999999999959
  0
CIRCLE
  5
C1
330
1F
100
AcDbEntity
  8
0
  6
Continuous
 62
     7
370
    30
100
AcDbCircle
 10
81.2141018212
 20
160.6835698361
 30
0.0
 40
45.70000000000005
  0
CIRCLE
  5
C2
330
1F
100
AcDbEntity
  8
0
  6
Continuous
 62
     7
370
    30
100
AcDbCircle
 10
92.2139112381
 20
119.6317222188
 30
0.0
 40
1.750000000000009
  0
CIRCLE
  5
C3
330
1F
100
AcDbEntity
  8
0
  6
Continuous
 62
     7
370
    30
100
AcDbCircle
 10
102.4641018212
 20
197.4896494969
 30
0.0
 40
1.24999999999999
  0
CIRCLE
  5
C4
330
1F
100
AcDbEntity
  8
0
  6
Continuous
 62
     7
370
    30
100
AcDbCircle
 10
92.2139112381
 20
201.7354174534
 30
0.0
 40
1.750000000000005
  0
CIRCLE
  5
C5
330
1F
100
AcDbEntity
  8
0
  6
Continuous
 62
     7
370
    30
100
AcDbCircle
 10
51.1620636208
 20
190.7356080365
 30
0.0
 40
1.750000000000012
  0
CIRCLE
  5
C6
330
1F
100
AcDbEntity
  8
0
  6
Continuous
 62
     7
370
    30
100
AcDbCircle
 10
70.2142924043
 20
119.6317222188
 30
0.0
 40
1.750000000000009
  0
CIRCLE
  5
C7
330
1F
100
AcDbEntity
  8
0
  6
Continuous
 62
     7
370
    30
100
AcDbCircle
 10
51.1620636208
 20
130.6315316356
 30
0.0
 40
1.749999999999998
  0
CIRCLE
  5
C8
330
1F
100
AcDbEntity
  8
0
  6
Continuous
 62
     7
370
    30
100
AcDbCircle
 10
40.1622542039
 20
171.6833792529
 30
0.0
 40
1.749999999999998
  0
CIRCLE
  5
C9
330
1F
100
AcDbEntity
  8
0
  6
Continuous
 62
     7
370
    30
100
AcDbCircle
 10
111.2661400216
 20
130.6315316356
 30
0.0
 40
1.750000000000005
  0
CIRCLE
  5
CA
330
1F
100
AcDbEntity
  8
0
  6
Continuous
 62
     7
370
    30
100
AcDbCircle
 10
81.2141018212
 20
160.6835698361
 30
0.0
 40
46.00000000000001
  0
CIRCLE
  5
CB
330
1F
100
AcDbEntity
  8
0
  6
Continuous
 62
     7
370
    30
100
AcDbCircle
 10
70.2142924044
 20
201.7354174534
 30
0.0
 40
1.749999999999991
  0
CIRCLE
  5
CC
330
1F
100
AcDbEntity
  8
0
  6
Continuous
 62
     7
370
    30
100
AcDbCircle
 10
40.1622542039
 20
149.6837604192
 30
0.0
 40
1.749999999999998
  0
CIRCLE
  5
CD
330
1F
100
AcDbEntity
  8
0
  6
Continuous
 62
     7
370
    30
100
AcDbCircle
 10
111.2661400216
 20
190.7356080365
 30
0.0
 40
1.750000000000005
  0
CIRCLE
  5
CE
330
1F
100
AcDbEntity
  8
0
  6
Continuous
 62
     7
370
    30
100
AcDbCircle
 10
122.2659494385
 20
171.6833792529
 30
0.0
 40
1.750000000000012
  0
CIRCLE
  5
CF
330
1F
100
AcDbEntity
  8
0
  6
Continuous
 62
     7
370
    30
100
AcDbCircle
 10
122.2659494385
 20
149.6837604192
 30
0.0
 40
1.750000000000012
  0
CIRCLE
  5
D0
330
1F
100
AcDbEntity
  8
0
  6
Continuous
 62
     7
370
    30
100
AcDbCircle
 10
44.4080221604
 20
181.9335698361
 30
0.0
 40
1.24999999999999
  0
CIRCLE
  5
D1
330
1F
100
AcDbEntity
  8
0
  6
Continuous
 62
     7
370
    30
100
AcDbCircle
 10
59.9641018212
 20
123.8774901752
 30
0.0
 40
1.24999999999999
  0
CIRCLE
  5
D2
330
1F
100
AcDbEntity
  8
0
  6
Continuous
 62
     7
370
    30
100
AcDbCircle
 10
102.4641018212
 20
197.4896494969
 30
0.0
 40
1.229500000000005
  0
CIRCLE
  5
D3
330
1F
100
AcDbEntity
  8
0
  6
Continuous
 62
     7
370
    30
100
AcDbCircle
 10
118.020181482
 20
139.4335698361
 30
0.0
 40
1.22950000000001
  0
CIRCLE
  5
D4
330
1F
100
AcDbEntity
  8
0
  6
Continuous
 62
     7
370
    30
100
AcDbCircle
 10
44.4080221604
 20
181.9335698361
 30
0.0
 40
1.229500000000017
  0
CIRCLE
  5
D5
330
1F
100
AcDbEntity
  8
0
  6
Continuous
 62
     7
370
    30
100
AcDbCircle
 10
59.9641018212
 20
123.8774901752
 30
0.0
 40
1.229500000000012
  0
CIRCLE
  5
D6
330
1F
100
AcDbEntity
  8
0
  6
Continuous
 62
     7
370
    30
100
AcDbCircle
 10
81.2141018212
 20
160.6835698361
 30
0.0
 40
35.70000000000002
  0
CIRCLE
  5
D7
330
1F
100
AcDbEntity
  8
0
  6
Continuous
 62
     7
370
    30
100
AcDbCircle
 10
81.2141018212
 20
160.6835698361
 30
0.0
 40
35.45017662390524
  0
CIRCLE
  5
D8
330
1F
100
AcDbEntity
  8
0
  6
Continuous
 62
     7
370
    30
100
AcDbCircle
 10
81.2141018212
 20
160.6835698361
 30
0.0
 40
36.09999999999999
  0
CIRCLE
  5
D9
330
1F
100
AcDbEntity
  8
0
  6
Continuous
 62
     7
370
    30
100
AcDbCircle
 10
81.2141018212
 20
160.6835698361
 30
0.0
 40
30.11666666666667
  0
CIRCLE
  5
DA
330
1F
100
AcDbEntity
  8
0
  6
Continuous
 62
     7
370
    30
100
AcDbCircle
 10
81.2141018212
 20
160.6835698361
 30
0.0
 40
33.4168432905719
  0
CIRCLE
  5
DB
330
1F
100
AcDbEntity
  8
0
  6
Continuous
 62
     7
370
    30
100
AcDbCircle
 10
81.2141018212
 20
160.6835698361
 30
0.0
 40
30.6516722542346
  0
CIRCLE
  5
DC
330
1F
100
AcDbEntity
  8
0
  6
Continuous
 62
     7
370
    30
100
AcDbCircle
 10
111.2661400216
 20
130.6315316356
 30
0.0
 40
1.699999999999989
  0
CIRCLE
  5
DD
330
1F
100
AcDbEntity
  8
0
  6
Continuous
 62
     7
370
    30
100
AcDbCircle
 10
111.2661400216
 20
190.7356080365
 30
0.0
 40
1.699999999999989
  0
CIRCLE
  5
DE
330
1F
100
AcDbEntity
  8
0
  6
Continuous
 62
     7
370
    30
100
AcDbCircle
 10
51.1620636208
 20
190.7356080365
 30
0.0
 40
1.699999999999989
  0
CIRCLE
  5
DF
330
1F
100
AcDbEntity
  8
0
  6
Continuous
 62
     7
370
    30
100
AcDbCircle
 10
51.1620636208
 20
130.6315316356
 30
0.0
 40
1.699999999999982
  0
CIRCLE
  5
E0
330
1F
100
AcDbEntity
  8
0
  6
Continuous
 62
     7
370
    30
100
AcDbCircle
 10
92.2139112381
 20
119.6317222188
 30
0.0
 40
1.699999999999989
  0
CIRCLE
  5
E1
330
1F
100
AcDbEntity
  8
0
  6
Continuous
 62
     7
370
    30
100
AcDbCircle
 10
40.1622542039
 20
149.6837604192
 30
0.0
 40
1.699999999999989
  0
CIRCLE
  5
E2
330
1F
100
AcDbEntity
  8
0
  6
Continuous
 62
     7
370
    30
100
AcDbCircle
 10
40.1622542039
 20
171.6833792529
 30
0.0
 40
1.699999999999982
  0
CIRCLE
  5
E3
330
1F
100
AcDbEntity
  8
0
  6
Continuous
 62
     7
370
    30
100
AcDbCircle
 10
70.2142924043
 20
201.7354174534
 30
0.0
 40
1.700000000000003
  0
CIRCLE
  5
E4
330
1F
100
AcDbEntity
  8
0
  6
Continuous
 62
     7
370
    30
100
AcDbCircle
 10
92.2139112381
 20
201.7354174534
 30
0.0
 40
1.700000000000003
  0
CIRCLE
  5
E5
330
1F
100
AcDbEntity
  8
0
  6
Continuous
 62
     7
370
    30
100
AcDbCircle
 10
122.2659494385
 20
171.6833792529
 30
0.0
 40
1.699999999999989
  0
CIRCLE
  5
E6
330
1F
100
AcDbEntity
  8
0
  6
Continuous
 62
     7
370
    30
100
AcDbCircle
 10
122.2659494385
 20
149.6837604192
 30
0.0
 40
1.700000000000003
  0
CIRCLE
  5
E7
330
1F
100
AcDbEntity
  8
0
  6
Continuous
 62
     7
370
    30
100
AcDbCircle
 10
70.2142924043
 20
119.6317222188
 30
0.0
 40
1.699999999999989
  0
LINE
  5
E8
330
1F
100
AcDbEntity
  8
0
  6
Continuous
 62
     7
370
    30
100
AcDbLine
 10
78.8191018212
 20
210.6835698361
 30
0.0
 11
79.2541018212
 21
210.6835698361
 31
0.0
  0
LINE
  5
E9
330
1F
100
AcDbEntity
  8
0
  6
Continuous
 62
     7
370
    30
100
AcDbLine
 10
77.5741018212
 20
210.6835698361
 30
0.0
 11
78.0091018212
 21
210.6835698361
 31
0.0
  0
LINE
  5
EA
330
1F
100
AcDbEntity
  8
0
  6
Continuous
 62
     7
370
    30
100
AcDbLine
 10
78.6141018212
 20
215.6835698361
 30
0.0
 11
78.8141018212
 21
215.6835698361
 31
0.0
  0
LINE
  5
EB
330
1F
100
AcDbEntity
  8
0
  6
Continuous
 62
     7
370
    30
100
AcDbLine
 10
78.0141018212
 20
215.6835698361
 30
0.0
 11
78.2141018212
 21
215.6835698361
 31
0.0
  0
LINE
  5
EC
330
1F
100
AcDbEntity
  8
0
  6
Continuous
 62
     7
370
    30
100
AcDbLine
 10
81.2141018212
 20
210.6835698361
 30
0.0
 11
82.0541018212
 21
210.6835698361
 31
0.0
  0
LINE
  5
ED
330
1F
100
AcDbEntity
  8
0
  6
Continuous
 62
     7
370
    30
100
AcDbLine
 10
80.3741018212
 20
210.6835698361
 30
0.0
 11
81.2141018212
 21
210.6835698361
 31
0.0
  0
LINE
  5
EE
330
1F
100
AcDbEntity
  8
0
  6
Continuous
 62
     7
370
    30
100
AcDbLine
 10
81.2141018212
 20
215.6835698361
 30
0.0
 11
81.6141018212
 21
215.6835698361
 31
0.0
  0
LINE
  5
EF
330
1F
100
AcDbEntity
  8
0
  6
Continuous
 62
     7
370
    30
100
AcDbLine
 10
80.8141018212
 20
215.6835698361
 30
0.0
 11
81.2141018212
 21
215.6835698361
 31
0.0
  0
LINE
  5
F0
330
1F
100
AcDbEntity
  8
0
  6
Continuous
 62
     7
370
    30
100
AcDbLine
 10
77.0141018212
 20
210.6835698361
 30
0.0
 11
77.4191018212
 21
210.6835698361
 31
0.0
  0
LINE
  5
F1
330
1F
100
AcDbEntity
  8
0
  6
Continuous
 62
     7
370
    30
100
AcDbLine
 10
76.6091018212
 20
210.6835698361
 30
0.0
 11
77.0141018212
 21
210.6835698361
 31
0.0
  0
LINE
  5
F2
330
1F
100
AcDbEntity
  8
0
  6
Continuous
 62
     7
370
    30
100
AcDbLine
 10
77.0141018212
 20
215.6835698361
 30
0.0
 11
77.2141018212
 21
215.6835698361
 31
0.0
  0
LINE
  5
F3
330
1F
100
AcDbEntity
  8
0
  6
Continuous
 62
     7
370
    30
100
AcDbLine
 10
76.8141018212
 20
215.6835698361
 30
0.0
 11
77.0141018212
 21
215.6835698361
 31
0.0
  0
LINE
  5
F4
330
1F
100
AcDbEntity
  8
0
  6
Continuous
 62
     7
370
    30
100
AcDbLine
 10
84.4191018212
 20
210.6835698361
 30
0.0
 11
84.8541018212
 21
210.6835698361
 31
0.0
  0
LINE
  5
F5
330
1F
100
AcDbEntity
  8
0
  6
Continuous
 62
     7
370
    30
100
AcDbLine
 10
83.1741018212
 20
210.6835698361
 30
0.0
 11
83.6091018212
 21
210.6835698361
 31
0.0
  0
LINE
  5
F6
330
1F
100
AcDbEntity
  8
0
  6
Continuous
 62
     7
370
    30
100
AcDbLine
 10
84.2141018212
 20
215.6835698361
 30
0.0
 11
84.4141018212
 21
215.6835698361
 31
0.0
  0
LINE
  5
F7
330
1F
100
AcDbEntity
  8
0
  6
Continuous
 62
     7
370
    30
100
AcDbLine
 10
83.6141018212
 20
215.6835698361
 30
0.0
 11
83.8141018212
 21
215.6835698361
 31
0.0
  0
LINE
  5
F8
330
1F
100
AcDbEntity
  8
0
  6
Continuous
 62
     7
370
    30
100
AcDbLine
 10
82.6141018212
 20
210.6835698361
 30
0.0
 11
83.0191018212
 21
210.6835698361
 31
0.0
  0
LINE
  5
F9
330
1F
100
AcDbEntity
  8
0
  6
Continuous
 62
     7
370
    30
100
AcDbLine
 10
82.2091018212
 20
210.6835698361
 30
0.0
 11
82.6141018212
 21
210.6835698361
 31
0.0
  0
LINE
  5
FA
330
1F
100
AcDbEntity
  8
0
  6
Continuous
 62
     7
370
    30
100
AcDbLine
 10
82.6141018212
 20
215.6835698361
 30
0.0
 11
82.8141018212
 21
215.6835698361
 31
0.0
  0
LINE
  5
FB
330
1F
100
AcDbEntity
  8
0
  6
Continuous
 62
     7
370
    30
100
AcDbLine
 10
82.4141018212
 20
215.6835698361
 30
0.0
 11
82.6141018212
 21
215.6835698361
 31
0.0
  0
LINE
  5
FC
330
1F
100
AcDbEntity
  8
0
  6
Continuous
 62
     7
370
    30
100
AcDbLine
 10
78.4141018212
 20
210.6835698361
 30
0.0
 11
78.8191018212
 21
210.6835698361
 31
0.0
  0
LINE
  5
FD
330
1F
100
AcDbEntity
  8
0
  6
Continuous
 62
     7
370
    30
100
AcDbLine
 10
78.0091018212
 20
210.6835698361
 30
0.0
 11
78.4141018212
 21
210.6835698361
 31
0.0
  0
LINE
  5
FE
330
1F
100
AcDbEntity
  8
0
  6
Continuous
 62
     7
370
    30
100
AcDbLine
 10
78.4141018212
 20
215.6835698361
 30
0.0
 11
78.6141018212
 21
215.6835698361
 31
0.0
  0
LINE
  5
FF
330
1F
100
AcDbEntity
  8
0
  6
Continuous
 62
     7
370
    30
100
AcDbLine
 10
78.2141018212
 20
215.6835698361
 30
0.0
 11
78.4141018212
 21
215.6835698361
 31
0.0
  0
LINE
  5
100
330
1F
100
AcDbEntity
  8
0
  6
Continuous
 62
     7
370
    30
100
AcDbLine
 10
84.0141018212
 20
210.6835698361
 30
0.0
 11
84.4191018212
 21
210.6835698361
 31
0.0
  0
LINE
  5
101
330
1F
100
AcDbEntity
  8
0
  6
Continuous
 62
     7
370
    30
100
AcDbLine
 10
83.6091018212
 20
210.6835698361
 30
0.0
 11
84.0141018212
 21
210.6835698361
 31
0.0
  0
LINE
  5
102
330
1F
100
AcDbEntity
  8
0
  6
Continuous
 62
     7
370
    30
100
AcDbLine
 10
84.0141018212
 20
215.6835698361
 30
0.0
 11
84.2141018212
 21
215.6835698361
 31
0.0
  0
LINE
  5
103
330
1F
100
AcDbEntity
  8
0
  6
Continuous
 62
     7
370
    30
100
AcDbLine
 10
83.8141018212
 20
215.6835698361
 30
0.0
 11
84.0141018212
 21
215.6835698361
 31
0.0
  0
LINE
  5
104
330
1F
100
AcDbEntity
  8
0
  6
Continuous
 62
     7
370
    30
100
AcDbLine
 10
79.8141018212
 20
210.6835698361
 30
0.0
 11
80.2191018212
 21
210.6835698361
 31
0.0
  0
LINE
  5
105
330
1F
100
AcDbEntity
  8
0
  6
Continuous
 62
     7
370
    30
100
AcDbLine
 10
79.4091018212
 20
210.6835698361
 30
0.0
 11
79.8141018212
 21
210.6835698361
 31
0.0
  0
LINE
  5
106
330
1F
100
AcDbEntity
  8
0
  6
Continuous
 62
     7
370
    30
100
AcDbLine
 10
79.8141018212
 20
215.6835698361
 30
0.0
 11
80.0141018212
 21
215.6835698361
 31
0.0
  0
LINE
  5
107
330
1F
100
AcDbEntity
  8
0
  6
Continuous
 62
     7
370
    30
100
AcDbLine
 10
79.6141018212
 20
215.6835698361
 30
0.0
 11
79.8141018212
 21
215.6835698361
 31
0.0
  0
LINE
  5
108
330
1F
100
AcDbEntity
  8
0
  6
Continuous
 62
     7
370
    30
100
AcDbLine
 10
85.4141018212
 20
210.6835698361
 30
0.0
 11
85.8191018212
 21
210.6835698361
 31
0.0
  0
LINE
  5
109
330
1F
100
AcDbEntity
  8
0
  6
Continuous
 62
     7
370
    30
100
AcDbLine
 10
85.0091018212
 20
210.6835698361
 30
0.0
 11
85.4141018212
 21
210.6835698361
 31
0.0
  0
LINE
  5
10A
330
1F
100
AcDbEntity
  8
0
  6
Continuous
 62
     7
370
    30
100
AcDbLine
 10
85.4141018212
 20
215.6835698361
 30
0.0
 11
85.6141018212
 21
215.6835698361
 31
0.0
  0
LINE
  5
10B
330
1F
100
AcDbEntity
  8
0
  6
Continuous
 62
     7
370
    30
100
AcDbLine
 10
85.2141018212
 20
215.6835698361
 30
0.0
 11
85.4141018212
 21
215.6835698361
 31
0.0
  0
SPLINE
  5
10C
330
1F
100
AcDbEntity
  8
0
  6
Continuous
 62
     1
370
    15
100
AcDbSpline
210
0.0
220
0.0
230
1.0
 70
     8
 71
     3
 72
     8
 73
     4
 74
     0
 42
0.000000001
 43
0.00000001
 40
0.0
 40
0.0
 40
0.0
 40
0.0
 40
1.0
 40
1.0
 40
1.0
 40
1.0
 10
75.63421103580878
 20
209.7581088906184
 30
0.0
 10
79.37623007088148
 20
206.5900730598706
 30
0.0
 10
83.6940754998002
 20
211.9394450104103
 30
0.0
 10
87.66434045747484
 20
208.666528149144
 30
0.0
  0
SPLINE
  5
10D
330
1F
100
AcDbEntity
  8
0
  6
Continuous
 62
     1
370
    15
100
AcDbSpline
210
0.0
220
0.0
230
1.0
 70
     8
 71
     3
 72
    17
 73
    13
 74
     0
 42
0.000000001
 43
0.00000001
 40
0.0
 40
0.0
 40
0.0
 40
0.0
 40
0.0625
 40
0.125
 40
0.25
 40
0.375
 40
0.5
 40
0.625
 40
0.75
 40
0.875
 40
0.9375
 40
1.0
 40
1.0
 40
1.0
 40
1.0
 10
75.31113818205347
 20
209.3765018529915
 30
0.0
 10
75.55490848572312
 20
209.1701231442624
 30
0.0
 10
76.09621403781637
 20
208.7890811103583
 30
0.0
 10
77.16830671461675
 20
208.3164555622115
 30
0.0
 10
78.54593356250372
 20
208.1383103725238
 30
0.0
 10
80.14375112169581
 20
208.3624391285002
 30
0.0
 10
81.6973536067587
 20
208.7713159093265
 30
0.0
 10
83.20505432944468
 20
209.1590398880947
 30
0.0
 10
84.64452060993162
 20
209.3351184100048
 30
0.0
 10
85.78077527692395
 20
209.1680620063718
 30
0.0
 10
86.66251046002287
 20
208.7809804468339
 30
0.0
 10
87.13497512978158
 20
208.4549241654183
 30
0.0
 10
87.34629654540849
 20
208.2807198159038
 30
0.0
  0
INSERT
  5
165
330
1F
100
AcDbEntity
  8
0
  6
Continuous
 62
     7
370
     0
100
AcDbBlockReference
  2
SW_CENTERMARKSYMBOL_0
 10
92.2139112381
 20
201.7354174534
 30
0.0
  0
INSERT
  5
1A1
330
1F
100
AcDbEntity
  8
0
  6
Continuous
 62
     7
370
     0
100
AcDbBlockReference
  2
SW_CENTERMARKSYMBOL_1
 10
81.2141018212
 20
185.6835698361
 30
0.0
  0
INSERT
  5
1AD
330
1F
100
AcDbEntity
  8
0
  6
Continuous
 62
     7
370
     0
100
AcDbBlockReference
  2
SW_CENTERMARKSYMBOL_2
 10
81.2141018212
 20
160.6835698361
 30
0.0
  0
INSERT
  5
1B9
330
1F
100
AcDbEntity
  8
0
  6
Continuous
 62
     7
370
     0
100
AcDbBlockReference
  2
SW_CENTERMARKSYMBOL_3
 10
90.7811876303
 20
183.7805581489
 30
0.0
  0
INSERT
  5
1DD
330
1F
100
AcDbEntity
  8
0
  6
Continuous
 62
     7
370
     0
100
AcDbBlockReference
  2
SW_CENTERMARKSYMBOL_4
 10
44.4080221604
 20
181.9335698361
 30
0.0
  0
CIRCLE
  5
1DE
330
1F
100
AcDbEntity
  8
0
  6
Continuous
 62
     7
370
     0
100
AcDbCircle
 10
81.2141018212
 20
185.6835698361
 30
0.0
 40
1.500000013038559
  0
CIRCLE
  5
1DF
330
1F
100
AcDbEntity
  8
0
  6
Continuous
 62
     7
370
     0
100
AcDbCircle
 10
63.5364322915
 20
178.3612393657
 30
0.0
 40
1.499999753057701
  0
CIRCLE
  5
1E0
330
1F
100
AcDbEntity
  8
0
  6
Continuous
 62
     7
370
     0
100
AcDbCircle
 10
56.2141018212
 20
160.6835698361
 30
0.0
 40
1.500000013038644
  0
CIRCLE
  5
1E1
330
1F
100
AcDbEntity
  8
0
  6
Continuous
 62
     7
370
     0
100
AcDbCircle
 10
63.5364322915
 20
143.0059003064
 30
0.0
 40
1.499999753057786
  0
CIRCLE
  5
1E2
330
1F
100
AcDbEntity
  8
0
  6
Continuous
 62
     7
370
     0
100
AcDbCircle
 10
81.2141018212
 20
135.6835698361
 30
0.0
 40
1.500000013038559
  0
CIRCLE
  5
1E3
330
1F
100
AcDbEntity
  8
0
  6
Continuous
 62
     7
370
     0
100
AcDbCircle
 10
98.8917713509
 20
143.0059003064
 30
0.0
 40
1.499999753057878
  0
CIRCLE
  5
1E4
330
1F
100
AcDbEntity
  8
0
  6
Continuous
 62
     7
370
     0
100
AcDbCircle
 10
106.2141018212
 20
160.6835698361
 30
0.0
 40
1.5000000130388
  0
CIRCLE
  5
1E5
330
1F
100
AcDbEntity
  8
0
  6
Continuous
 62
     7
370
     0
100
AcDbCircle
 10
98.8917713509
 20
178.3612393657
 30
0.0
 40
1.499999753057949
  0
CIRCLE
  5
1E6
330
1F
100
AcDbEntity
  8
0
  6
Continuous
 62
     7
370
     0
100
AcDbCircle
 10
102.4641018212
 20
197.4896494969
 30
0.0
 40
1.229499599477677
  0
CIRCLE
  5
1E7
330
1F
100
AcDbEntity
  8
0
  6
Continuous
 62
     7
370
     0
100
AcDbCircle
 10
118.020181482
 20
139.4335698361
 30
0.0
 40
1.229499599477492
  0
CIRCLE
  5
1E8
330
1F
100
AcDbEntity
  8
0
  6
Continuous
 62
     7
370
     0
100
AcDbCircle
 10
59.9641018212
 20
123.8774901752
 30
0.0
 40
1.229499599477379
  0
CIRCLE
  5
1E9
330
1F
100
AcDbEntity
  8
0
  6
Continuous
 62
     7
370
     0
100
AcDbCircle
 10
44.4080221604
 20
181.9335698361
 30
0.0
 40
1.229499599477208
  0
CIRCLE
  5
1EA
330
1F
100
AcDbEntity
  8
0
  6
Continuous
 62
     7
370
     0
100
AcDbCircle
 10
59.9641018212
 20
123.8774901752
 30
0.0
 40
1.499999091029444
  0
CIRCLE
  5
1EB
330
1F
100
AcDbEntity
  8
0
  6
Continuous
 62
     7
370
     0
100
AcDbCircle
 10
44.4080221604
 20
181.9335698361
 30
0.0
 40
1.499998485034432
  0
CIRCLE
  5
1EC
330
1F
100
AcDbEntity
  8
0
  6
Continuous
 62
     7
370
     0
100
AcDbCircle
 10
102.4641018212
 20
197.4896494969
 30
0.0
 40
1.499999538064202
  0
CIRCLE
  5
1ED
330
1F
100
AcDbEntity
  8
0
  6
Continuous
 62
     7
370
     0
100
AcDbCircle
 10
118.020181482
 20
139.4335698361
 30
0.0
 40
1.500000144058916
  0
INSERT
  5
1F4
330
1F
100
AcDbEntity
  8
0
  6
Continuous
 62
     7
370
     0
100
AcDbBlockReference
  2
SW_DOWELSYMBOL_0
 10
90.7811876303
 20
183.7805581489
 30
0.0
  0
CIRCLE
  5
1F5
330
1F
100
AcDbEntity
  8
0
  6
Continuous
 62
     7
100
AcDbCircle
 10
341.3047220046
 20
203.0800419721
 30
0.0
 40
1.999999999999995
  0
LINE
  5
1F6
330
1F
100
AcDbEntity
  8
0
  6
Continuous
 62
     7
370
    30
100
AcDbLine
 10
340.3000718705
 20
210.6835698361
 30
0.0
 11
340.3000718705
 21
197.8944144612
 31
0.0
  0
LINE
  5
1F7
330
1F
100
AcDbEntity
  8
0
  6
Continuous
 62
     7
370
    30
100
AcDbLine
 10
341.9800718705
 20
197.7492889746
 30
0.0
 11
341.9800718705
 21
210.6835698361
 31
0.0
  0
LINE
  5
1F8
330
1F
100
AcDbEntity
  8
0
  6
Continuous
 62
     7
370
    30
100
AcDbLine
 10
341.5400718705
 20
210.6835698361
 30
0.0
 11
341.5400718705
 21
215.6835698361
 31
0.0
  0
LINE
  5
1F9
330
1F
100
AcDbEntity
  8
0
  6
Continuous
 62
     7
370
    30
100
AcDbLine
 10
340.7400718705
 20
215.6835698361
 30
0.0
 11
340.7400718705
 21
210.6835698361
 31
0.0
  0
LINE
  5
1FA
330
1F
100
AcDbEntity
  8
0
  6
Continuous
 62
     7
370
    30
100
AcDbLine
 10
337.5000718705
 20
210.6835698361
 30
0.0
 11
337.5000718705
 21
197.9429876672
 31
0.0
  0
LINE
  5
1FB
330
1F
100
AcDbEntity
  8
0
  6
Continuous
 62
     7
370
    30
100
AcDbLine
 10
339.1800718705
 20
197.9427475109
 30
0.0
 11
339.1800718705
 21
210.6835698361
 31
0.0
  0
LINE
  5
1FC
330
1F
100
AcDbEntity
  8
0
  6
Continuous
 62
     7
370
    30
100
AcDbLine
 10
338.7400718705
 20
210.6835698361
 30
0.0
 11
338.7400718705
 21
215.6835698361
 31
0.0
  0
LINE
  5
1FD
330
1F
100
AcDbEntity
  8
0
  6
Continuous
 62
     7
370
    30
100
AcDbLine
 10
337.9400718705
 20
215.6835698361
 30
0.0
 11
337.9400718705
 21
210.6835698361
 31
0.0
  0
LINE
  5
1FE
330
1F
100
AcDbEntity
  8
0
  6
Continuous
 62
     7
370
    30
100
AcDbLine
 10
342.1350718705
 20
210.6835698361
 30
0.0
 11
342.1350718705
 21
197.7312397488
 31
0.0
  0
LINE
  5
1FF
330
1F
100
AcDbEntity
  8
0
  6
Continuous
 62
     7
370
    30
100
AcDbLine
 10
342.9450718705
 20
197.6258328648
 30
0.0
 11
342.9450718705
 21
210.6835698361
 31
0.0
  0
LINE
  5
200
330
1F
100
AcDbEntity
  8
0
  6
Continuous
 62
     7
370
    30
100
AcDbLine
 10
342.7400718705
 20
210.6835698361
 30
0.0
 11
342.7400718705
 21
215.6835698361
 31
0.0
  0
LINE
  5
201
330
1F
100
AcDbEntity
  8
0
  6
Continuous
 62
     7
370
    30
100
AcDbLine
 10
342.3400718705
 20
215.6835698361
 30
0.0
 11
342.3400718705
 21
210.6835698361
 31
0.0
  0
LINE
  5
202
330
1F
100
AcDbEntity
  8
0
  6
Continuous
 62
     7
370
    30
100
AcDbLine
 10
334.7000718705
 20
210.6835698361
 30
0.0
 11
334.7000718705
 21
197.7503082701
 31
0.0
  0
LINE
  5
203
330
1F
100
AcDbEntity
  8
0
  6
Continuous
 62
     7
370
    30
100
AcDbLine
 10
336.3800718705
 20
197.8944144612
 30
0.0
 11
336.3800718705
 21
210.6835698361
 31
0.0
  0
LINE
  5
204
330
1F
100
AcDbEntity
  8
0
  6
Continuous
 62
     7
370
    30
100
AcDbLine
 10
335.9400718705
 20
210.6835698361
 30
0.0
 11
335.9400718705
 21
215.6835698361
 31
0.0
  0
LINE
  5
205
330
1F
100
AcDbEntity
  8
0
  6
Continuous
 62
     7
370
    30
100
AcDbLine
 10
335.1400718705
 20
215.6835698361
 30
0.0
 11
335.1400718705
 21
210.6835698361
 31
0.0
  0
LINE
  5
206
330
1F
100
AcDbEntity
  8
0
  6
Continuous
 62
     7
370
    30
100
AcDbLine
 10
336.5350718705
 20
210.6835698361
 30
0.0
 11
336.5350718705
 21
197.9036960508
 31
0.0
  0
LINE
  5
207
330
1F
100
AcDbEntity
  8
0
  6
Continuous
 62
     7
370
    30
100
AcDbLine
 10
337.3450718705
 20
197.9383351114
 30
0.0
 11
337.3450718705
 21
210.6835698361
 31
0.0
  0
LINE
  5
208
330
1F
100
AcDbEntity
  8
0
  6
Continuous
 62
     7
370
    30
100
AcDbLine
 10
337.1400718705
 20
210.6835698361
 30
0.0
 11
337.1400718705
 21
215.6835698361
 31
0.0
  0
LINE
  5
209
330
1F
100
AcDbEntity
  8
0
  6
Continuous
 62
     7
370
    30
100
AcDbLine
 10
336.7400718705
 20
215.6835698361
 30
0.0
 11
336.7400718705
 21
210.6835698361
 31
0.0
  0
LINE
  5
20A
330
1F
100
AcDbEntity
  8
0
  6
Continuous
 62
     7
370
    30
100
AcDbLine
 10
339.3350718705
 20
210.6835698361
 30
0.0
 11
339.3350718705
 21
197.9383351114
 31
0.0
  0
LINE
  5
20B
330
1F
100
AcDbEntity
  8
0
  6
Continuous
 62
     7
370
    30
100
AcDbLine
 10
340.1450718705
 20
197.9034488074
 30
0.0
 11
340.1450718705
 21
210.6835698361
 31
0.0
  0
LINE
  5
20C
330
1F
100
AcDbEntity
  8
0
  6
Continuous
 62
     7
370
    30
100
AcDbLine
 10
339.9400718705
 20
210.6835698361
 30
0.0
 11
339.9400718705
 21
215.6835698361
 31
0.0
  0
LINE
  5
20D
330
1F
100
AcDbEntity
  8
0
  6
Continuous
 62
     7
370
    30
100
AcDbLine
 10
339.5400718705
 20
215.6835698361
 30
0.0
 11
339.5400718705
 21
210.6835698361
 31
0.0
  0
LINE
  5
20E
330
1F
100
AcDbEntity
  8
0
  6
Continuous
 62
     7
370
    30
100
AcDbLine
 10
333.7350718705
 20
210.6835698361
 30
0.0
 11
333.7350718705
 21
197.6264250178
 31
0.0
  0
LINE
  5
20F
330
1F
100
AcDbEntity
  8
0
  6
Continuous
 62
     7
370
    30
100
AcDbLine
 10
334.5450718705
 20
197.7312397488
 30
0.0
 11
334.5450718705
 21
210.6835698361
 31
0.0
  0
LINE
  5
210
330
1F
100
AcDbEntity
  8
0
  6
Continuous
 62
     7
370
    30
100
AcDbLine
 10
334.3400718705
 20
210.6835698361
 30
0.0
 11
334.3400718705
 21
215.6835698361
 31
0.0
  0
LINE
  5
211
330
1F
100
AcDbEntity
  8
0
  6
Continuous
 62
     7
370
    30
100
AcDbLine
 10
333.9400718705
 20
215.6835698361
 30
0.0
 11
333.9400718705
 21
210.6835698361
 31
0.0
  0
ARC
  5
212
330
1F
100
AcDbEntity
  8
0
  6
Continuous
 62
     7
370
    30
100
AcDbCircle
 10
354.8400718705
 20
149.1835698361
 30
0.0
 40
1.0
100
AcDbArc
 50
270.0
 51
0.0
  0
LINE
  5
213
330
1F
100
AcDbEntity
  8
0
  6
Continuous
 62
     7
370
    30
100
AcDbLine
 10
321.8400718705
 20
148.1835698361
 30
0.0
 11
354.8400718705
 21
148.1835698361
 31
0.0
  0
ARC
  5
214
330
1F
100
AcDbEntity
  8
0
  6
Continuous
 62
     7
370
    30
100
AcDbCircle
 10
321.8400718705
 20
149.1835698361
 30
0.0
 40
1.0
100
AcDbArc
 50
180.0
 51
270.0
  0
LINE
  5
215
330
1F
100
AcDbEntity
  8
0
  6
Continuous
 62
     7
370
    30
100
AcDbLine
 10
320.8400718705
 20
172.1835698361
 30
0.0
 11
320.8400718705
 21
149.1835698361
 31
0.0
  0
ARC
  5
216
330
1F
100
AcDbEntity
  8
0
  6
Continuous
 62
     7
370
    30
100
AcDbCircle
 10
321.8400718705
 20
172.1835698361
 30
0.0
 40
1.0
100
AcDbArc
 50
90.0
 51
180.0
  0
LINE
  5
217
330
1F
100
AcDbEntity
  8
0
  6
Continuous
 62
     7
370
    30
100
AcDbLine
 10
354.8400718705
 20
173.1835698361
 30
0.0
 11
321.8400718705
 21
173.1835698361
 31
0.0
  0
ARC
  5
218
330
1F
100
AcDbEntity
  8
0
  6
Continuous
 62
     7
370
    30
100
AcDbCircle
 10
354.8400718705
 20
172.1835698361
 30
0.0
 40
1.0
100
AcDbArc
 50
0.0
 51
90.0
  0
LINE
  5
219
330
1F
100
AcDbEntity
  8
0
  6
Continuous
 62
     7
370
    30
100
AcDbLine
 10
355.8400718705
 20
149.1835698361
 30
0.0
 11
355.8400718705
 21
172.1835698361
 31
0.0
  0
CIRCLE
  5
21A
330
1F
100
AcDbEntity
  8
0
  6
Continuous
 62
     7
370
    30
100
AcDbCircle
 10
317.0900718705
 20
197.4896494969
 30
0.0
 40
2.840000000000038
  0
LINE
  5
21B
330
1F
100
AcDbEntity
  8
0
  6
Continuous
 62
     7
370
    30
100
AcDbLine
 10
318.5680885596
 20
197.4896494969
 30
0.0
 11
317.829080215
 21
198.7696494969
 31
0.0
  0
LINE
  5
21C
330
1F
100
AcDbEntity
  8
0
  6
Continuous
 62
     7
370
    30
100
AcDbLine
 10
316.3510635259
 20
198.7696494969
 30
0.0
 11
315.6120551813
 21
197.4896494969
 31
0.0
  0
LINE
  5
21D
330
1F
100
AcDbEntity
  8
0
  6
Continuous
 62
     7
370
    30
100
AcDbLine
 10
315.6120551813
 20
197.4896494969
 30
0.0
 11
316.3510635259
 21
196.2096494969
 31
0.0
  0
LINE
  5
21E
330
1F
100
AcDbEntity
  8
0
  6
Continuous
 62
     7
370
    30
100
AcDbLine
 10
316.3510635259
 20
196.2096494969
 30
0.0
 11
317.829080215
 21
196.2096494969
 31
0.0
  0
LINE
  5
21F
330
1F
100
AcDbEntity
  8
0
  6
Continuous
 62
     7
370
    30
100
AcDbLine
 10
317.829080215
 20
198.7696494969
 30
0.0
 11
316.3510635259
 21
198.7696494969
 31
0.0
  0
LINE
  5
220
330
1F
100
AcDbEntity
  8
0
  6
Continuous
 62
     7
370
    30
100
AcDbLine
 10
317.829080215
 20
196.2096494969
 30
0.0
 11
318.5680885596
 21
197.4896494969
 31
0.0
  0
LINE
  5
221
330
1F
100
AcDbEntity
  8
0
  6
Continuous
 62
     7
370
    30
100
AcDbLine
 10
301.5339922096
 20
140.9115865252
 30
0.0
 11
300.2539922096
 21
140.1725781806
 31
0.0
  0
LINE
  5
222
330
1F
100
AcDbEntity
  8
0
  6
Continuous
 62
     7
370
    30
100
AcDbLine
 10
300.2539922096
 20
138.6945614915
 30
0.0
 11
301.5339922096
 21
137.9555531469
 31
0.0
  0
LINE
  5
223
330
1F
100
AcDbEntity
  8
0
  6
Continuous
 62
     7
370
    30
100
AcDbLine
 10
301.5339922096
 20
137.9555531469
 30
0.0
 11
302.8139922096
 21
138.6945614915
 31
0.0
  0
LINE
  5
224
330
1F
100
AcDbEntity
  8
0
  6
Continuous
 62
     7
370
    30
100
AcDbLine
 10
302.8139922096
 20
138.6945614915
 30
0.0
 11
302.8139922096
 21
140.1725781806
 31
0.0
  0
LINE
  5
225
330
1F
100
AcDbEntity
  8
0
  6
Continuous
 62
     7
370
    30
100
AcDbLine
 10
300.2539922096
 20
140.1725781806
 30
0.0
 11
300.2539922096
 21
138.6945614915
 31
0.0
  0
LINE
  5
226
330
1F
100
AcDbEntity
  8
0
  6
Continuous
 62
     7
370
    30
100
AcDbLine
 10
302.8139922096
 20
140.1725781806
 30
0.0
 11
301.5339922096
 21
140.9115865252
 31
0.0
  0
CIRCLE
  5
227
330
1F
100
AcDbEntity
  8
0
  6
Continuous
 62
     7
370
    30
100
AcDbCircle
 10
301.5339922096
 20
139.4335698361
 30
0.0
 40
2.840000000000038
  0
CIRCLE
  5
228
330
1F
100
AcDbEntity
  8
0
  6
Continuous
 62
     7
370
    30
100
AcDbCircle
 10
375.1461515313
 20
181.9335698361
 30
0.0
 40
2.839999999999989
  0
LINE
  5
229
330
1F
100
AcDbEntity
  8
0
  6
Continuous
 62
     7
370
    30
100
AcDbLine
 10
373.8661515313
 20
181.1945614915
 30
0.0
 11
375.1461515313
 21
180.4555531469
 31
0.0
  0
LINE
  5
22A
330
1F
100
AcDbEntity
  8
0
  6
Continuous
 62
     7
370
    30
100
AcDbLine
 10
375.1461515313
 20
180.4555531469
 30
0.0
 11
376.4261515313
 21
181.1945614915
 31
0.0
  0
LINE
  5
22B
330
1F
100
AcDbEntity
  8
0
  6
Continuous
 62
     7
370
    30
100
AcDbLine
 10
376.4261515313
 20
181.1945614915
 30
0.0
 11
376.4261515313
 21
182.6725781806
 31
0.0
  0
LINE
  5
22C
330
1F
100
AcDbEntity
  8
0
  6
Continuous
 62
     7
370
    30
100
AcDbLine
 10
376.4261515313
 20
182.6725781806
 30
0.0
 11
375.1461515313
 21
183.4115865252
 31
0.0
  0
LINE
  5
22D
330
1F
100
AcDbEntity
  8
0
  6
Continuous
 62
     7
370
    30
100
AcDbLine
 10
375.1461515313
 20
183.4115865252
 30
0.0
 11
373.8661515313
 21
182.6725781806
 31
0.0
  0
LINE
  5
22E
330
1F
100
AcDbEntity
  8
0
  6
Continuous
 62
     7
370
    30
100
AcDbLine
 10
373.8661515313
 20
182.6725781806
 30
0.0
 11
373.8661515313
 21
181.1945614915
 31
0.0
  0
LINE
  5
22F
330
1F
100
AcDbEntity
  8
0
  6
Continuous
 62
     7
370
    30
100
AcDbLine
 10
358.8510635259
 20
125.1574901752
 30
0.0
 11
358.1120551813
 21
123.8774901752
 31
0.0
  0
LINE
  5
230
330
1F
100
AcDbEntity
  8
0
  6
Continuous
 62
     7
370
    30
100
AcDbLine
 10
358.1120551813
 20
123.8774901752
 30
0.0
 11
358.8510635259
 21
122.5974901752
 31
0.0
  0
LINE
  5
231
330
1F
100
AcDbEntity
  8
0
  6
Continuous
 62
     7
370
    30
100
AcDbLine
 10
358.8510635259
 20
122.5974901752
 30
0.0
 11
360.329080215
 21
122.5974901752
 31
0.0
  0
LINE
  5
232
330
1F
100
AcDbEntity
  8
0
  6
Continuous
 62
     7
370
    30
100
AcDbLine
 10
360.329080215
 20
122.5974901752
 30
0.0
 11
361.0680885596
 21
123.8774901752
 31
0.0
  0
LINE
  5
233
330
1F
100
AcDbEntity
  8
0
  6
Continuous
 62
     7
370
    30
100
AcDbLine
 10
361.0680885596
 20
123.8774901752
 30
0.0
 11
360.329080215
 21
125.1574901752
 31
0.0
  0
LINE
  5
234
330
1F
100
AcDbEntity
  8
0
  6
Continuous
 62
     7
370
    30
100
AcDbLine
 10
360.329080215
 20
125.1574901752
 30
0.0
 11
358.8510635259
 21
125.1574901752
 31
0.0
  0
CIRCLE
  5
235
330
1F
100
AcDbEntity
  8
0
  6
Continuous
 62
     7
370
    30
100
AcDbCircle
 10
359.5900718705
 20
123.8774901752
 30
0.0
 40
2.839999999999989
  0
ARC
  5
236
330
1F
100
AcDbEntity
  8
0
  6
Continuous
 62
     7
370
    30
100
AcDbCircle
 10
332.8400718705
 20
182.1835698361
 30
0.0
 40
1.5
100
AcDbArc
 50
180.0
 51
270.0
  0
ARC
  5
237
330
1F
100
AcDbEntity
  8
0
  6
Continuous
 62
     7
370
    30
100
AcDbCircle
 10
343.8400718705
 20
182.1835698361
 30
0.0
 40
1.5
100
AcDbArc
 50
270.0
 51
0.0
  0
LINE
  5
238
330
1F
100
AcDbEntity
  8
0
  6
Continuous
 62
     7
370
    30
100
AcDbLine
 10
332.8400718705
 20
180.6835698361
 30
0.0
 11
343.8400718705
 21
180.6835698361
 31
0.0
  0
LINE
  5
239
330
1F
100
AcDbEntity
  8
0
  6
Continuous
 62
     7
370
    30
100
AcDbLine
 10
331.3400718705
 20
195.2315437275
 30
0.0
 11
331.3400718705
 21
182.1835698361
 31
0.0
  0
ARC
  5
23A
330
1F
100
AcDbEntity
  8
0
  6
Continuous
 62
     7
370
    30
100
AcDbCircle
 10
338.3400718705
 20
160.6835698361
 30
0.0
 40
35.25
100
AcDbArc
 50
78.5459752123
 51
101.4540247877
  0
LINE
  5
23B
330
1F
100
AcDbEntity
  8
0
  6
Continuous
 62
     7
370
    30
100
AcDbLine
 10
345.3400718705
 20
195.2315437275
 30
0.0
 11
345.3400718705
 21
182.1835698361
 31
0.0
  0
ARC
  5
23C
330
1F
100
AcDbEntity
  8
0
  6
Continuous
 62
     7
370
    30
100
AcDbCircle
 10
338.3400718705
 20
165.4535698361
 30
0.0
 40
32.49999999999998
100
AcDbArc
 50
80.2569026232
 51
99.7430973768
  0
LINE
  5
23D
330
1F
100
AcDbEntity
  8
0
  6
Continuous
 62
     7
370
    30
100
AcDbLine
 10
332.8400718705
 20
197.4848045922
 30
0.0
 11
332.8400718705
 21
195.5018480818
 31
0.0
  0
LINE
  5
23E
330
1F
100
AcDbEntity
  8
0
  6
Continuous
 62
     7
370
    30
100
AcDbLine
 10
343.8400718705
 20
195.5018480818
 30
0.0
 11
343.8400718705
 21
197.4848045922
 31
0.0
  0
ARC
  5
23F
330
1F
100
AcDbEntity
  8
0
  6
Continuous
 62
     7
370
    30
100
AcDbCircle
 10
338.3400718705
 20
160.6835698361
 30
0.0
 40
35.25
100
AcDbArc
 50
101.4540247877
 51
78.5459752123
  0
CIRCLE
  5
240
330
1F
100
AcDbEntity
  8
0
  6
Continuous
 62
     7
370
    30
100
AcDbCircle
 10
371.6820499162
 20
141.4335698361
 30
0.0
 40
2.840000000000032
  0
LINE
  5
241
330
1F
100
AcDbEntity
  8
0
  6
Continuous
 62
     7
370
    30
100
AcDbLine
 10
371.6820499162
 20
142.9115865252
 30
0.0
 11
370.4020499162
 21
142.1725781806
 31
0.0
  0
LINE
  5
242
330
1F
100
AcDbEntity
  8
0
  6
Continuous
 62
     7
370
    30
100
AcDbLine
 10
370.4020499162
 20
140.6945614915
 30
0.0
 11
371.6820499162
 21
139.9555531469
 31
0.0
  0
LINE
  5
243
330
1F
100
AcDbEntity
  8
0
  6
Continuous
 62
     7
370
    30
100
AcDbLine
 10
371.6820499162
 20
139.9555531469
 30
0.0
 11
372.9620499162
 21
140.6945614915
 31
0.0
  0
LINE
  5
244
330
1F
100
AcDbEntity
  8
0
  6
Continuous
 62
     7
370
    30
100
AcDbLine
 10
372.9620499162
 20
140.6945614915
 30
0.0
 11
372.9620499162
 21
142.1725781806
 31
0.0
  0
LINE
  5
245
330
1F
100
AcDbEntity
  8
0
  6
Continuous
 62
     7
370
    30
100
AcDbLine
 10
372.9620499162
 20
142.1725781806
 30
0.0
 11
371.6820499162
 21
142.9115865252
 31
0.0
  0
LINE
  5
246
330
1F
100
AcDbEntity
  8
0
  6
Continuous
 62
     7
370
    30
100
AcDbLine
 10
370.4020499162
 20
142.1725781806
 30
0.0
 11
370.4020499162
 21
140.6945614915
 31
0.0
  0
CIRCLE
  5
247
330
1F
100
AcDbEntity
  8
0
  6
Continuous
 62
     7
370
    30
100
AcDbCircle
 10
357.5900718705
 20
194.0255478818
 30
0.0
 40
2.840000000000032
  0
CIRCLE
  5
248
330
1F
100
AcDbEntity
  8
0
  6
Continuous
 62
     7
370
    30
100
AcDbCircle
 10
319.0900718705
 20
127.3415917904
 30
0.0
 40
2.839999999999975
  0
CIRCLE
  5
249
330
1F
100
AcDbEntity
  8
0
  6
Continuous
 62
     7
370
    30
100
AcDbCircle
 10
304.9980938248
 20
179.9335698361
 30
0.0
 40
2.839999999999975
  0
LINE
  5
24A
330
1F
100
AcDbEntity
  8
0
  6
Continuous
 62
     7
370
    30
100
AcDbLine
 10
304.9980938248
 20
178.4555531469
 30
0.0
 11
306.2780938248
 21
179.1945614915
 31
0.0
  0
LINE
  5
24B
330
1F
100
AcDbEntity
  8
0
  6
Continuous
 62
     7
370
    30
100
AcDbLine
 10
306.2780938248
 20
180.6725781806
 30
0.0
 11
304.9980938248
 21
181.4115865252
 31
0.0
  0
LINE
  5
24C
330
1F
100
AcDbEntity
  8
0
  6
Continuous
 62
     7
370
    30
100
AcDbLine
 10
303.7180938248
 20
180.6725781806
 30
0.0
 11
303.7180938248
 21
179.1945614915
 31
0.0
  0
LINE
  5
24D
330
1F
100
AcDbEntity
  8
0
  6
Continuous
 62
     7
370
    30
100
AcDbLine
 10
303.7180938248
 20
179.1945614915
 30
0.0
 11
304.9980938248
 21
178.4555531469
 31
0.0
  0
LINE
  5
24E
330
1F
100
AcDbEntity
  8
0
  6
Continuous
 62
     7
370
    30
100
AcDbLine
 10
304.9980938248
 20
181.4115865252
 30
0.0
 11
303.7180938248
 21
180.6725781806
 31
0.0
  0
LINE
  5
24F
330
1F
100
AcDbEntity
  8
0
  6
Continuous
 62
     7
370
    30
100
AcDbLine
 10
306.2780938248
 20
179.1945614915
 30
0.0
 11
306.2780938248
 21
180.6725781806
 31
0.0
  0
LINE
  5
250
330
1F
100
AcDbEntity
  8
0
  6
Continuous
 62
     7
370
    30
100
AcDbLine
 10
356.8510635259
 20
195.3055478818
 30
0.0
 11
356.1120551813
 21
194.0255478818
 31
0.0
  0
LINE
  5
251
330
1F
100
AcDbEntity
  8
0
  6
Continuous
 62
     7
370
    30
100
AcDbLine
 10
358.329080215
 20
195.3055478818
 30
0.0
 11
356.8510635259
 21
195.3055478818
 31
0.0
  0
LINE
  5
252
330
1F
100
AcDbEntity
  8
0
  6
Continuous
 62
     7
370
    30
100
AcDbLine
 10
356.8510635259
 20
192.7455478818
 30
0.0
 11
358.329080215
 21
192.7455478818
 31
0.0
  0
LINE
  5
253
330
1F
100
AcDbEntity
  8
0
  6
Continuous
 62
     7
370
    30
100
AcDbLine
 10
359.0680885596
 20
194.0255478818
 30
0.0
 11
358.329080215
 21
195.3055478818
 31
0.0
  0
LINE
  5
254
330
1F
100
AcDbEntity
  8
0
  6
Continuous
 62
     7
370
    30
100
AcDbLine
 10
358.329080215
 20
192.7455478818
 30
0.0
 11
359.0680885596
 21
194.0255478818
 31
0.0
  0
LINE
  5
255
330
1F
100
AcDbEntity
  8
0
  6
Continuous
 62
     7
370
    30
100
AcDbLine
 10
356.1120551813
 20
194.0255478818
 30
0.0
 11
356.8510635259
 21
192.7455478818
 31
0.0
  0
LINE
  5
256
330
1F
100
AcDbEntity
  8
0
  6
Continuous
 62
     7
370
    30
100
AcDbLine
 10
318.3510635259
 20
126.0615917904
 30
0.0
 11
319.829080215
 21
126.0615917904
 31
0.0
  0
LINE
  5
257
330
1F
100
AcDbEntity
  8
0
  6
Continuous
 62
     7
370
    30
100
AcDbLine
 10
317.6120551813
 20
127.3415917904
 30
0.0
 11
318.3510635259
 21
126.0615917904
 31
0.0
  0
LINE
  5
258
330
1F
100
AcDbEntity
  8
0
  6
Continuous
 62
     7
370
    30
100
AcDbLine
 10
319.829080215
 20
126.0615917904
 30
0.0
 11
320.5680885596
 21
127.3415917904
 31
0.0
  0
LINE
  5
259
330
1F
100
AcDbEntity
  8
0
  6
Continuous
 62
     7
370
    30
100
AcDbLine
 10
318.3510635259
 20
128.6215917904
 30
0.0
 11
317.6120551813
 21
127.3415917904
 31
0.0
  0
LINE
  5
25A
330
1F
100
AcDbEntity
  8
0
  6
Continuous
 62
     7
370
    30
100
AcDbLine
 10
319.829080215
 20
128.6215917904
 30
0.0
 11
318.3510635259
 21
128.6215917904
 31
0.0
  0
LINE
  5
25B
330
1F
100
AcDbEntity
  8
0
  6
Continuous
 62
     7
370
    30
100
AcDbLine
 10
320.5680885596
 20
127.3415917904
 30
0.0
 11
319.829080215
 21
128.6215917904
 31
0.0
  0
CIRCLE
  5
25C
330
1F
100
AcDbEntity
  8
0
  6
Continuous
 62
     7
370
    30
100
AcDbCircle
 10
304.9980938248
 20
179.9335698361
 30
0.0
 40
2.950000000000017
  0
CIRCLE
  5
25D
330
1F
100
AcDbEntity
  8
0
  6
Continuous
 62
     7
370
    30
100
AcDbCircle
 10
371.6820499162
 20
141.4335698361
 30
0.0
 40
2.949999999999989
  0
CIRCLE
  5
25E
330
1F
100
AcDbEntity
  8
0
  6
Continuous
 62
     7
370
    30
100
AcDbCircle
 10
357.5900718705
 20
194.0255478818
 30
0.0
 40
2.949999999999989
  0
CIRCLE
  5
25F
330
1F
100
AcDbEntity
  8
0
  6
Continuous
 62
     7
370
    30
100
AcDbCircle
 10
319.0900718705
 20
127.3415917904
 30
0.0
 40
2.949999999999989
  0
ARC
  5
260
330
1F
100
AcDbEntity
  8
0
  6
Continuous
 62
     7
370
    30
100
AcDbCircle
 10
357.5900718705
 20
194.0255478818
 30
0.0
 40
3.500000000000014
100
AcDbArc
 50
260.7988144277
 51
219.2011855723
  0
ARC
  5
261
330
1F
100
AcDbEntity
  8
0
  6
Continuous
 62
     7
370
    30
100
AcDbCircle
 10
371.6820499162
 20
141.4335698361
 30
0.0
 40
3.499999999999992
100
AcDbArc
 50
170.7988144277
 51
129.2011855723
  0
ARC
  5
262
330
1F
100
AcDbEntity
  8
0
  6
Continuous
 62
     7
370
    30
100
AcDbCircle
 10
319.0900718705
 20
127.3415917904
 30
0.0
 40
3.500000000000014
100
AcDbArc
 50
80.7988144277
 51
39.2011855723
  0
ARC
  5
263
330
1F
100
AcDbEntity
  8
0
  6
Continuous
 62
     7
370
    30
100
AcDbCircle
 10
304.9980938248
 20
179.9335698361
 30
0.0
 40
3.500000000000028
100
AcDbArc
 50
350.7988144277
 51
309.2011855723
  0
ARC
  5
264
330
1F
100
AcDbEntity
  8
0
  6
Continuous
 62
     7
370
    30
100
AcDbCircle
 10
382.481812318
 20
150.7302161166
 30
0.0
 40
9.999999999999979
100
AcDbArc
 50
167.2931038792
 51
220.7225119457
  0
ARC
  5
265
330
1F
100
AcDbEntity
  8
0
  6
Continuous
 62
     7
370
    30
100
AcDbCircle
 10
371.6820499162
 20
141.4335698361
 30
0.0
 40
4.250000000000012
100
AcDbArc
 50
259.2774880543
 51
40.7225119457
  0
ARC
  5
266
330
1F
100
AcDbEntity
  8
0
  6
Continuous
 62
     7
370
    30
100
AcDbCircle
 10
369.0307992682
 20
127.432378101
 30
0.0
 40
9.99999999999999
100
AcDbArc
 50
79.2774880543
 51
132.7068961208
  0
ARC
  5
267
330
1F
100
AcDbEntity
  8
0
  6
Continuous
 62
     7
370
    30
100
AcDbCircle
 10
328.386718151
 20
116.5418293886
 30
0.0
 40
9.99999999999997
100
AcDbArc
 50
77.2931038792
 51
130.7225119457
  0
ARC
  5
268
330
1F
100
AcDbEntity
  8
0
  6
Continuous
 62
     7
370
    30
100
AcDbCircle
 10
319.0900718705
 20
127.3415917904
 30
0.0
 40
4.250000000000053
100
AcDbArc
 50
169.2774880543
 51
310.7225119457
  0
ARC
  5
269
330
1F
100
AcDbEntity
  8
0
  6
Continuous
 62
     7
370
    30
100
AcDbCircle
 10
305.0888801354
 20
129.9928424384
 30
0.0
 40
9.999999999999996
100
AcDbArc
 50
349.2774880543
 51
42.7068961208
  0
ARC
  5
26A
330
1F
100
AcDbEntity
  8
0
  6
Continuous
 62
     7
370
    30
100
AcDbCircle
 10
294.198331423
 20
170.6369235556
 30
0.0
 40
10.0
100
AcDbArc
 50
347.2931038792
 51
40.7225119457
  0
ARC
  5
26B
330
1F
100
AcDbEntity
  8
0
  6
Continuous
 62
     7
370
    30
100
AcDbCircle
 10
304.9980938248
 20
179.9335698361
 30
0.0
 40
4.250000000000012
100
AcDbArc
 50
79.2774880543
 51
220.7225119457
  0
ARC
  5
26C
330
1F
100
AcDbEntity
  8
0
  6
Continuous
 62
     7
370
    30
100
AcDbCircle
 10
307.6493444728
 20
193.9347615711
 30
0.0
 40
9.99999999999997
100
AcDbArc
 50
259.2774880543
 51
312.7068961208
  0
ARC
  5
26D
330
1F
100
AcDbEntity
  8
0
  6
Continuous
 62
     7
370
    30
100
AcDbCircle
 10
348.29342559
 20
204.8253102836
 30
0.0
 40
9.999999999999957
100
AcDbArc
 50
257.2931038792
 51
310.7225119457
  0
ARC
  5
26E
330
1F
100
AcDbEntity
  8
0
  6
Continuous
 62
     7
370
    30
100
AcDbCircle
 10
357.5900718705
 20
194.0255478818
 30
0.0
 40
4.250000000000043
100
AcDbArc
 50
349.2774880543
 51
130.7225119457
  0
ARC
  5
26F
330
1F
100
AcDbEntity
  8
0
  6
Continuous
 62
     7
370
    30
100
AcDbCircle
 10
371.5912636055
 20
191.3742972338
 30
0.0
 40
9.999999999999996
100
AcDbArc
 50
169.2774880543
 51
222.7068961208
  0
SPLINE
  5
270
330
1F
100
AcDbEntity
  8
0
  6
Continuous
 62
     7
370
    30
100
AcDbSpline
210
0.0
220
0.0
230
1.0
 70
     8
 71
     3
 72
    11
 73
     7
 74
     0
 42
0.000000001
 43
0.00000001
 40
0.0
 40
0.0
 40
0.0
 40
0.0
 40
0.2545994206591163
 40
0.5153492416496289
 40
0.7541549395986415
 40
1.0
 40
1.0
 40
1.0
 40
1.0
 10
311.0063624399131
 20
197.3081289291977
 30
0.0
 10
310.9056951075005
 20
197.2883770579558
 30
0.0
 10
310.7019286052696
 20
197.2483961662502
 30
0.0
 10
310.4027149986935
 20
197.1374643552247
 30
0.0
 10
310.1142062693241
 20
196.991997861832
 30
0.0
 10
309.9422201056486
 20
196.8664795617837
 30
0.0
 10
309.8549780079763
 20
196.802808859685
 30
0.0
  0
ARC
  5
271
330
1F
100
AcDbEntity
  8
0
  6
Continuous
 62
     7
370
    30
100
AcDbCircle
 10
338.3400718705
 20
160.6835698361
 30
0.0
 40
45.70000000000001
100
AcDbArc
 50
126.7347849059
 51
203.2652150941
  0
SPLINE
  5
272
330
1F
100
AcDbEntity
  8
0
  6
Continuous
 62
     7
370
    30
100
AcDbSpline
210
0.0
220
0.0
230
1.0
 70
     8
 71
     3
 72
    11
 73
     7
 74
     0
 42
0.000000001
 43
0.00000001
 40
0.0
 40
0.0
 40
0.0
 40
0.0
 40
0.2522312618109017
 40
0.5130164490358926
 40
0.7537614031259374
 40
0.9999999999999999
 40
0.9999999999999999
 40
0.9999999999999999
 40
0.9999999999999999
 10
295.6116374445604
 20
143.6459382075096
 30
0.0
 10
295.6566056674329
 20
143.5446570206874
 30
0.0
 10
295.7480671217026
 20
143.3386598954912
 30
0.0
 10
295.9298092344652
 20
143.0672865608987
 30
0.0
 10
296.1333468280377
 20
142.8264909489725
 30
0.0
 10
296.2812963234048
 20
142.69773180817
 30
0.0
 10
296.3561055773833
 20
142.6326259743012
 30
0.0
  0
ARC
  5
273
330
1F
100
AcDbEntity
  8
0
  6
Continuous
 62
     7
370
    30
100
AcDbCircle
 10
338.3400718705
 20
160.6835698361
 30
0.0
 40
46.00000000000002
100
AcDbArc
 50
128.2607419059
 51
201.7392580941
  0
SPLINE
  5
274
330
1F
100
AcDbEntity
  8
0
  6
Continuous
 62
     7
370
    30
100
AcDbSpline
210
0.0
220
0.0
230
1.0
 70
     8
 71
     3
 72
    11
 73
     7
 74
     0
 42
0.000000001
 43
0.00000001
 40
0.0
 40
0.0
 40
0.0
 40
0.0
 40
0.2545994206591175
 40
0.5153492416496285
 40
0.7541549395986454
 40
1.0
 40
1.0
 40
1.0
 40
1.0
 10
301.7155127773467
 20
133.3498604055142
 30
0.0
 10
301.7352646485886
 20
133.2491930731016
 30
0.0
 10
301.7752455402942
 20
133.0454265708707
 30
0.0
 10
301.8861773513196
 20
132.7462129642945
 30
0.0
 10
302.0316438447124
 20
132.4577042349251
 30
0.0
 10
302.1571621447607
 20
132.2857180712497
 30
0.0
 10
302.2208328468594
 20
132.1984759735774
 30
0.0
  0
ARC
  5
275
330
1F
100
AcDbEntity
  8
0
  6
Continuous
 62
     7
370
    30
100
AcDbCircle
 10
338.3400718705
 20
160.6835698361
 30
0.0
 40
45.69999999999999
100
AcDbArc
 50
216.7347849059
 51
293.2652150941
  0
ARC
  5
276
330
1F
100
AcDbEntity
  8
0
  6
Continuous
 62
     7
370
    30
100
AcDbCircle
 10
338.3400718705
 20
160.6835698361
 30
0.0
 40
45.99999999999999
100
AcDbArc
 50
218.2607419059
 51
291.7392580941
  0
SPLINE
  5
277
330
1F
100
AcDbEntity
  8
0
  6
Continuous
 62
     7
370
    30
100
AcDbSpline
210
0.0
220
0.0
230
1.0
 70
     8
 71
     3
 72
    11
 73
     7
 74
     0
 42
0.000000001
 43
0.00000001
 40
0.0
 40
0.0
 40
0.0
 40
0.0
 40
0.2522312618109027
 40
0.5130164490358899
 40
0.7537614031259356
 40
1.0
 40
1.0
 40
1.0
 40
1.0
 10
355.3777034990345
 20
117.9551354101616
 30
0.0
 10
355.4789846858567
 20
118.0001036330341
 30
0.0
 10
355.684981811053
 20
118.0915650873038
 30
0.0
 10
355.9563551456454
 20
118.2733072000663
 30
0.0
 10
356.1971507575717
 20
118.4768447936388
 30
0.0
 10
356.3259098983742
 20
118.6247942890059
 30
0.0
 10
356.391015732243
 20
118.6996035429844
 30
0.0
  0
ARC
  5
278
330
1F
100
AcDbEntity
  8
0
  6
Continuous
 62
     7
370
    30
100
AcDbCircle
 10
338.3400718705
 20
160.6835698361
 30
0.0
 40
45.99999999999999
100
AcDbArc
 50
95.7454296883
 51
111.7392580941
  0
LINE
  5
279
330
1F
100
AcDbEntity
  8
0
  6
Continuous
 62
     7
370
    30
100
AcDbLine
 10
334.5450718705
 20
206.5267588067
 30
0.0
 11
334.7000718705
 21
206.5393262904
 31
0.0
  0
LINE
  5
27A
330
1F
100
AcDbEntity
  8
0
  6
Continuous
 62
     7
370
    30
100
AcDbLine
 10
336.3800718705
 20
206.6417943449
 30
0.0
 11
336.5350718705
 21
206.6481428788
 31
0.0
  0
LINE
  5
27B
330
1F
100
AcDbEntity
  8
0
  6
Continuous
 62
     7
370
    30
100
AcDbLine
 10
337.3450718705
 20
206.6728074358
 30
0.0
 11
337.5000718705
 21
206.6758996314
 31
0.0
  0
LINE
  5
27C
330
1F
100
AcDbEntity
  8
0
  6
Continuous
 62
     7
370
    30
100
AcDbLine
 10
339.1800718705
 20
206.6758996314
 30
0.0
 11
339.3350718705
 21
206.6728074358
 31
0.0
  0
LINE
  5
27D
330
1F
100
AcDbEntity
  8
0
  6
Continuous
 62
     7
370
    30
100
AcDbLine
 10
340.1450718705
 20
206.6481428788
 30
0.0
 11
340.3000718705
 21
206.6417943449
 31
0.0
  0
LWPOLYLINE
  5
27E
330
1F
100
AcDbEntity
  8
0
  6
Continuous
 62
     7
370
    30
100
AcDbPolyline
 90
        3
 70
   128
 43
0.0
 10
341.9800718705
 20
206.5393262904
 10
342.0593477035
 20
206.5329644589
 10
342.1350718705
 20
206.5267588067
  0
ARC
  5
27F
330
1F
100
AcDbEntity
  8
0
  6
Continuous
 62
     7
370
    30
100
AcDbCircle
 10
338.3400718705
 20
160.6835698361
 30
0.0
 40
46.00000000000001
100
AcDbArc
 50
38.2607419059
 51
84.2545703117
  0
SPLINE
  5
280
330
1F
100
AcDbEntity
  8
0
  6
Continuous
 62
     7
370
    30
100
AcDbSpline
210
0.0
220
0.0
230
1.0
 70
     8
 71
     3
 72
    11
 73
     7
 74
     0
 42
0.000000001
 43
0.00000001
 40
0.0
 40
0.0
 40
0.0
 40
0.0
 40
0.2545994206591135
 40
0.5153492416496227
 40
0.7541549395986398
 40
1.0
 40
1.0
 40
1.0
 40
1.0
 10
374.9646309635962
 20
188.0172792666315
 30
0.0
 10
374.9448790923543
 20
188.1179465990442
 30
0.0
 10
374.9048982006487
 20
188.3217131012751
 30
0.0
 10
374.7939663896232
 20
188.6209267078512
 30
0.0
 10
374.6484998962305
 20
188.9094354372206
 30
0.0
 10
374.5229815961823
 20
189.081421600896
 30
0.0
 10
374.4593108940835
 20
189.1686636985683
 30
0.0
  0
ARC
  5
281
330
1F
100
AcDbEntity
  8
0
  6
Continuous
 62
     7
370
    30
100
AcDbCircle
 10
338.3400718705
 20
160.6835698361
 30
0.0
 40
45.7
100
AcDbArc
 50
36.7347849059
 51
84.2167259551
  0
LWPOLYLINE
  5
282
330
1F
100
AcDbEntity
  8
0
  6
Continuous
 62
     7
370
    30
100
AcDbPolyline
 90
        3
 70
   128
 43
0.0
 10
342.1350718705
 20
206.2257258566
 10
342.1114684285
 20
206.2276865582
 10
341.9800718705
 20
206.2383763882
  0
LINE
  5
283
330
1F
100
AcDbEntity
  8
0
  6
Continuous
 62
     7
370
    30
100
AcDbLine
 10
340.3000718705
 20
206.3415198558
 30
0.0
 11
340.1450718705
 21
206.3479101357
 31
0.0
  0
LINE
  5
284
330
1F
100
AcDbEntity
  8
0
  6
Continuous
 62
     7
370
    30
100
AcDbLine
 10
339.3350718705
 20
206.3727367687
 30
0.0
 11
339.1800718705
 21
206.3758492714
 31
0.0
  0
LINE
  5
285
330
1F
100
AcDbEntity
  8
0
  6
Continuous
 62
     7
370
    30
100
AcDbLine
 10
337.5000718705
 20
206.3758492714
 30
0.0
 11
337.3450718705
 21
206.3727367687
 31
0.0
  0
LINE
  5
286
330
1F
100
AcDbEntity
  8
0
  6
Continuous
 62
     7
370
    30
100
AcDbLine
 10
336.5350718705
 20
206.3479101357
 30
0.0
 11
336.3800718705
 21
206.3415198558
 31
0.0
  0
LWPOLYLINE
  5
287
330
1F
100
AcDbEntity
  8
0
  6
Continuous
 62
     7
370
    30
100
AcDbPolyline
 90
        3
 70
   128
 43
0.0
 10
334.7000718705
 20
206.2383763882
 10
334.6755721366
 20
206.2364121371
 10
334.5450718705
 20
206.2257258566
  0
ARC
  5
288
330
1F
100
AcDbEntity
  8
0
  6
Continuous
 62
     7
370
    30
100
AcDbCircle
 10
338.3400718705
 20
160.6835698361
 30
0.0
 40
45.7
100
AcDbArc
 50
95.7832740449
 51
113.2652150941
  0
SPLINE
  5
289
330
1F
100
AcDbEntity
  8
0
  6
Continuous
 62
     7
370
    30
100
AcDbSpline
210
0.0
220
0.0
230
1.0
 70
     8
 71
     3
 72
    11
 73
     7
 74
     0
 42
0.000000001
 43
0.00000001
 40
0.0
 40
0.0
 40
0.0
 40
0.0
 40
0.2522312618109027
 40
0.5130164490358899
 40
0.7537614031259356
 40
1.0
 40
1.0
 40
1.0
 40
1.0
 10
321.3024402419086
 20
203.4120042619839
 30
0.0
 10
321.2011590550864
 20
203.3670360391114
 30
0.0
 10
320.9951619298901
 20
203.2755745848417
 30
0.0
 10
320.7237885952977
 20
203.0938324720792
 30
0.0
 10
320.4829929833714
 20
202.8902948785066
 30
0.0
 10
320.3542338425689
 20
202.7423453831395
 30
0.0
 10
320.2891280087001
 20
202.667536129161
 30
0.0
  0
SPLINE
  5
28A
330
1F
100
AcDbEntity
  8
0
  6
Continuous
 62
     7
370
    30
100
AcDbSpline
210
0.0
220
0.0
230
1.0
 70
     8
 71
     3
 72
    11
 73
     7
 74
     0
 42
0.000000001
 43
0.00000001
 40
0.0
 40
0.0
 40
0.0
 40
0.0
 40
0.2545994206591163
 40
0.5153492416496289
 40
0.7541549395986415
 40
1.0
 40
1.0
 40
1.0
 40
1.0
 10
365.67378130103
 20
124.0590107429478
 30
0.0
 10
365.7744486334425
 20
124.0787626141897
 30
0.0
 10
365.9782151356735
 20
124.1187435058952
 30
0.0
 10
366.2774287422496
 20
124.2296753169207
 30
0.0
 10
366.565937471619
 20
124.3751418103135
 30
0.0
 10
366.7379236352945
 20
124.5006601103617
 30
0.0
 10
366.8251657329668
 20
124.5643308124604
 30
0.0
  0
ARC
  5
28B
330
1F
100
AcDbEntity
  8
0
  6
Continuous
 62
     7
370
    30
100
AcDbCircle
 10
338.3400718705
 20
160.6835698361
 30
0.0
 40
45.70000000000001
100
AcDbArc
 50
306.7347849059
 51
23.2652150941
  0
ARC
  5
28C
330
1F
100
AcDbEntity
  8
0
  6
Continuous
 62
     7
370
    30
100
AcDbCircle
 10
338.3400718705
 20
160.6835698361
 30
0.0
 40
45.99999999999999
100
AcDbArc
 50
308.2607419059
 51
21.7392580941
  0
SPLINE
  5
28D
330
1F
100
AcDbEntity
  8
0
  6
Continuous
 62
     7
370
    30
100
AcDbSpline
210
0.0
220
0.0
230
1.0
 70
     8
 71
     3
 72
    11
 73
     7
 74
     0
 42
0.000000001
 43
0.00000001
 40
0.0
 40
0.0
 40
0.0
 40
0.0
 40
0.2522312618109043
 40
0.5130164490358963
 40
0.7537614031259392
 40
1.0
 40
1.0
 40
1.0
 40
1.0
 10
381.0685062963826
 20
177.7212014646362
 30
0.0
 10
381.0235380735101
 20
177.8224826514584
 30
0.0
 10
380.9320766192403
 20
178.0284797766546
 30
0.0
 10
380.7503345064778
 20
178.2998531112471
 30
0.0
 10
380.5467969129053
 20
178.5406487231733
 30
0.0
 10
380.3988474175381
 20
178.6694078639758
 30
0.0
 10
380.3240381635596
 20
178.7345136978446
 30
0.0
  0
ARC
  5
28E
330
1F
100
AcDbEntity
  8
0
  6
Continuous
 62
     7
370
    30
100
AcDbCircle
 10
375.1461515313
 20
181.9335698361
 30
0.0
 40
3.750000000000044
100
AcDbArc
 50
120.0
 51
300.0
  0
ARC
  5
28F
330
1F
100
AcDbEntity
  8
0
  6
Continuous
 62
     7
370
    30
100
AcDbCircle
 10
359.5900718705
 20
123.8774901752
 30
0.0
 40
3.75000000000002
100
AcDbArc
 50
30.0
 51
210.0
  0
ARC
  5
290
330
1F
100
AcDbEntity
  8
0
  6
Continuous
 62
     7
370
    30
100
AcDbCircle
 10
301.5339922096
 20
139.4335698361
 30
0.0
 40
3.750000000000037
100
AcDbArc
 50
300.0
 51
120.0
  0
LINE
  5
291
330
1F
100
AcDbEntity
  8
0
  6
Continuous
 62
     7
370
    30
100
AcDbLine
 10
313.5681444447
 20
196.0898067388
 30
0.0
 11
313.8424766063
 21
195.6146494969
 31
0.0
  0
LINE
  5
292
330
1F
100
AcDbEntity
  8
0
  6
Continuous
 62
     7
370
    30
100
AcDbLine
 10
320.3376671347
 20
199.3646494969
 30
0.0
 11
320.0633349731
 21
199.8398067388
 31
0.0
  0
LINE
  5
293
330
1F
100
AcDbEntity
  8
0
  6
Continuous
 62
     7
370
    30
100
AcDbLine
 10
373.7463087732
 20
185.4554972618
 30
0.0
 11
373.2711515313
 21
185.1811651003
 31
0.0
  0
CIRCLE
  5
294
330
1F
100
AcDbEntity
  8
0
  6
Continuous
 62
     7
370
    30
100
AcDbCircle
 10
297.2882242532
 20
171.6833792529
 30
0.0
 40
1.699999999999989
  0
CIRCLE
  5
295
330
1F
100
AcDbEntity
  8
0
  6
Continuous
 62
     7
370
    30
100
AcDbCircle
 10
297.2882242532
 20
149.6837604192
 30
0.0
 40
1.699999999999989
  0
ARC
  5
296
330
1F
100
AcDbEntity
  8
0
  6
Continuous
 62
     7
370
    30
100
AcDbCircle
 10
334.6359528037
 20
203.021844505
 30
0.0
 40
1.249999999999979
100
AcDbArc
 50
136.1126963106
 51
180.0
  0
LINE
  5
297
330
1F
100
AcDbEntity
  8
0
  6
Continuous
 62
     7
370
    30
100
AcDbLine
 10
334.5450718705
 20
204.2685363899
 30
0.0
 11
334.7000718705
 21
204.2701989199
 31
0.0
  0
LWPOLYLINE
  5
298
330
1F
100
AcDbEntity
  8
0
  6
Continuous
 62
     7
370
    30
100
AcDbPolyline
 90
        3
 70
   128
 43
0.0
 10
334.7000718705
 20
201.77349009
 10
334.6992642647
 20
201.773448871
 10
334.5450718705
 20
201.77515262
  0
ARC
  5
299
330
1F
100
AcDbEntity
  8
0
  6
Continuous
 62
     7
370
    30
100
AcDbCircle
 10
334.6359528037
 20
203.021844505
 30
0.0
 40
1.250000000000018
100
AcDbArc
 50
180.0
 51
223.8873036894
  0
LINE
  5
29A
330
1F
100
AcDbEntity
  8
0
  6
Continuous
 62
     7
370
    30
100
AcDbLine
 10
356.3424766063
 20
122.0024901752
 30
0.0
 11
356.6168087678
 21
121.5273329333
 31
0.0
  0
ARC
  5
29B
330
1F
100
AcDbEntity
  8
0
  6
Continuous
 62
     7
370
    30
100
AcDbCircle
 10
317.0900718705
 20
197.4896494969
 30
0.0
 40
3.750000000000027
100
AcDbArc
 50
210.0
 51
30.0
  0
LINE
  5
29C
330
1F
100
AcDbEntity
  8
0
  6
Continuous
 62
     7
370
    30
100
AcDbLine
 10
302.9338349677
 20
135.9116424103
 30
0.0
 11
303.4089922096
 21
136.1859745719
 31
0.0
  0
LINE
  5
29D
330
1F
100
AcDbEntity
  8
0
  6
Continuous
 62
     7
370
    30
100
AcDbLine
 10
299.6589922096
 20
142.6811651003
 30
0.0
 11
299.1838349677
 21
142.4068329387
 31
0.0
  0
CIRCLE
  5
29E
330
1F
100
AcDbEntity
  8
0
  6
Continuous
 62
     7
370
    30
100
AcDbCircle
 10
379.3919194878
 20
171.6833792529
 30
0.0
 40
1.699999999999989
  0
LINE
  5
29F
330
1F
100
AcDbEntity
  8
0
  6
Continuous
 62
     7
370
    30
100
AcDbLine
 10
377.0211515313
 20
178.6859745719
 30
0.0
 11
377.4963087732
 21
178.9603067334
 31
0.0
  0
CIRCLE
  5
2A0
330
1F
100
AcDbEntity
  8
0
  6
Continuous
 62
     7
370
    30
100
AcDbCircle
 10
327.3402624536
 20
201.7354174534
 30
0.0
 40
1.699999999999989
  0
CIRCLE
  5
2A1
330
1F
100
AcDbEntity
  8
0
  6
Continuous
 62
     7
370
    30
100
AcDbCircle
 10
349.3398812873
 20
119.6317222188
 30
0.0
 40
1.699999999999989
  0
CIRCLE
  5
2A2
330
1F
100
AcDbEntity
  8
0
  6
Continuous
 62
     7
370
    30
100
AcDbCircle
 10
327.3402624536
 20
119.6317222188
 30
0.0
 40
1.699999999999989
  0
CIRCLE
  5
2A3
330
1F
100
AcDbEntity
  8
0
  6
Continuous
 62
     7
370
    30
100
AcDbCircle
 10
368.3921100709
 20
190.7356080365
 30
0.0
 40
1.699999999999989
  0
LINE
  5
2A4
330
1F
100
AcDbEntity
  8
0
  6
Continuous
 62
     7
370
    30
100
AcDbLine
 10
363.1119992962
 20
125.2773329333
 30
0.0
 11
362.8376671347
 21
125.7524901752
 31
0.0
  0
CIRCLE
  5
2A5
330
1F
100
AcDbEntity
  8
0
  6
Continuous
 62
     7
370
    30
100
AcDbCircle
 10
308.28803367
 20
130.6315316356
 30
0.0
 40
1.700000000000045
  0
CIRCLE
  5
2A6
330
1F
100
AcDbEntity
  8
0
  6
Continuous
 62
     7
370
    30
100
AcDbCircle
 10
368.3921100709
 20
130.6315316356
 30
0.0
 40
1.699999999999989
  0
CIRCLE
  5
2A7
330
1F
100
AcDbEntity
  8
0
  6
Continuous
 62
     7
370
    30
100
AcDbCircle
 10
379.3919194878
 20
149.6837604192
 30
0.0
 40
1.699999999999989
  0
CIRCLE
  5
2A8
330
1F
100
AcDbEntity
  8
0
  6
Continuous
 62
     7
370
    30
100
AcDbCircle
 10
308.28803367
 20
190.7356080365
 30
0.0
 40
1.699999999999989
  0
CIRCLE
  5
2A9
330
1F
100
AcDbEntity
  8
0
  6
Continuous
 62
     7
370
    30
100
AcDbCircle
 10
349.3398812873
 20
201.7354174534
 30
0.0
 40
1.699999999999989
  0
ARC
  5
2AA
330
1F
100
AcDbEntity
  8
0
  6
Continuous
 62
     7
370
    30
100
AcDbCircle
 10
365.2770628057
 20
126.5273329333
 30
0.0
 40
2.500000000000015
100
AcDbArc
 50
210.0
 51
279.1307163316
  0
ARC
  5
2AB
330
1F
100
AcDbEntity
  8
0
  6
Continuous
 62
     7
370
    30
100
AcDbCircle
 10
311.4030809353
 20
194.8398067388
 30
0.0
 40
2.5
100
AcDbArc
 50
30.0
 51
99.1307163316
  0
ARC
  5
2AC
330
1F
100
AcDbEntity
  8
0
  6
Continuous
 62
     7
370
    30
100
AcDbCircle
 10
304.1838349677
 20
133.7465789009
 30
0.0
 40
2.500000000000028
100
AcDbArc
 50
120.0
 51
189.1307163316
  0
ARC
  5
2AD
330
1F
100
AcDbEntity
  8
0
  6
Continuous
 62
     7
370
    30
100
AcDbCircle
 10
372.4963087732
 20
187.6205607713
 30
0.0
 40
2.500000000000028
100
AcDbArc
 50
300.0
 51
9.1307163316
  0
ARC
  5
2AE
330
1F
100
AcDbEntity
  8
0
  6
Continuous
 62
     7
370
    30
100
AcDbCircle
 10
378.7463087732
 20
176.795243224
 30
0.0
 40
2.500000000000068
100
AcDbArc
 50
50.8692836684
 51
120.0
  0
ARC
  5
2AF
330
1F
100
AcDbEntity
  8
0
  6
Continuous
 62
     7
370
    30
100
AcDbCircle
 10
322.2283984826
 20
201.0898067388
 30
0.0
 40
2.500000000000085
100
AcDbArc
 50
140.8692836684
 51
210.0
  0
ARC
  5
2B0
330
1F
100
AcDbEntity
  8
0
  6
Continuous
 62
     7
370
    30
100
AcDbCircle
 10
297.9338349677
 20
144.5718964482
 30
0.0
 40
2.500000000000068
100
AcDbArc
 50
230.8692836684
 51
300.0
  0
ARC
  5
2B1
330
1F
100
AcDbEntity
  8
0
  6
Continuous
 62
     7
370
    30
100
AcDbCircle
 10
354.4517452584
 20
120.2773329333
 30
0.0
 40
2.500000000000076
100
AcDbArc
 50
320.8692836684
 51
30.0
  0
ARC
  5
2B2
330
1F
100
AcDbEntity
  8
0
  6
Continuous
 62
     7
370
    30
100
AcDbCircle
 10
338.3400718705
 20
160.6835698361
 30
0.0
 40
46.00000000000001
100
AcDbArc
 50
21.7392580941
 51
38.2607419059
  0
ARC
  5
2B3
330
1F
100
AcDbEntity
  8
0
  6
Continuous
 62
     7
370
    30
100
AcDbCircle
 10
338.3400718705
 20
160.6835698361
 30
0.0
 40
45.99999999999999
100
AcDbArc
 50
291.7392580941
 51
308.2607419059
  0
ARC
  5
2B4
330
1F
100
AcDbEntity
  8
0
  6
Continuous
 62
     7
370
    30
100
AcDbCircle
 10
338.3400718705
 20
160.6835698361
 30
0.0
 40
46.00000000000002
100
AcDbArc
 50
201.7392580941
 51
218.2607419059
  0
ARC
  5
2B5
330
1F
100
AcDbEntity
  8
0
  6
Continuous
 62
     7
370
    30
100
AcDbCircle
 10
338.3400718705
 20
160.6835698361
 30
0.0
 40
45.99999999999999
100
AcDbArc
 50
111.7392580941
 51
128.2607419059
  0
LINE
  5
2B6
330
1F
100
AcDbEntity
  8
0
  6
Continuous
 62
     7
370
    30
100
AcDbLine
 10
340.3000718705
 20
210.6835698361
 30
0.0
 11
341.9800718705
 21
210.6835698361
 31
0.0
  0
LINE
  5
2B7
330
1F
100
AcDbEntity
  8
0
  6
Continuous
 62
     7
370
    30
100
AcDbLine
 10
340.7400718705
 20
215.6835698361
 30
0.0
 11
341.5400718705
 21
215.6835698361
 31
0.0
  0
LINE
  5
2B8
330
1F
100
AcDbEntity
  8
0
  6
Continuous
 62
     7
370
    30
100
AcDbLine
 10
337.5000718705
 20
210.6835698361
 30
0.0
 11
339.1800718705
 21
210.6835698361
 31
0.0
  0
LINE
  5
2B9
330
1F
100
AcDbEntity
  8
0
  6
Continuous
 62
     7
370
    30
100
AcDbLine
 10
337.9400718705
 20
215.6835698361
 30
0.0
 11
338.7400718705
 21
215.6835698361
 31
0.0
  0
LINE
  5
2BA
330
1F
100
AcDbEntity
  8
0
  6
Continuous
 62
     7
370
    30
100
AcDbLine
 10
342.1350718705
 20
210.6835698361
 30
0.0
 11
342.9450718705
 21
210.6835698361
 31
0.0
  0
LINE
  5
2BB
330
1F
100
AcDbEntity
  8
0
  6
Continuous
 62
     7
370
    30
100
AcDbLine
 10
342.3400718705
 20
215.6835698361
 30
0.0
 11
342.7400718705
 21
215.6835698361
 31
0.0
  0
LINE
  5
2BC
330
1F
100
AcDbEntity
  8
0
  6
Continuous
 62
     7
370
    30
100
AcDbLine
 10
334.7000718705
 20
210.6835698361
 30
0.0
 11
336.3800718705
 21
210.6835698361
 31
0.0
  0
LINE
  5
2BD
330
1F
100
AcDbEntity
  8
0
  6
Continuous
 62
     7
370
    30
100
AcDbLine
 10
335.1400718705
 20
215.6835698361
 30
0.0
 11
335.9400718705
 21
215.6835698361
 31
0.0
  0
LINE
  5
2BE
330
1F
100
AcDbEntity
  8
0
  6
Continuous
 62
     7
370
    30
100
AcDbLine
 10
336.5350718705
 20
210.6835698361
 30
0.0
 11
337.3450718705
 21
210.6835698361
 31
0.0
  0
LINE
  5
2BF
330
1F
100
AcDbEntity
  8
0
  6
Continuous
 62
     7
370
    30
100
AcDbLine
 10
336.7400718705
 20
215.6835698361
 30
0.0
 11
337.1400718705
 21
215.6835698361
 31
0.0
  0
LINE
  5
2C0
330
1F
100
AcDbEntity
  8
0
  6
Continuous
 62
     7
370
    30
100
AcDbLine
 10
339.3350718705
 20
210.6835698361
 30
0.0
 11
340.1450718705
 21
210.6835698361
 31
0.0
  0
LINE
  5
2C1
330
1F
100
AcDbEntity
  8
0
  6
Continuous
 62
     7
370
    30
100
AcDbLine
 10
339.5400718705
 20
215.6835698361
 30
0.0
 11
339.9400718705
 21
215.6835698361
 31
0.0
  0
LINE
  5
2C2
330
1F
100
AcDbEntity
  8
0
  6
Continuous
 62
     7
370
    30
100
AcDbLine
 10
333.7350718705
 20
210.6835698361
 30
0.0
 11
334.5450718705
 21
210.6835698361
 31
0.0
  0
LINE
  5
2C3
330
1F
100
AcDbEntity
  8
0
  6
Continuous
 62
     7
370
    30
100
AcDbLine
 10
333.9400718705
 20
215.6835698361
 30
0.0
 11
334.3400718705
 21
215.6835698361
 31
0.0
  0
ARC
  5
2C4
330
1F
100
AcDbEntity
  8
0
  6
HIDDEN
 62
     7
370
     0
100
AcDbCircle
 10
334.6359528037
 20
203.021844505
 30
0.0
 40
1.249999999999993
100
AcDbArc
 50
94.1693538328
 51
136.1126963106
  0
LWPOLYLINE
  5
2C5
330
1F
100
AcDbEntity
  8
0
  6
HIDDEN
 62
     7
370
     0
100
AcDbPolyline
 90
       17
 70
   128
 43
0.0
 10
334.7000718705
 20
204.2701989199
 10
334.6992642647
 20
204.2702401389
 10
334.949268469
 20
204.2319409036
 10
335.1864454931
 20
204.1441001794
 10
335.4010852819
 20
204.0103141761
 10
335.5844004571
 20
203.8360601084
 10
335.7288860739
 20
203.6284719581
 10
335.8286268742
 20
203.3960484087
 10
335.8795394579
 20
203.1483049075
 10
335.8795394579
 20
202.8953841025
 10
335.8286268742
 20
202.6476406013
 10
335.7288860739
 20
202.4152170518
 10
335.5844004571
 20
202.2076289016
 10
335.4010852819
 20
202.0333748338
 10
335.1864454931
 20
201.8995888305
 10
334.949268469
 20
201.8117481064
 10
334.7000718705
 20
201.77349009
  0
ARC
  5
2C6
330
1F
100
AcDbEntity
  8
0
  6
HIDDEN
 62
     7
370
     0
100
AcDbCircle
 10
334.6359528037
 20
203.021844505
 30
0.0
 40
1.250000000000018
100
AcDbArc
 50
223.8873036894
 51
265.8306461672
  0
CIRCLE
  5
2C7
330
1F
100
AcDbEntity
  8
0
  6
HIDDEN
 62
     7
370
     0
100
AcDbCircle
 10
334.6359528037
 20
203.021844505
 30
0.0
 40
1.249999999999943
  0
SPLINE
  5
2C8
330
1F
100
AcDbEntity
  8
0
  6
Continuous
 62
     1
370
    15
100
AcDbSpline
210
0.0
220
0.0
230
1.0
 70
     8
 71
     3
 72
     8
 73
     4
 74
     0
 42
0.000000001
 43
0.00000001
 40
0.0
 40
0.0
 40
0.0
 40
0.0
 40
1.0
 40
1.0
 40
1.0
 40
1.0
 10
332.329558101743
 20
208.599088274678
 30
0.0
 10
336.190723902563
 20
212.2282982170604
 30
0.0
 10
339.9510964018621
 20
205.356423840061
 30
0.0
 10
343.9164909938751
 20
209.3715504674869
 30
0.0
  0
SPLINE
  5
2C9
330
1F
100
AcDbEntity
  8
0
  6
Continuous
 62
     1
370
    15
100
AcDbSpline
210
0.0
220
0.0
230
1.0
 70
     8
 71
     3
 72
    21
 73
    17
 74
     0
 42
0.000000001
 43
0.00000001
 40
0.0
 40
0.0
 40
0.0
 40
0.0
 40
0.03125
 40
0.0625
 40
0.125
 40
0.1875
 40
0.25
 40
0.375
 40
0.5
 40
0.625
 40
0.75
 40
0.8125
 40
0.875
 40
0.9375
 40
0.96875
 40
1.0
 40
1.0
 40
1.0
 40
1.0
 10
332.6719987835046
 20
208.2347609774924
 30
0.0
 10
332.7762909467978
 20
208.3327878883946
 30
0.0
 10
333.0015831476835
 20
208.5260633836736
 30
0.0
 10
333.4229246477796
 20
208.8185559009695
 30
0.0
 10
333.9399465659915
 20
209.0641629461103
 30
0.0
 10
334.5479207412653
 20
209.1983945888277
 30
0.0
 10
335.3773256714725
 20
209.2084240260158
 30
0.0
 10
336.4783959127175
 20
208.946298556352
 30
0.0
 10
337.8875239209154
 20
208.3778279431028
 30
0.0
 10
339.3671588205037
 20
207.7980952792094
 30
0.0
 10
340.6829391133808
 20
207.5255619819722
 30
0.0
 10
341.7902113484829
 20
207.5967750094819
 30
0.0
 10
342.6314339903091
 20
207.8364734285332
 30
0.0
 10
343.3265572918449
 20
208.217214822741
 30
0.0
 10
343.8676412181636
 20
208.6330367769579
 30
0.0
 10
344.1432422217707
 20
208.8895908078351
 30
0.0
 10
344.2722407077264
 20
209.0202071295755
 30
0.0
  0
INSERT
  5
2ED
330
1F
100
AcDbEntity
  8
0
  6
Continuous
 62
     7
370
     0
100
AcDbBlockReference
  2
SW_CENTERMARKSYMBOL_5
 10
317.0900718705
 20
197.4896494969
 30
0.0
  0
INSERT
  5
311
330
1F
100
AcDbEntity
  8
0
  6
Continuous
 62
     7
370
     0
100
AcDbBlockReference
  2
SW_CENTERMARKSYMBOL_6
 10
357.5900718705
 20
194.0255478818
 30
0.0
  0
INSERT
  5
31D
330
1F
100
AcDbEntity
  8
0
  6
Continuous
 62
     7
370
     0
100
AcDbBlockReference
  2
SW_CENTERMARKSYMBOL_7
 10
338.3400718705
 20
160.6835698361
 30
0.0
  0
INSERT
  5
375
330
1F
100
AcDbEntity
  8
0
  6
Continuous
 62
     7
370
     0
100
AcDbBlockReference
  2
SW_CENTERMARKSYMBOL_8
 10
349.3398812873
 20
201.7354174534
 30
0.0
  0
INSERT
  5
381
330
1F
100
AcDbEntity
  8
0
  6
Continuous
 62
     7
370
     0
100
AcDbBlockReference
  2
SW_CENTERMARKSYMBOL_9
 10
334.6359528037
 20
203.021844505
 30
0.0
  0
LINE
  5
382
330
1F
100
AcDbEntity
  8
0
  6
Continuous
 62
     7
370
     0
100
AcDbLine
 10
333.1359526166
 20
203.0218442554
 30
0.0
 11
333.2093678438
 21
202.5583175594
 31
0.0
  0
LINE
  5
383
330
1F
100
AcDbEntity
  8
0
  6
Continuous
 62
     7
370
     0
100
AcDbLine
 10
334.7000718606
 20
204.5204726631
 30
0.0
 11
334.6359528624
 21
204.5218435699
 31
0.0
  0
LINE
  5
384
330
1F
100
AcDbEntity
  8
0
  6
Continuous
 62
     7
370
     0
100
AcDbLine
 10
334.6359528624
 20
204.5218435699
 30
0.0
 11
334.5450718445
 21
204.5190905804
 31
0.0
  0
LINE
  5
385
330
1F
100
AcDbEntity
  8
0
  6
Continuous
 62
     7
370
     0
100
AcDbLine
 10
333.7350719632
 20
204.2211828405
 30
0.0
 11
333.4224274405
 21
203.9035236115
 31
0.0
  0
LINE
  5
386
330
1F
100
AcDbEntity
  8
0
  6
HIDDEN
 62
     7
370
     0
100
AcDbLine
 10
333.7350719632
 20
201.8225056702
 30
0.0
 11
333.7542749033
 21
201.8083197648
 31
0.0
  0
LINE
  5
387
330
1F
100
AcDbEntity
  8
0
  6
HIDDEN
 62
     7
370
     0
100
AcDbLine
 10
334.7000718606
 20
201.5232158477
 30
0.0
 11
335.0994783943
 21
201.5952592367
 31
0.0
  0
LINE
  5
388
330
1F
100
AcDbEntity
  8
0
  6
HIDDEN
 62
     7
370
     0
100
AcDbLine
 10
334.5450718445
 20
204.5190905804
 30
0.0
 11
334.1724270978
 21
204.448429274
 31
0.0
  0
LWPOLYLINE
  5
389
330
1F
100
AcDbEntity
  8
0
  6
Continuous
 62
     7
370
     0
100
AcDbPolyline
 90
        3
 70
   128
 43
0.0
 10
333.2092761993
 20
202.5583175594
 10
333.4224274405
 20
202.1401648993
 10
333.7350719632
 20
201.8225056702
  0
LWPOLYLINE
  5
38A
330
1F
100
AcDbEntity
  8
0
  6
Continuous
 62
     7
370
     0
100
AcDbPolyline
 90
        3
 70
   128
 43
0.0
 10
334.5448970795
 20
201.5246016557
 10
334.6359528624
 20
201.5218449408
 10
334.7000718606
 20
201.5232158477
  0
LWPOLYLINE
  5
38B
330
1F
100
AcDbEntity
  8
0
  6
Continuous
 62
     7
370
     0
100
AcDbPolyline
 90
        3
 70
   128
 43
0.0
 10
333.4224224091
 20
203.9035236115
 10
333.2093678438
 20
203.4853709513
 10
333.1359526166
 20
203.0218442554
  0
LWPOLYLINE
  5
38C
330
1F
100
AcDbEntity
  8
0
  6
HIDDEN
 62
     7
370
     0
100
AcDbPolyline
 90
        3
 70
   128
 43
0.0
 10
333.7540626526
 20
201.8083197648
 10
334.1724270978
 20
201.5952592367
 10
334.5450718445
 20
201.5246016557
  0
ARC
  5
38D
330
1F
100
AcDbEntity
  8
0
  6
HIDDEN
 62
     7
370
     0
100
AcDbCircle
 10
334.6359575564
 20
203.0218476104
 30
0.0
 40
1.499995897561006
100
AcDbArc
 50
287.9990728079
 51
87.5502609621
  0
LWPOLYLINE
  5
38E
330
1F
100
AcDbEntity
  8
0
  6
HIDDEN
 62
     7
370
     0
100
AcDbPolyline
 90
        3
 70
   128
 43
0.0
 10
334.1722488403
 20
204.448429274
 10
333.7542749033
 20
204.235368746
 10
333.7350719632
 20
204.2211828405
  0
LINE
  5
38F
330
1F
100
AcDbEntity
  8
0
  6
Continuous
 62
     7
370
    30
100
AcDbLine
 10
212.4340285734
 20
206.6835698361
 30
0.0
 11
212.1340285734
 21
206.3835698361
 31
0.0
  0
LINE
  5
390
330
1F
100
AcDbEntity
  8
0
  6
Continuous
 62
     7
370
    30
100
AcDbLine
 10
212.1340285734
 20
114.9835698361
 30
0.0
 11
212.4340285734
 21
114.6835698361
 31
0.0
  0
LINE
  5
391
330
1F
100
AcDbEntity
  8
0
  6
Continuous
 62
     7
370
    30
100
AcDbLine
 10
212.4340285734
 20
114.6835698361
 30
0.0
 11
220.8340285734
 21
114.6835698361
 31
0.0
  0
LINE
  5
392
330
1F
100
AcDbEntity
  8
0
  6
Continuous
 62
     7
370
    30
100
AcDbLine
 10
220.8340285734
 20
206.6835698361
 30
0.0
 11
212.4340285734
 21
206.6835698361
 31
0.0
  0
LINE
  5
393
330
1F
100
AcDbEntity
  8
0
  6
Continuous
 62
     7
370
    30
100
AcDbLine
 10
217.6340285734
 20
142.0718964482
 30
0.0
 11
221.1340285734
 21
142.0718964482
 31
0.0
  0
LINE
  5
394
330
1F
100
AcDbEntity
  8
0
  6
Continuous
 62
     7
370
    30
100
AcDbLine
 10
233.0340285734
 20
184.1835698361
 30
0.0
 11
221.1340285734
 21
184.1835698361
 31
0.0
  0
LINE
  5
395
330
1F
100
AcDbEntity
  8
0
  6
Continuous
 62
     7
370
    30
100
AcDbLine
 10
233.0340285734
 20
176.4335698361
 30
0.0
 11
233.5340285734
 21
176.4335698361
 31
0.0
  0
LINE
  5
396
330
1F
100
AcDbEntity
  8
0
  6
Continuous
 62
     7
370
    30
100
AcDbLine
 10
233.5340285734
 20
183.4335698361
 30
0.0
 11
233.0340285734
 21
183.4335698361
 31
0.0
  0
LINE
  5
397
330
1F
100
AcDbEntity
  8
0
  6
Continuous
 62
     7
370
    30
100
AcDbLine
 10
220.8340285734
 20
114.6835698361
 30
0.0
 11
221.1340285734
 21
114.9835698361
 31
0.0
  0
LINE
  5
398
330
1F
100
AcDbEntity
  8
0
  6
Continuous
 62
     7
370
    30
100
AcDbLine
 10
233.5340285734
 20
176.9835698361
 30
0.0
 11
234.2340285734
 21
176.9835698361
 31
0.0
  0
LINE
  5
399
330
1F
100
AcDbEntity
  8
0
  6
Continuous
 62
     7
370
    30
100
AcDbLine
 10
234.2340285734
 20
182.8835698361
 30
0.0
 11
233.5340285734
 21
182.8835698361
 31
0.0
  0
ARC
  5
39A
330
1F
100
AcDbEntity
  8
0
  6
Continuous
 62
     7
370
    30
100
AcDbCircle
 10
237.0840285734
 20
177.2435698361
 30
0.0
 40
0.1500000000000341
100
AcDbArc
 50
270.0
 51
0.0
  0
ARC
  5
39B
330
1F
100
AcDbEntity
  8
0
  6
Continuous
 62
     7
370
    30
100
AcDbCircle
 10
237.0840285734
 20
182.6235698361
 30
0.0
 40
0.1500000000000341
100
AcDbArc
 50
0.0
 51
90.0
  0
LINE
  5
39C
330
1F
100
AcDbEntity
  8
0
  6
Continuous
 62
     7
370
    30
100
AcDbLine
 10
234.2340285734
 20
177.0935698361
 30
0.0
 11
237.0840285734
 21
177.0935698361
 31
0.0
  0
LINE
  5
39D
330
1F
100
AcDbEntity
  8
0
  6
Continuous
 62
     7
370
    30
100
AcDbLine
 10
237.0840285734
 20
182.7735698361
 30
0.0
 11
234.2340285734
 21
182.7735698361
 31
0.0
  0
LINE
  5
39E
330
1F
100
AcDbEntity
  8
0
  6
Continuous
 62
     7
370
    30
100
AcDbLine
 10
237.2340285734
 20
125.4335698361
 30
0.0
 11
240.7340285734
 21
125.4335698361
 31
0.0
  0
LINE
  5
39F
330
1F
100
AcDbEntity
  8
0
  6
Continuous
 62
     7
370
    30
100
AcDbLine
 10
234.8840285734
 20
195.9335698361
 30
0.0
 11
221.1340285734
 21
195.9335698361
 31
0.0
  0
LINE
  5
3A0
330
1F
100
AcDbEntity
  8
0
  6
Continuous
 62
     7
370
    30
100
AcDbLine
 10
241.7840285734
 20
195.9335698361
 30
0.0
 11
241.2840285734
 21
195.9335698361
 31
0.0
  0
LINE
  5
3A1
330
1F
100
AcDbEntity
  8
0
  6
Continuous
 62
     7
370
    30
100
AcDbLine
 10
221.1340285734
 20
197.3398067388
 30
0.0
 11
217.6340285734
 21
197.3398067388
 31
0.0
  0
LINE
  5
3A2
330
1F
100
AcDbEntity
  8
0
  6
Continuous
 62
     7
370
    30
100
AcDbLine
 10
221.1340285734
 20
123.0915917904
 30
0.0
 11
233.0340285734
 21
123.0915917904
 31
0.0
  0
LINE
  5
3A3
330
1F
100
AcDbEntity
  8
0
  6
Continuous
 62
     7
370
    30
100
AcDbLine
 10
233.0340285734
 20
123.8415917904
 30
0.0
 11
233.5340285734
 21
123.8415917904
 31
0.0
  0
LINE
  5
3A4
330
1F
100
AcDbEntity
  8
0
  6
Continuous
 62
     7
370
    30
100
AcDbLine
 10
233.5340285734
 20
130.8415917904
 30
0.0
 11
233.0340285734
 21
130.8415917904
 31
0.0
  0
LINE
  5
3A5
330
1F
100
AcDbEntity
  8
0
  6
Continuous
 62
     7
370
    30
100
AcDbLine
 10
233.5340285734
 20
124.3915917904
 30
0.0
 11
234.2340285734
 21
124.3915917904
 31
0.0
  0
LINE
  5
3A6
330
1F
100
AcDbEntity
  8
0
  6
Continuous
 62
     7
370
    30
100
AcDbLine
 10
234.2340285734
 20
130.2915917904
 30
0.0
 11
233.5340285734
 21
130.2915917904
 31
0.0
  0
ARC
  5
3A7
330
1F
100
AcDbEntity
  8
0
  6
Continuous
 62
     7
370
    30
100
AcDbCircle
 10
237.0840285734
 20
124.6515917904
 30
0.0
 40
0.1500000000000341
100
AcDbArc
 50
270.0
 51
0.0
  0
ARC
  5
3A8
330
1F
100
AcDbEntity
  8
0
  6
Continuous
 62
     7
370
    30
100
AcDbCircle
 10
237.0840285734
 20
130.0315917904
 30
0.0
 40
0.1500000000000341
100
AcDbArc
 50
0.0
 51
90.0
  0
LINE
  5
3A9
330
1F
100
AcDbEntity
  8
0
  6
Continuous
 62
     7
370
    30
100
AcDbLine
 10
234.2340285734
 20
124.5015917904
 30
0.0
 11
237.0840285734
 21
124.5015917904
 31
0.0
  0
LINE
  5
3AA
330
1F
100
AcDbEntity
  8
0
  6
Continuous
 62
     7
370
    30
100
AcDbLine
 10
237.0840285734
 20
130.1815917904
 30
0.0
 11
234.2340285734
 21
130.1815917904
 31
0.0
  0
LINE
  5
3AB
330
1F
100
AcDbEntity
  8
0
  6
Continuous
 62
     7
370
    30
100
AcDbLine
 10
221.1340285734
 20
206.3835698361
 30
0.0
 11
220.8340285734
 21
206.6835698361
 31
0.0
  0
LINE
  5
3AC
330
1F
100
AcDbEntity
  8
0
  6
Continuous
 62
     7
370
    30
100
AcDbLine
 10
241.2840285734
 20
197.9535698361
 30
0.0
 11
240.4740285734
 21
197.9535698361
 31
0.0
  0
LINE
  5
3AD
330
1F
100
AcDbEntity
  8
0
  6
Continuous
 62
     7
370
    30
100
AcDbLine
 10
238.7940285734
 20
197.9535698361
 30
0.0
 11
237.1890285734
 21
197.9535698361
 31
0.0
  0
LINE
  5
3AE
330
1F
100
AcDbEntity
  8
0
  6
Continuous
 62
     7
370
    30
100
AcDbLine
 10
236.3790285734
 20
197.9535698361
 30
0.0
 11
234.8840285734
 21
197.9535698361
 31
0.0
  0
LINE
  5
3AF
330
1F
100
AcDbEntity
  8
0
  6
Continuous
 62
     7
370
    30
100
AcDbLine
 10
233.5340285734
 20
197.5255478818
 30
0.0
 11
233.0340285734
 21
197.5255478818
 31
0.0
  0
LINE
  5
3B0
330
1F
100
AcDbEntity
  8
0
  6
Continuous
 62
     7
370
    30
100
AcDbLine
 10
234.2340285734
 20
196.9755478818
 30
0.0
 11
233.5340285734
 21
196.9755478818
 31
0.0
  0
LINE
  5
3B1
330
1F
100
AcDbEntity
  8
0
  6
Continuous
 62
     7
370
    30
100
AcDbLine
 10
234.8840285734
 20
196.8655478818
 30
0.0
 11
234.2340285734
 21
196.8655478818
 31
0.0
  0
LINE
  5
3B2
330
1F
100
AcDbEntity
  8
0
  6
Continuous
 62
     7
370
    30
100
AcDbLine
 10
233.0340285734
 20
198.2755478818
 30
0.0
 11
221.1340285734
 21
198.2755478818
 31
0.0
  0
ARC
  5
3B3
330
1F
100
AcDbEntity
  8
0
  6
Continuous
 62
     7
370
    30
100
AcDbCircle
 10
190.5340285734
 20
190.1835698361
 30
0.0
 40
0.5
100
AcDbArc
 50
90.0
 51
180.0
  0
ARC
  5
3B4
330
1F
100
AcDbEntity
  8
0
  6
Continuous
 62
     7
370
    30
100
AcDbCircle
 10
190.5340285734
 20
131.1835698361
 30
0.0
 40
0.5
100
AcDbArc
 50
180.0
 51
270.0
  0
LINE
  5
3B5
330
1F
100
AcDbEntity
  8
0
  6
Continuous
 62
     7
370
    30
100
AcDbLine
 10
190.5340285734
 20
130.6835698361
 30
0.0
 11
193.0340285734
 21
130.6835698361
 31
0.0
  0
LINE
  5
3B6
330
1F
100
AcDbEntity
  8
0
  6
Continuous
 62
     7
370
    30
100
AcDbLine
 10
193.0340285734
 20
190.6835698361
 30
0.0
 11
190.5340285734
 21
190.6835698361
 31
0.0
  0
LINE
  5
3B7
330
1F
100
AcDbEntity
  8
0
  6
Continuous
 62
     7
370
    30
100
AcDbLine
 10
211.8340285734
 20
114.6835698361
 30
0.0
 11
212.1340285734
 21
114.9835698361
 31
0.0
  0
LINE
  5
3B8
330
1F
100
AcDbEntity
  8
0
  6
Continuous
 62
     7
370
    30
100
AcDbLine
 10
212.1340285734
 20
206.3835698361
 30
0.0
 11
211.8340285734
 21
206.6835698361
 31
0.0
  0
LINE
  5
3B9
330
1F
100
AcDbEntity
  8
0
  6
Continuous
 62
     7
370
    30
100
AcDbLine
 10
207.4340285734
 20
206.6835698361
 30
0.0
 11
207.1340285734
 21
206.3835698361
 31
0.0
  0
LINE
  5
3BA
330
1F
100
AcDbEntity
  8
0
  6
Continuous
 62
     7
370
    30
100
AcDbLine
 10
207.1340285734
 20
114.9835698361
 30
0.0
 11
207.4340285734
 21
114.6835698361
 31
0.0
  0
LINE
  5
3BB
330
1F
100
AcDbEntity
  8
0
  6
Continuous
 62
     7
370
    30
100
AcDbLine
 10
207.4340285734
 20
114.6835698361
 30
0.0
 11
211.8340285734
 21
114.6835698361
 31
0.0
  0
LINE
  5
3BC
330
1F
100
AcDbEntity
  8
0
  6
Continuous
 62
     7
370
    30
100
AcDbLine
 10
211.8340285734
 20
206.6835698361
 30
0.0
 11
207.4340285734
 21
206.6835698361
 31
0.0
  0
ARC
  5
3BD
330
1F
100
AcDbEntity
  8
0
  6
Continuous
 62
     7
370
    30
100
AcDbCircle
 10
206.7340285734
 20
120.7835698361
 30
0.0
 40
0.4000000000000057
100
AcDbArc
 50
0.0
 51
90.0
  0
ARC
  5
3BE
330
1F
100
AcDbEntity
  8
0
  6
Continuous
 62
     7
370
    30
100
AcDbCircle
 10
206.7340285734
 20
200.5835698361
 30
0.0
 40
0.4000000000000057
100
AcDbArc
 50
270.0
 51
0.0
  0
LINE
  5
3BF
330
1F
100
AcDbEntity
  8
0
  6
Continuous
 62
     7
370
    30
100
AcDbLine
 10
202.4340285734
 20
121.1835698361
 30
0.0
 11
206.7340285734
 21
121.1835698361
 31
0.0
  0
LINE
  5
3C0
330
1F
100
AcDbEntity
  8
0
  6
Continuous
 62
     7
370
    30
100
AcDbLine
 10
206.7340285734
 20
200.1835698361
 30
0.0
 11
202.4340285734
 21
200.1835698361
 31
0.0
  0
LINE
  5
3C1
330
1F
100
AcDbEntity
  8
0
  6
Continuous
 62
     7
370
    30
100
AcDbLine
 10
202.4340285734
 20
200.1835698361
 30
0.0
 11
202.1340285734
 21
199.8835698361
 31
0.0
  0
LINE
  5
3C2
330
1F
100
AcDbEntity
  8
0
  6
Continuous
 62
     7
370
    30
100
AcDbLine
 10
202.1340285734
 20
121.4835698361
 30
0.0
 11
202.4340285734
 21
121.1835698361
 31
0.0
  0
LINE
  5
3C3
330
1F
100
AcDbEntity
  8
0
  6
Continuous
 62
     7
370
    30
100
AcDbLine
 10
201.1340285734
 20
199.6835698361
 30
0.0
 11
194.0340285734
 21
199.5596388751
 31
0.0
  0
LINE
  5
3C4
330
1F
100
AcDbEntity
  8
0
  6
Continuous
 62
     7
370
    30
100
AcDbLine
 10
194.0340285734
 20
121.8075007971
 30
0.0
 11
201.1340285734
 21
121.6835698361
 31
0.0
  0
LINE
  5
3C5
330
1F
100
AcDbEntity
  8
0
  6
Continuous
 62
     7
370
    30
100
AcDbLine
 10
201.1340285734
 20
121.6835698361
 30
0.0
 11
202.1340285734
 21
121.6835698361
 31
0.0
  0
LINE
  5
3C6
330
1F
100
AcDbEntity
  8
0
  6
Continuous
 62
     7
370
    30
100
AcDbLine
 10
202.1340285734
 20
199.6835698361
 30
0.0
 11
201.1340285734
 21
199.6835698361
 31
0.0
  0
LINE
  5
3C7
330
1F
100
AcDbEntity
  8
0
  6
Continuous
 62
     7
370
    30
100
AcDbLine
 10
193.4340285734
 20
121.8075007971
 30
0.0
 11
194.0340285734
 21
121.8075007971
 31
0.0
  0
LINE
  5
3C8
330
1F
100
AcDbEntity
  8
0
  6
Continuous
 62
     7
370
    30
100
AcDbLine
 10
194.0340285734
 20
199.5596388751
 30
0.0
 11
193.4340285734
 21
199.5596388751
 31
0.0
  0
LINE
  5
3C9
330
1F
100
AcDbEntity
  8
0
  6
Continuous
 62
     7
370
    30
100
AcDbLine
 10
193.4340285734
 20
199.5596388751
 30
0.0
 11
193.0340285734
 21
199.1596388751
 31
0.0
  0
LINE
  5
3CA
330
1F
100
AcDbEntity
  8
0
  6
Continuous
 62
     7
370
    30
100
AcDbLine
 10
193.0340285734
 20
122.2075007971
 30
0.0
 11
193.4340285734
 21
121.8075007971
 31
0.0
  0
LINE
  5
3CB
330
1F
100
AcDbEntity
  8
0
  6
Continuous
 62
     7
370
    30
100
AcDbLine
 10
220.4840285734
 20
200.3296494969
 30
0.0
 11
217.6340285734
 21
200.3296494969
 31
0.0
  0
ARC
  5
3CC
330
1F
100
AcDbEntity
  8
0
  6
Continuous
 62
     7
370
    30
100
AcDbCircle
 10
220.4840285734
 20
200.1796494969
 30
0.0
 40
0.1500000000000057
100
AcDbArc
 50
0.0
 51
90.0
  0
LINE
  5
3CD
330
1F
100
AcDbEntity
  8
0
  6
Continuous
 62
     7
370
    30
100
AcDbLine
 10
217.6340285734
 20
136.5935698361
 30
0.0
 11
220.4840285734
 21
136.5935698361
 31
0.0
  0
ARC
  5
3CE
330
1F
100
AcDbEntity
  8
0
  6
Continuous
 62
     7
370
    30
100
AcDbCircle
 10
220.4840285734
 20
136.7435698361
 30
0.0
 40
0.1500000000000057
100
AcDbArc
 50
270.0
 51
0.0
  0
LINE
  5
3CF
330
1F
100
AcDbEntity
  8
0
  6
Continuous
 62
     7
370
    30
100
AcDbLine
 10
238.7940285734
 20
210.6835698361
 30
0.0
 11
238.7940285734
 21
197.8327298004
 31
0.0
  0
LINE
  5
3D0
330
1F
100
AcDbEntity
  8
0
  6
Continuous
 62
     7
370
    30
100
AcDbLine
 10
240.4740285734
 20
197.8327298005
 30
0.0
 11
240.4740285734
 21
210.6835698361
 31
0.0
  0
LINE
  5
3D1
330
1F
100
AcDbEntity
  8
0
  6
Continuous
 62
     7
370
    30
100
AcDbLine
 10
240.0340285734
 20
210.6835698361
 30
0.0
 11
240.0340285734
 21
215.6835698361
 31
0.0
  0
LINE
  5
3D2
330
1F
100
AcDbEntity
  8
0
  6
Continuous
 62
     7
370
    30
100
AcDbLine
 10
239.2340285734
 20
215.6835698361
 30
0.0
 11
239.2340285734
 21
210.6835698361
 31
0.0
  0
LINE
  5
3D3
330
1F
100
AcDbEntity
  8
0
  6
Continuous
 62
     7
370
    30
100
AcDbLine
 10
236.3790285734
 20
210.6835698361
 30
0.0
 11
236.3790285734
 21
197.6810425884
 31
0.0
  0
LINE
  5
3D4
330
1F
100
AcDbEntity
  8
0
  6
Continuous
 62
     7
370
    30
100
AcDbLine
 10
237.1890285734
 20
197.6810425884
 30
0.0
 11
237.1890285734
 21
210.6835698361
 31
0.0
  0
LINE
  5
3D5
330
1F
100
AcDbEntity
  8
0
  6
Continuous
 62
     7
370
    30
100
AcDbLine
 10
236.9840285734
 20
210.6835698361
 30
0.0
 11
236.9840285734
 21
215.6835698361
 31
0.0
  0
LINE
  5
3D6
330
1F
100
AcDbEntity
  8
0
  6
Continuous
 62
     7
370
    30
100
AcDbLine
 10
236.5840285734
 20
215.6835698361
 30
0.0
 11
236.5840285734
 21
210.6835698361
 31
0.0
  0
LINE
  5
3D7
330
1F
100
AcDbEntity
  8
0
  6
Continuous
 62
     7
370
     0
100
AcDbLine
 10
193.4340285734
 20
137.8099929245
 30
0.0
 11
193.5340285734
 21
137.8005443368
 31
0.0
  0
LINE
  5
3D8
330
1F
100
AcDbEntity
  8
0
  6
Continuous
 62
     7
370
     0
100
AcDbLine
 10
193.5340285734
 20
133.6902026842
 30
0.0
 11
193.4340285734
 21
133.6807540964
 31
0.0
  0
LINE
  5
3D9
330
1F
100
AcDbEntity
  8
0
  6
Continuous
 62
     7
370
     0
100
AcDbLine
 10
193.3840285734
 20
137.8142073444
 30
0.0
 11
193.7338138275
 21
137.7816591592
 31
0.0
  0
LINE
  5
3DA
330
1F
100
AcDbEntity
  8
0
  6
Continuous
 62
     7
370
     0
100
AcDbLine
 10
193.7338138275
 20
133.7090878617
 30
0.0
 11
193.3840285734
 21
133.6765396765
 31
0.0
  0
SPLINE
  5
3DB
330
1F
100
AcDbEntity
  8
0
  6
Continuous
 62
     7
370
    30
100
AcDbSpline
210
0.0
220
0.0
230
1.0
 70
     8
 71
     3
 72
    11
 73
     7
 74
     0
 42
0.000000001
 43
0.00000001
 40
0.0
 40
0.0
 40
0.0
 40
0.0
 40
0.2545994206591163
 40
0.5153492416496289
 40
0.7541549395986415
 40
1.0
 40
1.0
 40
1.0
 40
1.0
 10
221.1340285733963
 20
197.3081289291977
 30
0.0
 10
221.0894970094815
 20
197.2883770579558
 30
0.0
 10
220.9993581252941
 20
197.2483961662502
 30
0.0
 10
220.9063273422425
 20
197.1374643552247
 30
0.0
 10
220.8453471206955
 20
196.991997861832
 30
0.0
 10
220.8378377792439
 20
196.8664795617837
 30
0.0
 10
220.8340285733963
 20
196.802808859685
 30
0.0
  0
LINE
  5
3DC
330
1F
100
AcDbEntity
  8
0
  6
Continuous
 62
     7
370
    30
100
AcDbLine
 10
221.1340285734
 20
197.3081289292
 30
0.0
 11
221.1340285734
 21
142.6326259743
 31
0.0
  0
SPLINE
  5
3DD
330
1F
100
AcDbEntity
  8
0
  6
Continuous
 62
     7
370
    30
100
AcDbSpline
210
0.0
220
0.0
230
1.0
 70
     8
 71
     3
 72
    11
 73
     7
 74
     0
 42
0.000000001
 43
0.00000001
 40
0.0
 40
0.0
 40
0.0
 40
0.0
 40
0.2522312618109017
 40
0.5130164490358926
 40
0.7537614031259374
 40
0.9999999999999999
 40
0.9999999999999999
 40
0.9999999999999999
 40
0.9999999999999999
 10
220.8340285733963
 20
143.6459382075096
 30
0.0
 10
220.8380528948737
 20
143.5446570206874
 30
0.0
 10
220.8462380147487
 20
143.3386598954912
 30
0.0
 10
220.9108811943701
 20
143.0672865608987
 30
0.0
 10
221.0055387254624
 20
142.8264909489725
 30
0.0
 10
221.0908777221009
 20
142.69773180817
 30
0.0
 10
221.1340285733963
 20
142.6326259743012
 30
0.0
  0
LINE
  5
3DE
330
1F
100
AcDbEntity
  8
0
  6
Continuous
 62
     7
370
    30
100
AcDbLine
 10
220.8340285734
 20
143.6459382075
 30
0.0
 11
220.8340285734
 21
196.8028088597
 31
0.0
  0
LINE
  5
3DF
330
1F
100
AcDbEntity
  8
0
  6
Continuous
 62
     7
370
    30
100
AcDbLine
 10
212.1340285734
 20
114.9835698361
 30
0.0
 11
212.1340285734
 21
206.3835698361
 31
0.0
  0
LINE
  5
3E0
330
1F
100
AcDbEntity
  8
0
  6
Continuous
 62
     7
370
    30
100
AcDbLine
 10
212.4340285734
 20
206.6835698361
 30
0.0
 11
212.4340285734
 21
114.6835698361
 31
0.0
  0
LINE
  5
3E1
330
1F
100
AcDbEntity
  8
0
  6
Continuous
 62
     7
370
    30
100
AcDbLine
 10
217.6340285734
 20
203.412004262
 30
0.0
 11
217.6340285734
 21
196.8028088597
 31
0.0
  0
LINE
  5
3E2
330
1F
100
AcDbEntity
  8
0
  6
Continuous
 62
     7
370
    30
100
AcDbLine
 10
217.6340285734
 20
143.6459382075
 30
0.0
 11
217.6340285734
 21
132.1984759736
 31
0.0
  0
LINE
  5
3E3
330
1F
100
AcDbEntity
  8
0
  6
Continuous
 62
     7
370
    30
100
AcDbLine
 10
220.8340285734
 20
114.6835698361
 30
0.0
 11
220.8340285734
 21
132.1984759736
 31
0.0
  0
LINE
  5
3E4
330
1F
100
AcDbEntity
  8
0
  6
Continuous
 62
     7
370
    30
100
AcDbLine
 10
220.8340285734
 20
203.412004262
 30
0.0
 11
220.8340285734
 21
206.6835698361
 31
0.0
  0
LINE
  5
3E5
330
1F
100
AcDbEntity
  8
0
  6
Continuous
 62
     7
370
    30
100
AcDbLine
 10
221.1340285734
 20
142.6326259743
 30
0.0
 11
221.1340285734
 21
142.0718964482
 31
0.0
  0
LINE
  5
3E6
330
1F
100
AcDbEntity
  8
0
  6
Continuous
 62
     7
370
    30
100
AcDbLine
 10
221.1340285734
 20
136.1859745719
 30
0.0
 11
221.1340285734
 21
142.0718964482
 31
0.0
  0
LINE
  5
3E7
330
1F
100
AcDbEntity
  8
0
  6
Continuous
 62
     7
370
    30
100
AcDbLine
 10
233.0340285734
 20
184.1835698361
 30
0.0
 11
233.0340285734
 21
177.1608858577
 31
0.0
  0
LINE
  5
3E8
330
1F
100
AcDbEntity
  8
0
  6
Continuous
 62
     7
370
    30
100
AcDbLine
 10
233.5340285734
 20
176.4335698361
 30
0.0
 11
233.5340285734
 21
183.4335698361
 31
0.0
  0
SPLINE
  5
3E9
330
1F
100
AcDbEntity
  8
0
  6
Continuous
 62
     7
370
    30
100
AcDbSpline
210
0.0
220
0.0
230
1.0
 70
     8
 71
     3
 72
    11
 73
     7
 74
     0
 42
0.000000001
 43
0.00000001
 40
0.0
 40
0.0
 40
0.0
 40
0.0
 40
0.2545994206591175
 40
0.5153492416496285
 40
0.7541549395986454
 40
1.0
 40
1.0
 40
1.0
 40
1.0
 10
221.1340285733963
 20
133.3498604055142
 30
0.0
 10
221.0894970094815
 20
133.2491930731016
 30
0.0
 10
220.9993581252941
 20
133.0454265708707
 30
0.0
 10
220.9063273422425
 20
132.7462129642945
 30
0.0
 10
220.8453471206955
 20
132.4577042349251
 30
0.0
 10
220.8378377792439
 20
132.2857180712497
 30
0.0
 10
220.8340285733963
 20
132.1984759735774
 30
0.0
  0
LINE
  5
3EA
330
1F
100
AcDbEntity
  8
0
  6
Continuous
 62
     7
370
    30
100
AcDbLine
 10
221.1340285734
 20
133.3498604055
 30
0.0
 11
221.1340285734
 21
114.9835698361
 31
0.0
  0
LINE
  5
3EB
330
1F
100
AcDbEntity
  8
0
  6
Continuous
 62
     7
370
    30
100
AcDbLine
 10
221.1340285734
 20
135.9116424103
 30
0.0
 11
221.1340285734
 21
133.3498604055
 31
0.0
  0
LINE
  5
3EC
330
1F
100
AcDbEntity
  8
0
  6
Continuous
 62
     7
370
    30
100
AcDbLine
 10
233.0340285734
 20
168.4372873745
 30
0.0
 11
233.0340285734
 21
177.1608858577
 31
0.0
  0
LINE
  5
3ED
330
1F
100
AcDbEntity
  8
0
  6
Continuous
 62
     7
370
    30
100
AcDbLine
 10
234.2340285734
 20
176.9835698361
 30
0.0
 11
234.2340285734
 21
182.8835698361
 31
0.0
  0
LINE
  5
3EE
330
1F
100
AcDbEntity
  8
0
  6
Continuous
 62
     7
370
    30
100
AcDbLine
 10
237.2340285734
 20
179.9335698361
 30
0.0
 11
237.2340285734
 21
177.2435698361
 31
0.0
  0
LINE
  5
3EF
330
1F
100
AcDbEntity
  8
0
  6
Continuous
 62
     7
370
    30
100
AcDbLine
 10
237.2340285734
 20
182.6235698361
 30
0.0
 11
237.2340285734
 21
179.9335698361
 31
0.0
  0
LINE
  5
3F0
330
1F
100
AcDbEntity
  8
0
  6
Continuous
 62
     7
370
    30
100
AcDbLine
 10
221.1340285734
 20
135.9116424103
 30
0.0
 11
221.1340285734
 21
136.1859745719
 31
0.0
  0
LINE
  5
3F1
330
1F
100
AcDbEntity
  8
0
  6
Continuous
 62
     7
370
    30
100
AcDbLine
 10
241.7840285734
 20
195.9335698361
 30
0.0
 11
241.7840285734
 21
195.2315437275
 31
0.0
  0
LINE
  5
3F2
330
1F
100
AcDbEntity
  8
0
  6
Continuous
 62
     7
370
    30
100
AcDbLine
 10
241.7840285734
 20
195.2315437275
 30
0.0
 11
240.7340285734
 21
195.2315437275
 31
0.0
  0
LINE
  5
3F3
330
1F
100
AcDbEntity
  8
0
  6
Continuous
 62
     7
370
    30
100
AcDbLine
 10
234.8840285734
 20
195.5018480818
 30
0.0
 11
241.2840285734
 21
195.5018480818
 31
0.0
  0
LINE
  5
3F4
330
1F
100
AcDbEntity
  8
0
  6
Continuous
 62
     7
370
    30
100
AcDbLine
 10
240.7340285734
 20
125.4335698361
 30
0.0
 11
240.7340285734
 21
195.2315437275
 31
0.0
  0
LINE
  5
3F5
330
1F
100
AcDbEntity
  8
0
  6
Continuous
 62
     7
370
    30
100
AcDbLine
 10
233.0340285734
 20
184.1835698361
 30
0.0
 11
233.0340285734
 21
186.5864319059
 31
0.0
  0
LINE
  5
3F6
330
1F
100
AcDbEntity
  8
0
  6
Continuous
 62
     7
370
    30
100
AcDbLine
 10
221.1340285734
 20
197.3398067388
 30
0.0
 11
221.1340285734
 21
197.3081289292
 31
0.0
  0
LINE
  5
3F7
330
1F
100
AcDbEntity
  8
0
  6
Continuous
 62
     7
370
    30
100
AcDbLine
 10
233.0340285734
 20
128.1323156678
 30
0.0
 11
233.0340285734
 21
136.7753236312
 31
0.0
  0
LINE
  5
3F8
330
1F
100
AcDbEntity
  8
0
  6
Continuous
 62
     7
370
    30
100
AcDbLine
 10
221.1340285734
 20
197.3398067388
 30
0.0
 11
221.1340285734
 21
199.3646494969
 31
0.0
  0
LINE
  5
3F9
330
1F
100
AcDbEntity
  8
0
  6
Continuous
 62
     7
370
    30
100
AcDbLine
 10
233.0340285734
 20
128.1323156678
 30
0.0
 11
233.0340285734
 21
123.0915917904
 31
0.0
  0
LINE
  5
3FA
330
1F
100
AcDbEntity
  8
0
  6
Continuous
 62
     7
370
     0
100
AcDbLine
 10
233.5340285734
 20
123.8415917904
 30
0.0
 11
233.5340285734
 21
130.8415917904
 31
0.0
  0
LINE
  5
3FB
330
1F
100
AcDbEntity
  8
0
  6
Continuous
 62
     7
370
     0
100
AcDbLine
 10
234.2340285734
 20
127.3415917904
 30
0.0
 11
234.2340285734
 21
130.2915917904
 31
0.0
  0
LINE
  5
3FC
330
1F
100
AcDbEntity
  8
0
  6
Continuous
 62
     7
370
     0
100
AcDbLine
 10
234.2340285734
 20
124.3915917904
 30
0.0
 11
234.2340285734
 21
127.3415917904
 31
0.0
  0
LINE
  5
3FD
330
1F
100
AcDbEntity
  8
0
  6
Continuous
 62
     7
370
    30
100
AcDbLine
 10
237.2340285734
 20
127.3415917904
 30
0.0
 11
237.2340285734
 21
124.6515917904
 31
0.0
  0
LINE
  5
3FE
330
1F
100
AcDbEntity
  8
0
  6
Continuous
 62
     7
370
    30
100
AcDbLine
 10
237.2340285734
 20
130.0315917904
 30
0.0
 11
237.2340285734
 21
127.3415917904
 31
0.0
  0
SPLINE
  5
3FF
330
1F
100
AcDbEntity
  8
0
  6
Continuous
 62
     7
370
    30
100
AcDbSpline
210
0.0
220
0.0
230
1.0
 70
     8
 71
     3
 72
    11
 73
     7
 74
     0
 42
0.000000001
 43
0.00000001
 40
0.0
 40
0.0
 40
0.0
 40
0.0
 40
0.2522312618109027
 40
0.5130164490358899
 40
0.7537614031259356
 40
1.0
 40
1.0
 40
1.0
 40
1.0
 10
220.8340285733963
 20
203.4120042619839
 30
0.0
 10
220.8380528948737
 20
203.3670360391114
 30
0.0
 10
220.8462380147487
 20
203.2755745848417
 30
0.0
 10
220.9108811943702
 20
203.0938324720792
 30
0.0
 10
221.0055387254624
 20
202.8902948785066
 30
0.0
 10
221.0908777221009
 20
202.7423453831395
 30
0.0
 10
221.1340285733963
 20
202.667536129161
 30
0.0
  0
LINE
  5
400
330
1F
100
AcDbEntity
  8
0
  6
Continuous
 62
     7
370
    30
100
AcDbLine
 10
221.1340285734
 20
202.6675361292
 30
0.0
 11
221.1340285734
 21
199.8398067388
 31
0.0
  0
LINE
  5
401
330
1F
100
AcDbEntity
  8
0
  6
Continuous
 62
     7
370
    30
100
AcDbLine
 10
221.1340285734
 20
199.3646494969
 30
0.0
 11
221.1340285734
 21
199.8398067388
 31
0.0
  0
LINE
  5
402
330
1F
100
AcDbEntity
  8
0
  6
Continuous
 62
     7
370
    30
100
AcDbLine
 10
221.1340285734
 20
206.3835698361
 30
0.0
 11
221.1340285734
 21
202.6675361292
 31
0.0
  0
LINE
  5
403
330
1F
100
AcDbEntity
  8
0
  6
Continuous
 62
     7
370
    30
100
AcDbLine
 10
241.7840285734
 20
195.2315437275
 30
0.0
 11
241.7840285734
 21
182.1835698361
 31
0.0
  0
LINE
  5
404
330
1F
100
AcDbEntity
  8
0
  6
Continuous
 62
     7
370
    30
100
AcDbLine
 10
241.7840285734
 20
180.6835698361
 30
0.0
 11
240.7340285734
 21
180.6835698361
 31
0.0
  0
LINE
  5
405
330
1F
100
AcDbEntity
  8
0
  6
Continuous
 62
     7
370
    30
100
AcDbLine
 10
241.7840285734
 20
182.1835698361
 30
0.0
 11
241.7840285734
 21
180.6835698361
 31
0.0
  0
LINE
  5
406
330
1F
100
AcDbEntity
  8
0
  6
Continuous
 62
     7
370
    30
100
AcDbLine
 10
234.8840285734
 20
197.4848045922
 30
0.0
 11
234.8840285734
 21
195.5018480818
 31
0.0
  0
LINE
  5
407
330
1F
100
AcDbEntity
  8
0
  6
Continuous
 62
     7
370
    30
100
AcDbLine
 10
234.8840285734
 20
197.4848045922
 30
0.0
 11
241.2840285734
 21
197.4848045922
 31
0.0
  0
LINE
  5
408
330
1F
100
AcDbEntity
  8
0
  6
Continuous
 62
     7
370
    30
100
AcDbLine
 10
241.2840285734
 20
197.4848045922
 30
0.0
 11
241.2840285734
 21
195.5018480818
 31
0.0
  0
LINE
  5
409
330
1F
100
AcDbEntity
  8
0
  6
Continuous
 62
     7
370
    30
100
AcDbLine
 10
234.8840285734
 20
197.4848045922
 30
0.0
 11
234.8840285734
 21
197.9535698361
 31
0.0
  0
LINE
  5
40A
330
1F
100
AcDbEntity
  8
0
  6
Continuous
 62
     7
370
    30
100
AcDbLine
 10
241.2840285734
 20
197.4848045922
 30
0.0
 11
241.2840285734
 21
197.9535698361
 31
0.0
  0
LINE
  5
40B
330
1F
100
AcDbEntity
  8
0
  6
Continuous
 62
     7
370
    30
100
AcDbLine
 10
233.0340285734
 20
195.9335698361
 30
0.0
 11
233.0340285734
 21
197.2465296507
 31
0.0
  0
LINE
  5
40C
330
1F
100
AcDbEntity
  8
0
  6
Continuous
 62
     7
370
    30
100
AcDbLine
 10
233.5340285734
 20
195.9335698361
 30
0.0
 11
233.5340285734
 21
197.5255478818
 31
0.0
  0
LINE
  5
40D
330
1F
100
AcDbEntity
  8
0
  6
Continuous
 62
     7
370
    30
100
AcDbLine
 10
234.2340285734
 20
195.9335698361
 30
0.0
 11
234.2340285734
 21
196.9755478818
 31
0.0
  0
LINE
  5
40E
330
1F
100
AcDbEntity
  8
0
  6
Continuous
 62
     7
370
    30
100
AcDbLine
 10
233.0340285734
 20
198.2755478818
 30
0.0
 11
233.0340285734
 21
197.2465296507
 31
0.0
  0
SPLINE
  5
40F
330
1F
100
AcDbEntity
  8
0
  6
Continuous
 62
     7
370
     0
100
AcDbSpline
210
0.0
220
0.0
230
1.0
 70
     8
 71
     3
 72
    12
 73
     8
 74
     0
 42
0.000000001
 43
0.00000001
 40
0.0
 40
0.0
 40
0.0
 40
0.0
 40
0.1222961944083098
 40
0.2442123910369418
 40
0.4087382443852444
 40
0.6504638135695003
 40
1.0
 40
1.0
 40
1.0
 40
1.0
 10
190.5340285733963
 20
138.0301008243563
 30
0.0
 10
190.4935894276234
 20
138.0328504868052
 30
0.0
 10
190.4128367882755
 20
138.0383412679733
 30
0.0
 10
190.2910355968891
 20
138.046533504252
 30
0.0
 10
190.169319542244
 20
138.0546566006267
 30
0.0
 10
190.058036372418
 20
138.062013097399
 30
0.0
 10
190.0429482299342
 20
138.0630038034087
 30
0.0
 10
190.0340285733963
 20
138.0635894790375
 30
0.0
  0
LINE
  5
410
330
1F
100
AcDbEntity
  8
0
  6
Continuous
 62
     7
370
    30
100
AcDbLine
 10
190.0340285734
 20
138.063589479
 30
0.0
 11
190.0340285734
 21
190.1835698361
 31
0.0
  0
LINE
  5
411
330
1F
100
AcDbEntity
  8
0
  6
Continuous
 62
     7
370
    30
100
AcDbLine
 10
190.0340285734
 20
131.1835698361
 30
0.0
 11
190.0340285734
 21
133.4271575419
 31
0.0
  0
SPLINE
  5
412
330
1F
100
AcDbEntity
  8
0
  6
Continuous
 62
     7
370
     0
100
AcDbSpline
210
0.0
220
0.0
230
1.0
 70
     8
 71
     3
 72
    13
 73
     9
 74
     0
 42
0.000000001
 43
0.00000001
 40
0.0
 40
0.0
 40
0.0
 40
0.0
 40
0.2635343129465647
 40
0.5318763736301308
 40
0.68586330516445
 40
0.8788540021809915
 40
0.9464238325869389
 40
1.0
 40
1.0
 40
1.0
 40
1.0
 10
190.0340285733963
 20
133.4271575418729
 30
0.0
 10
190.0383132437257
 20
133.4274393568027
 30
0.0
 10
190.0469607511091
 20
133.4280081279096
 30
0.0
 10
190.112942797187
 20
133.4323580668452
 30
0.0
 10
190.2159068821159
 20
133.4391947032406
 30
0.0
 10
190.3243506970661
 20
133.4464422239769
 30
0.0
 10
190.4495065310724
 20
133.4548942822563
 30
0.0
 10
190.5081110426498
 20
133.4588824505351
 30
0.0
 10
190.5340285733974
 20
133.4606461965542
 30
0.0
  0
LINE
  5
413
330
1F
100
AcDbEntity
  8
0
  6
Continuous
 62
     7
370
     0
100
AcDbLine
 10
190.5340285734
 20
138.0301008244
 30
0.0
 11
193.0340285734
 21
137.8365378193
 31
0.0
  0
LINE
  5
414
330
1F
100
AcDbEntity
  8
0
  6
Continuous
 62
     7
370
     0
100
AcDbLine
 10
193.030559755
 20
133.6540346081
 30
0.0
 11
190.5340285734
 21
133.4606461966
 31
0.0
  0
LINE
  5
415
330
1F
100
AcDbEntity
  8
0
  6
Continuous
 62
     7
370
    30
100
AcDbLine
 10
197.5340285734
 20
134.4335698361
 30
0.0
 11
190.0340285734
 21
134.4335698361
 31
0.0
  0
LINE
  5
416
330
1F
100
AcDbEntity
  8
0
  6
Continuous
 62
     7
370
    30
100
AcDbLine
 10
198.2851043472
 20
135.6835698361
 30
0.0
 11
197.5340285734
 21
134.4335698361
 31
0.0
  0
LINE
  5
417
330
1F
100
AcDbEntity
  8
0
  6
Continuous
 62
     7
370
    30
100
AcDbLine
 10
197.5340285734
 20
136.9335698361
 30
0.0
 11
198.2851043472
 21
135.6835698361
 31
0.0
  0
LINE
  5
418
330
1F
100
AcDbEntity
  8
0
  6
Continuous
 62
     7
370
    30
100
AcDbLine
 10
190.0340285734
 20
136.9335698361
 30
0.0
 11
197.5340285734
 21
136.9335698361
 31
0.0
  0
LINE
  5
419
330
1F
100
AcDbEntity
  8
0
  6
Continuous
 62
     7
370
    30
100
AcDbLine
 10
190.0340285734
 20
134.4335698361
 30
0.0
 11
190.0340285734
 21
133.4271575419
 31
0.0
  0
LINE
  5
41A
330
1F
100
AcDbEntity
  8
0
  6
Continuous
 62
     7
370
    30
100
AcDbLine
 10
190.0340285734
 20
138.063589479
 30
0.0
 11
190.0340285734
 21
136.9335698361
 31
0.0
  0
LINE
  5
41B
330
1F
100
AcDbEntity
  8
0
  6
Continuous
 62
     7
370
    30
100
AcDbLine
 10
197.5340285734
 20
136.9335698361
 30
0.0
 11
197.5340285734
 21
134.4335698361
 31
0.0
  0
LINE
  5
41C
330
1F
100
AcDbEntity
  8
0
  6
Continuous
 62
     7
370
    30
100
AcDbLine
 10
190.0340285734
 20
136.9335698361
 30
0.0
 11
190.0340285734
 21
134.4335698361
 31
0.0
  0
LINE
  5
41D
330
1F
100
AcDbEntity
  8
0
  6
Continuous
 62
     7
370
    30
100
AcDbLine
 10
211.8340285734
 20
114.6835698361
 30
0.0
 11
211.8340285734
 21
206.6835698361
 31
0.0
  0
LINE
  5
41E
330
1F
100
AcDbEntity
  8
0
  6
Continuous
 62
     7
370
    30
100
AcDbLine
 10
207.1340285734
 20
148.8555394749
 30
0.0
 11
207.1340285734
 21
206.3835698361
 31
0.0
  0
LINE
  5
41F
330
1F
100
AcDbEntity
  8
0
  6
Continuous
 62
     7
370
    30
100
AcDbLine
 10
207.1340285734
 20
114.9835698361
 30
0.0
 11
207.1340285734
 21
148.8555394749
 31
0.0
  0
LINE
  5
420
330
1F
100
AcDbEntity
  8
0
  6
Continuous
 62
     7
370
    30
100
AcDbLine
 10
207.4340285734
 20
148.7778937614
 30
0.0
 11
207.4340285734
 21
114.6835698361
 31
0.0
  0
LINE
  5
421
330
1F
100
AcDbEntity
  8
0
  6
Continuous
 62
     7
370
    30
100
AcDbLine
 10
207.4340285734
 20
206.6835698361
 30
0.0
 11
207.4340285734
 21
148.7778937614
 31
0.0
  0
LINE
  5
422
330
1F
100
AcDbEntity
  8
0
  6
Continuous
 62
     7
370
    30
100
AcDbLine
 10
202.4340285734
 20
134.9679879339
 30
0.0
 11
202.4340285734
 21
121.1835698361
 31
0.0
  0
LINE
  5
423
330
1F
100
AcDbEntity
  8
0
  6
Continuous
 62
     7
370
    30
100
AcDbLine
 10
202.4340285734
 20
200.1835698361
 30
0.0
 11
202.4340285734
 21
136.522759087
 31
0.0
  0
SPLINE
  5
424
330
1F
100
AcDbEntity
  8
0
  6
Continuous
 62
     7
370
     0
100
AcDbSpline
210
0.0
220
0.0
230
1.0
 70
     8
 71
     3
 72
    17
 73
    13
 74
     0
 42
0.000000001
 43
0.00000001
 40
0.0
 40
0.0
 40
0.0
 40
0.0
 40
0.1609991637626609
 40
0.3221389648702142
 40
0.3935093727486734
 40
0.4543350089983743
 40
0.496238394398906
 40
0.538275055685625
 40
0.5908947152626771
 40
0.682630799257161
 40
0.8408689078797682
 40
1.0
 40
1.0
 40
1.0
 40
1.0
 10
202.4340285733963
 20
134.9679879339143
 30
0.0
 10
202.6023783631616
 20
135.021285131417
 30
0.0
 10
202.9392250010177
 20
135.1279260830392
 30
0.0
 10
203.3276005642007
 20
135.3014580332447
 30
0.0
 10
203.5734300344012
 20
135.4751922278328
 30
0.0
 10
203.6835331545134
 20
135.6047604940062
 30
0.0
 10
203.7216432713571
 20
135.7307859955284
 30
0.0
 10
203.6997602988467
 20
135.852399689255
 30
0.0
 10
203.5965927271115
 20
135.9994078857663
 30
0.0
 10
203.3404524351267
 20
136.183004328082
 30
0.0
 10
202.937315837154
 20
136.3672904493112
 30
0.0
 10
202.6021053891539
 20
136.4708390893051
 30
0.0
 10
202.4340285733963
 20
136.5227590869962
 30
0.0
  0
LINE
  5
425
330
1F
100
AcDbEntity
  8
0
  6
Continuous
 62
     7
370
     0
100
AcDbLine
 10
202.4340285734
 20
136.522759087
 30
0.0
 11
202.1340285734
 21
136.6073608562
 31
0.0
  0
LINE
  5
426
330
1F
100
AcDbEntity
  8
0
  6
Continuous
 62
     7
370
    30
100
AcDbLine
 10
202.1340285734
 20
136.6073608562
 30
0.0
 11
202.1340285734
 21
199.8835698361
 31
0.0
  0
LINE
  5
427
330
1F
100
AcDbEntity
  8
0
  6
Continuous
 62
     7
370
    30
100
AcDbLine
 10
202.1340285734
 20
121.4835698361
 30
0.0
 11
202.1340285734
 21
134.8833861647
 31
0.0
  0
LINE
  5
428
330
1F
100
AcDbEntity
  8
0
  6
Continuous
 62
     7
370
     0
100
AcDbLine
 10
202.1340285734
 20
134.8833861647
 30
0.0
 11
202.4340285734
 21
134.9679879339
 31
0.0
  0
SPLINE
  5
429
330
1F
100
AcDbEntity
  8
0
  6
Continuous
 62
     7
370
     0
100
AcDbSpline
210
0.0
220
0.0
230
1.0
 70
     8
 71
     3
 72
    11
 73
     7
 74
     0
 42
0.000000001
 43
0.00000001
 40
0.0
 40
0.0
 40
0.0
 40
0.0
 40
0.1622862848121337
 40
0.3246063006474559
 40
0.6504269499795967
 40
1.0
 40
1.0
 40
1.0
 40
1.0
 10
201.1340285733963
 20
134.6513020950592
 30
0.0
 10
200.7563716162101
 20
134.5790432035254
 30
0.0
 10
200.0009792062606
 20
134.4345104015278
 30
0.0
 10
198.4675404861999
 20
134.2070825836174
 30
0.0
 10
196.4805081761156
 20
133.9609374847979
 30
0.0
 10
194.8684198715126
 20
133.8105005383756
 30
0.0
 10
194.0340285733963
 20
133.7326367646286
 30
0.0
  0
SPLINE
  5
42A
330
1F
100
AcDbEntity
  8
0
  6
Continuous
 62
     7
370
     0
100
AcDbSpline
210
0.0
220
0.0
230
1.0
 70
     8
 71
     3
 72
    11
 73
     7
 74
     0
 42
0.000000001
 43
0.00000001
 40
0.0
 40
0.0
 40
0.0
 40
0.0
 40
0.2495074704750491
 40
0.4991143288824494
 40
0.7493078670842267
 40
1.0
 40
1.0
 40
1.0
 40
1.0
 10
194.0340285733963
 20
137.7581102562818
 30
0.0
 10
194.6284354199449
 20
137.7034482945782
 30
0.0
 10
195.8174858869845
 20
137.5941025973165
 30
0.0
 10
197.5971948086066
 20
137.3934576505856
 30
0.0
 10
199.3754355661169
 20
137.1628294150721
 30
0.0
 10
200.5474420223304
 20
136.9473112663945
 30
0.0
 10
201.1340285733963
 20
136.8394449258512
 30
0.0
  0
LINE
  5
42B
330
1F
100
AcDbEntity
  8
0
  6
Continuous
 62
     7
370
     0
100
AcDbLine
 10
201.1340285734
 20
136.8394449259
 30
0.0
 11
202.1340285734
 21
136.6073608562
 31
0.0
  0
LINE
  5
42C
330
1F
100
AcDbEntity
  8
0
  6
Continuous
 62
     7
370
     0
100
AcDbLine
 10
202.1340285734
 20
134.8833861647
 30
0.0
 11
201.1340285734
 21
134.6513020951
 31
0.0
  0
LINE
  5
42D
330
1F
100
AcDbEntity
  8
0
  6
Continuous
 62
     7
370
     0
100
AcDbLine
 10
193.4340285734
 20
137.8099929245
 30
0.0
 11
194.0340285734
 21
137.7581102563
 31
0.0
  0
LINE
  5
42E
330
1F
100
AcDbEntity
  8
0
  6
Continuous
 62
     7
370
    30
100
AcDbLine
 10
193.4340285734
 20
133.6807540964
 30
0.0
 11
193.4340285734
 21
121.8075007971
 31
0.0
  0
LINE
  5
42F
330
1F
100
AcDbEntity
  8
0
  6
Continuous
 62
     7
370
    30
100
AcDbLine
 10
193.4340285734
 20
199.5596388751
 30
0.0
 11
193.4340285734
 21
137.8099929245
 31
0.0
  0
LINE
  5
430
330
1F
100
AcDbEntity
  8
0
  6
Continuous
 62
     7
370
     0
100
AcDbLine
 10
194.0340285734
 20
133.7326367646
 30
0.0
 11
193.4340285734
 21
133.6807540964
 31
0.0
  0
LINE
  5
431
330
1F
100
AcDbEntity
  8
0
  6
Continuous
 62
     7
370
     0
100
AcDbLine
 10
193.4340285734
 20
137.8099929245
 30
0.0
 11
193.0340285734
 21
137.8432571428
 31
0.0
  0
LINE
  5
432
330
1F
100
AcDbEntity
  8
0
  6
Continuous
 62
     7
370
    30
100
AcDbLine
 10
193.0340285734
 20
137.8432571428
 30
0.0
 11
193.0340285734
 21
199.1596388751
 31
0.0
  0
LINE
  5
433
330
1F
100
AcDbEntity
  8
0
  6
Continuous
 62
     7
370
    30
100
AcDbLine
 10
193.0340285734
 20
122.2075007971
 30
0.0
 11
193.0340285734
 21
133.6474898781
 31
0.0
  0
LINE
  5
434
330
1F
100
AcDbEntity
  8
0
  6
Continuous
 62
     7
370
     0
100
AcDbLine
 10
193.0340285734
 20
133.6474898781
 30
0.0
 11
193.4340285734
 21
133.6807540964
 31
0.0
  0
LINE
  5
435
330
1F
100
AcDbEntity
  8
0
  6
Continuous
 62
     7
370
    30
100
AcDbLine
 10
240.9340285734
 20
172.1835698361
 30
0.0
 11
240.9340285734
 21
149.1835698361
 31
0.0
  0
LINE
  5
436
330
1F
100
AcDbEntity
  8
0
  6
Continuous
 62
     7
370
    30
100
AcDbLine
 10
240.9340285734
 20
148.1835698361
 30
0.0
 11
240.7340285734
 21
148.1835698361
 31
0.0
  0
LINE
  5
437
330
1F
100
AcDbEntity
  8
0
  6
Continuous
 62
     7
370
    30
100
AcDbLine
 10
240.9340285734
 20
149.1835698361
 30
0.0
 11
240.9340285734
 21
148.1835698361
 31
0.0
  0
LINE
  5
438
330
1F
100
AcDbEntity
  8
0
  6
Continuous
 62
     7
370
    30
100
AcDbLine
 10
240.7340285734
 20
173.1835698361
 30
0.0
 11
240.9340285734
 21
173.1835698361
 31
0.0
  0
LINE
  5
439
330
1F
100
AcDbEntity
  8
0
  6
Continuous
 62
     7
370
     0
100
AcDbLine
 10
240.9340285734
 20
173.1835698361
 30
0.0
 11
240.9340285734
 21
172.1835698361
 31
0.0
  0
LINE
  5
43A
330
1F
100
AcDbEntity
  8
0
  6
Continuous
 62
     7
370
    30
100
AcDbLine
 10
220.6340285734
 20
200.1796494969
 30
0.0
 11
220.6340285734
 21
197.3398067388
 31
0.0
  0
LINE
  5
43B
330
1F
100
AcDbEntity
  8
0
  6
Continuous
 62
     7
370
    30
100
AcDbLine
 10
220.6340285734
 20
142.0718964482
 30
0.0
 11
220.6340285734
 21
136.7435698361
 31
0.0
  0
SPLINE
  5
43C
330
1F
100
AcDbEntity
  8
0
  6
Continuous
 62
     7
370
    30
100
AcDbSpline
210
0.0
220
0.0
230
1.0
 70
     8
 71
     3
 72
    17
 73
    13
 74
     0
 42
0.000000001
 43
0.00000001
 40
0.0
 40
0.0
 40
0.0
 40
0.0
 40
0.1079743795990928
 40
0.2159496307104778
 40
0.323849678407278
 40
0.4312865764333456
 40
0.5381182682847278
 40
0.6446119499519235
 40
0.751277449008031
 40
0.8584954011335266
 40
0.9662647867615833
 40
0.9999999999999999
 40
0.9999999999999999
 40
0.9999999999999999
 40
0.9999999999999999
 10
238.7940285733963
 20
197.8327298004773
 30
0.0
 10
238.8033883156261
 20
197.8242790969702
 30
0.0
 10
238.8221078756328
 20
197.8073776217464
 30
0.0
 10
238.9679278759838
 20
197.7820791728884
 30
0.0
 10
239.1825231398806
 20
197.7616746204708
 30
0.0
 10
239.4496635840786
 20
197.7495487308362
 30
0.0
 10
239.7362227692726
 20
197.7479783561704
 30
0.0
 10
240.0101147414193
 20
197.7571134029546
 30
0.0
 10
240.2437288284301
 20
197.7752818717226
 30
0.0
 10
240.4029848324683
 20
197.799091766596
 30
0.0
 10
240.4788514415942
 20
197.8195564955139
 30
0.0
 10
240.4666203257847
 20
197.8299324847899
 30
0.0
 10
240.4637043830995
 20
197.8324061585333
 30
0.0
  0
LINE
  5
43D
330
1F
100
AcDbEntity
  8
0
  6
Continuous
 62
     7
370
    30
100
AcDbLine
 10
238.7940285734
 20
210.6835698361
 30
0.0
 11
240.4740285734
 21
210.6835698361
 31
0.0
  0
LINE
  5
43E
330
1F
100
AcDbEntity
  8
0
  6
Continuous
 62
     7
370
    30
100
AcDbLine
 10
239.2340285734
 20
215.6835698361
 30
0.0
 11
240.0340285734
 21
215.6835698361
 31
0.0
  0
SPLINE
  5
43F
330
1F
100
AcDbEntity
  8
0
  6
Continuous
 62
     7
370
    30
100
AcDbSpline
210
0.0
220
0.0
230
1.0
 70
     8
 71
     3
 72
    17
 73
    13
 74
     0
 42
0.000000001
 43
0.00000001
 40
0.0
 40
0.0
 40
0.0
 40
0.0
 40
0.1086015734768922
 40
0.2172140026390163
 40
0.3254720093600851
 40
0.4327923654337862
 40
0.5391419543940804
 40
0.6450050627765822
 40
0.7511227242860504
 40
0.8580887235630055
 40
0.9660500726706722
 40
1.0
 40
1.0
 40
1.0
 40
1.0
 10
236.3790285733963
 20
197.6810425883767
 30
0.0
 10
236.3835694853942
 20
197.6750052800786
 30
0.0
 10
236.3926517632942
 20
197.6629300600001
 30
0.0
 10
236.4634597698573
 20
197.6462118963157
 30
0.0
 10
236.5675684241696
 20
197.6332907383167
 30
0.0
 10
236.6967171976825
 20
197.6259004181784
 30
0.0
 10
236.8346864521866
 20
197.6250217085769
 30
0.0
 10
236.9661835224042
 20
197.6306556167643
 30
0.0
 10
237.0782594846877
 20
197.6420018458832
 30
0.0
 10
237.1547906782972
 20
197.6575247430954
 30
0.0
 10
237.1913514718045
 20
197.6713996857353
 30
0.0
 10
237.1854329257273
 20
197.6790963938728
 30
0.0
 10
237.184017011402
 20
197.6809377040809
 30
0.0
  0
LINE
  5
440
330
1F
100
AcDbEntity
  8
0
  6
Continuous
 62
     7
370
    30
100
AcDbLine
 10
236.3790285734
 20
210.6835698361
 30
0.0
 11
237.1890285734
 21
210.6835698361
 31
0.0
  0
LINE
  5
441
330
1F
100
AcDbEntity
  8
0
  6
Continuous
 62
     7
370
    30
100
AcDbLine
 10
236.5840285734
 20
215.6835698361
 30
0.0
 11
236.9840285734
 21
215.6835698361
 31
0.0
  0
LINE
  5
442
330
1F
100
AcDbEntity
  8
0
  6
PHANTOM
 62
     8
370
     0
100
AcDbLine
 10
217.6340285734
 20
203.412004262
 30
0.0
 11
220.8340285734
 21
203.412004262
 31
0.0
  0
LINE
  5
443
330
1F
100
AcDbEntity
  8
0
  6
PHANTOM
 62
     8
370
     0
100
AcDbLine
 10
220.8340285734
 20
196.8028088597
 30
0.0
 11
217.6340285734
 21
196.8028088597
 31
0.0
  0
LINE
  5
444
330
1F
100
AcDbEntity
  8
0
  6
PHANTOM
 62
     8
370
     0
100
AcDbLine
 10
217.6340285734
 20
143.6459382075
 30
0.0
 11
220.8340285734
 21
143.6459382075
 31
0.0
  0
LINE
  5
445
330
1F
100
AcDbEntity
  8
0
  6
PHANTOM
 62
     8
370
     0
100
AcDbLine
 10
220.8340285734
 20
132.1984759736
 30
0.0
 11
217.6340285734
 21
132.1984759736
 31
0.0
  0
LINE
  5
446
330
1F
100
AcDbEntity
  8
0
  6
PHANTOM
 62
     8
370
     0
100
AcDbLine
 10
217.6340285734
 20
136.1859745719
 30
0.0
 11
221.1340285734
 21
136.1859745719
 31
0.0
  0
LINE
  5
447
330
1F
100
AcDbEntity
  8
0
  6
PHANTOM
 62
     8
370
     0
100
AcDbLine
 10
233.0340285734
 20
177.1608858577
 30
0.0
 11
221.1340285734
 21
177.1608858577
 31
0.0
  0
LINE
  5
448
330
1F
100
AcDbEntity
  8
0
  6
PHANTOM
 62
     8
370
     0
100
AcDbLine
 10
217.6340285734
 20
135.9116424103
 30
0.0
 11
221.1340285734
 21
135.9116424103
 31
0.0
  0
LINE
  5
449
330
1F
100
AcDbEntity
  8
0
  6
PHANTOM
 62
     8
370
     0
100
AcDbLine
 10
233.0340285734
 20
168.4372873745
 30
0.0
 11
221.1340285734
 21
168.4372873745
 31
0.0
  0
LINE
  5
44A
330
1F
100
AcDbEntity
  8
0
  6
PHANTOM
 62
     8
370
     0
100
AcDbLine
 10
237.0840285734
 20
179.9335698361
 30
0.0
 11
237.0840285734
 21
182.7735698361
 31
0.0
  0
LINE
  5
44B
330
1F
100
AcDbEntity
  8
0
  6
PHANTOM
 62
     8
370
     0
100
AcDbLine
 10
237.0840285734
 20
177.0935698361
 30
0.0
 11
237.0840285734
 21
179.9335698361
 31
0.0
  0
LINE
  5
44C
330
1F
100
AcDbEntity
  8
0
  6
PHANTOM
 62
     8
370
     0
100
AcDbLine
 10
233.0340285734
 20
186.5864319059
 30
0.0
 11
221.1340285734
 21
186.5864319059
 31
0.0
  0
LINE
  5
44D
330
1F
100
AcDbEntity
  8
0
  6
PHANTOM
 62
     8
370
     0
100
AcDbLine
 10
233.0340285734
 20
136.7753236312
 30
0.0
 11
221.1340285734
 21
136.7753236312
 31
0.0
  0
LINE
  5
44E
330
1F
100
AcDbEntity
  8
0
  6
PHANTOM
 62
     8
370
     0
100
AcDbLine
 10
233.0340285734
 20
128.1323156678
 30
0.0
 11
221.1340285734
 21
128.1323156678
 31
0.0
  0
LINE
  5
44F
330
1F
100
AcDbEntity
  8
0
  6
PHANTOM
 62
     8
370
     0
100
AcDbLine
 10
220.6340285734
 20
199.3646494969
 30
0.0
 11
221.1340285734
 21
199.3646494969
 31
0.0
  0
LINE
  5
450
330
1F
100
AcDbEntity
  8
0
  6
PHANTOM
 62
     8
370
     0
100
AcDbLine
 10
237.0840285734
 20
127.3415917904
 30
0.0
 11
237.0840285734
 21
130.1815917904
 31
0.0
  0
LINE
  5
451
330
1F
100
AcDbEntity
  8
0
  6
PHANTOM
 62
     8
370
     0
100
AcDbLine
 10
237.0840285734
 20
124.5015917904
 30
0.0
 11
237.0840285734
 21
127.3415917904
 31
0.0
  0
LINE
  5
452
330
1F
100
AcDbEntity
  8
0
  6
PHANTOM
 62
     8
370
     0
100
AcDbLine
 10
221.1340285734
 20
199.8398067388
 30
0.0
 11
220.6340285734
 21
199.8398067388
 31
0.0
  0
LINE
  5
453
330
1F
100
AcDbEntity
  8
0
  6
PHANTOM
 62
     8
370
     0
100
AcDbLine
 10
240.7340285734
 20
182.1835698361
 30
0.0
 11
241.7840285734
 21
182.1835698361
 31
0.0
  0
LINE
  5
454
330
1F
100
AcDbEntity
  8
0
  6
PHANTOM
 62
     8
370
     0
100
AcDbLine
 10
233.0340285734
 20
197.2465296507
 30
0.0
 11
221.1340285734
 21
197.2465296507
 31
0.0
  0
LINE
  5
455
330
1F
100
AcDbEntity
  8
0
  6
PHANTOM
 62
     8
370
     0
100
AcDbLine
 10
190.5340285734
 20
133.4606461966
 30
0.0
 11
190.5340285734
 21
130.6835698361
 31
0.0
  0
LINE
  5
456
330
1F
100
AcDbEntity
  8
0
  6
PHANTOM
 62
     8
370
     0
100
AcDbLine
 10
190.5340285734
 20
190.6835698361
 30
0.0
 11
190.5340285734
 21
138.0301008244
 31
0.0
  0
LINE
  5
457
330
1F
100
AcDbEntity
  8
0
  6
PHANTOM
 62
     8
370
     0
100
AcDbLine
 10
201.1340285734
 20
136.8394449259
 30
0.0
 11
201.1340285734
 21
199.6835698361
 31
0.0
  0
LINE
  5
458
330
1F
100
AcDbEntity
  8
0
  6
PHANTOM
 62
     8
370
     0
100
AcDbLine
 10
201.1340285734
 20
121.6835698361
 30
0.0
 11
201.1340285734
 21
134.6513020951
 31
0.0
  0
LINE
  5
459
330
1F
100
AcDbEntity
  8
0
  6
PHANTOM
 62
     8
370
     0
100
AcDbLine
 10
194.0340285734
 20
137.7581102563
 30
0.0
 11
194.0340285734
 21
199.5596388751
 31
0.0
  0
LINE
  5
45A
330
1F
100
AcDbEntity
  8
0
  6
PHANTOM
 62
     8
370
     0
100
AcDbLine
 10
194.0340285734
 20
121.8075007971
 30
0.0
 11
194.0340285734
 21
133.7326367646
 31
0.0
  0
LINE
  5
45B
330
1F
100
AcDbEntity
  8
0
  6
PHANTOM
 62
     8
370
     0
100
AcDbLine
 10
240.9340285734
 20
172.1835698361
 30
0.0
 11
240.7340285734
 21
172.1835698361
 31
0.0
  0
LINE
  5
45C
330
1F
100
AcDbEntity
  8
0
  6
PHANTOM
 62
     8
370
     0
100
AcDbLine
 10
240.7340285734
 20
149.1835698361
 30
0.0
 11
240.9340285734
 21
149.1835698361
 31
0.0
  0
LINE
  5
45D
330
1F
100
AcDbEntity
  8
0
  6
PHANTOM
 62
     8
370
     0
100
AcDbLine
 10
220.4840285734
 20
197.3398067388
 30
0.0
 11
220.4840285734
 21
200.3296494969
 31
0.0
  0
LINE
  5
45E
330
1F
100
AcDbEntity
  8
0
  6
PHANTOM
 62
     8
370
     0
100
AcDbLine
 10
220.4840285734
 20
136.5935698361
 30
0.0
 11
220.4840285734
 21
142.0718964482
 31
0.0
  0
SPLINE
  5
45F
330
1F
100
AcDbEntity
  8
0
  6
Continuous
 62
     1
370
    15
100
AcDbSpline
210
0.0
220
0.0
230
1.0
 70
     8
 71
     3
 72
     8
 73
     4
 74
     0
 42
0.000000001
 43
0.00000001
 40
0.0
 40
0.0
 40
0.0
 40
0.0
 40
1.0
 40
1.0
 40
1.0
 40
1.0
 10
233.9908900197915
 20
205.2549238559559
 30
0.0
 10
236.6527088305286
 20
209.5706219034733
 30
0.0
 10
239.6633650644537
 20
201.7361971301318
 30
0.0
 10
242.0231394757971
 20
206.8919709511106
 30
0.0
  0
SPLINE
  5
460
330
1F
100
AcDbEntity
  8
0
  6
Continuous
 62
     1
370
    15
100
AcDbSpline
210
0.0
220
0.0
230
1.0
 70
     8
 71
     3
 72
    21
 73
    17
 74
     0
 42
0.000000001
 43
0.00000001
 40
0.0
 40
0.0
 40
0.0
 40
0.0
 40
0.03125
 40
0.0625
 40
0.125
 40
0.1875
 40
0.25
 40
0.375
 40
0.5
 40
0.625
 40
0.75
 40
0.8125
 40
0.875
 40
0.9375
 40
0.96875
 40
1.0
 40
1.0
 40
1.0
 40
1.0
 10
234.4164546732374
 20
204.9924458078499
 30
0.0
 10
234.4867141410933
 20
205.10635989059
 30
0.0
 10
234.6453784043556
 20
205.34088716435
 30
0.0
 10
234.9323848039268
 20
205.6820977281052
 30
0.0
 10
235.2725088513173
 20
205.9579762778428
 30
0.0
 10
235.6311701542434
 20
206.0988193724789
 30
0.0
 10
236.1156287052166
 20
206.1347616246763
 30
0.0
 10
236.8516758264511
 20
205.905736684082
 30
0.0
 10
237.8655307853142
 20
205.3241922062392
 30
0.0
 10
238.9396721527968
 20
204.7318398372705
 30
0.0
 10
239.9639266053889
 20
204.4796437768696
 30
0.0
 10
240.849803124353
 20
204.7000606745999
 30
0.0
 10
241.4596636869392
 20
205.111317591112
 30
0.0
 10
241.9084334660404
 20
205.6475292881405
 30
0.0
 10
242.2381442992229
 20
206.1901414934702
 30
0.0
 10
242.4035269351048
 20
206.5216471798447
 30
0.0
 10
242.4777816631126
 20
206.6838832736452
 30
0.0
  0
HATCH
  5
461
330
1F
100
AcDbEntity
  8
0
  6
Continuous
 62
     7
370
     0
100
AcDbHatch
 10
0.0
 20
0.0
 30
0.0
210
0.0
220
0.0
230
1.0
  2
ANSI31
 70
     0
 71
     0
 91
        1
 92
        0
 93
       30
 72
     4
 94
        3
 73
     1
 74
     0
 95
        8
 96
        4
 40
0.0
 40
0.0
 40
0.0
 40
0.0
 40
0.0005640440684195
 40
0.0005640440684195
 40
0.0005640440684195
 40
0.0005640440684195
 10
202.1340285733963
 20
134.8833861647334
 42
1.0
 10
202.23437991433
 20
134.9101849984561
 42
1.0
 10
202.3344527402877
 20
134.9382556522413
 42
1.0
 10
202.4340285733963
 20
134.9679879339143
 42
1.0
 72
     4
 94
        3
 73
     1
 74
     0
 95
       32
 96
       28
 40
0.0
 40
0.0
 40
0.0
 40
0.0
 40
0.0005472722253437
 40
0.0005472722253437
 40
0.0005472722253437
 40
0.0010963562937997
 40
0.0010963562937997
 40
0.0010963562937997
 40
0.0013388111514418
 40
0.0013388111514418
 40
0.0013388111514418
 40
0.0015463076690404
 40
0.0015463076690404
 40
0.0015463076690404
 40
0.0016888559514272
 40
0.0016888559514272
 40
0.0016888559514272
 40
0.0018320269927484
 40
0.0018320269927484
 40
0.0018320269927484
 40
0.0020113374231663
 40
0.0020113374231663
 40
0.0020113374231663
 40
0.0023247990371724
 40
0.0023247990371724
 40
0.0023247990371724
 40
0.003416908473313
 40
0.003416908473313
 40
0.003416908473313
 40
0.003416908473313
 10
202.4340285733963
 20
134.9679879339143
 42
1.0
 10
202.6037903937326
 20
135.0186770027573
 42
1.0
 10
202.7716438080108
 20
135.0738150965454
 42
1.0
 10
202.9343544775341
 20
135.1367262167648
 42
1.0
 10
203.0972072794513
 20
135.1996922916354
 42
1.0
 10
203.2571030388067
 20
135.2703071306138
 42
1.0
 10
203.3995694415588
 20
135.3579400932853
 42
1.0
 10
203.4626692170551
 20
135.3967535971277
 42
1.0
 10
203.5226919750479
 20
135.4393721110333
 42
1.0
 10
203.5743436861807
 20
135.4872924488197
 42
1.0
 10
203.6183640061765
 20
135.5281326951039
 42
1.0
 10
203.657014986265
 20
135.5738047054553
 42
1.0
 10
203.6822046259591
 20
135.623392487921
 42
1.0
 10
203.6995580191216
 20
135.6575540041489
 42
1.0
 10
203.7105637820284
 20
135.6943209339543
 42
1.0
 10
203.7127492630582
 20
135.7310884476139
 42
1.0
 10
203.7149416951237
 20
135.7679729022537
 42
1.0
 10
203.7082077839314
 20
135.8057003873716
 42
1.0
 10
203.6941147890942
 20
135.8410735797884
 42
1.0
 10
203.6764737926863
 20
135.8853521995968
 42
1.0
 10
203.6472996154359
 20
135.927235722312
 42
1.0
 10
203.6126239019267
 20
135.9650665439597
 42
1.0
 10
203.5521709420897
 20
136.0310200575352
 42
1.0
 10
203.4741964348335
 20
136.0874764028554
 42
1.0
 10
203.3920681207815
 20
136.1373934744829
 42
1.0
 10
203.1087211039406
 20
136.3096100053875
 42
1.0
 10
202.7695386032578
 20
136.4225793706884
 42
1.0
 10
202.4340285733963
 20
136.5227590869962
 42
1.0
 72
     4
 94
        3
 73
     1
 74
     0
 95
        8
 96
        4
 40
0.0
 40
0.0
 40
0.0
 40
0.0
 40
0.0004424774471964
 40
0.0004424774471964
 40
0.0004424774471964
 40
0.0004424774471964
 10
202.4340285733963
 20
136.5227590869962
 42
1.0
 10
202.3335938211361
 20
136.5527478327664
 42
1.0
 10
202.2336152438701
 20
136.5807662277626
 42
1.0
 10
202.1340285733963
 20
136.607360856177
 42
1.0
 72
     4
 94
        3
 73
     1
 74
     0
 95
        8
 96
        4
 40
0.0
 40
0.0
 40
0.0
 40
0.0
 40
0.0010423625310752
 40
0.0010423625310752
 40
0.0010423625310752
 40
0.0010423625310752
 10
202.1340285733963
 20
136.607360856177
 42
1.0
 10
201.8050140332431
 20
136.6952242157682
 42
1.0
 10
201.4704275462047
 20
136.7706394419172
 42
1.0
 10
201.1340285733963
 20
136.8394449258512
 42
1.0
 72
     4
 94
        3
 73
     1
 74
     0
 95
       11
 96
        7
 40
0.0
 40
0.0
 40
0.0
 40
0.0
 40
0.0035973706718035
 40
0.0035973706718035
 40
0.0035973706718035
 40
0.0071808270156674
 40
0.0071808270156674
 40
0.0071808270156674
 40
0.0071808270156674
 10
201.1340285733963
 20
136.8394449258512
 42
1.0
 10
199.9695136152768
 20
137.0776294083212
 42
1.0
 10
198.7825101585048
 20
137.2434022458075
 42
1.0
 10
197.595090139395
 20
137.3886872093941
 42
1.0
 10
196.411586410942
 20
137.5334930012164
 42
1.0
 10
195.2234471947941
 20
137.6527965884334
 42
1.0
 10
194.0340285733963
 20
137.7581102562818
 42
1.0
 72
     4
 94
        3
 73
     1
 74
     0
 95
        8
 96
        4
 40
0.0
 40
0.0
 40
0.0
 40
0.0
 40
0.0006034252354535
 40
0.0006034252354535
 40
0.0006034252354535
 40
0.0006034252354535
 10
194.0340285733963
 20
137.7581102562818
 42
1.0
 10
193.8340848557941
 20
137.7758137005403
 42
1.0
 10
193.6340821389375
 20
137.7930979741894
 42
1.0
 10
193.4340285733963
 20
137.8099929244837
 42
1.0
 72
     4
 94
        3
 73
     1
 74
     0
 95
        8
 96
        4
 40
0.0
 40
0.0
 40
0.0
 40
0.0
 40
0.0006192019079329
 40
0.0006192019079329
 40
0.0006192019079329
 40
0.0006192019079329
 10
193.4340285733963
 20
137.8099929244837
 42
1.0
 10
193.3004740321608
 20
137.8212718903428
 42
1.0
 10
193.1671385756611
 20
137.8323568394777
 42
1.0
 10
193.0340285733963
 20
137.8432571427641
 42
1.0
 72
     4
 94
        3
 73
     1
 74
     0
 95
        8
 96
        4
 40
0.0
 40
0.0
 40
0.0
 40
0.0
 40
0.0008425765147783
 40
0.0008425765147783
 40
0.0008425765147783
 40
0.0008425765147783
 10
193.0340285733963
 20
137.8432571427641
 42
1.0
 10
193.2013896177272
 20
137.8295520408898
 42
1.0
 10
193.3680710978301
 20
137.8156398130865
 42
1.0
 10
193.5340285733963
 20
137.8015147622041
 42
1.0
 72
     4
 94
        3
 73
     1
 74
     0
 95
        8
 96
        4
 40
0.0
 40
0.0
 40
0.0
 40
0.0
 40
0.0010065538219802
 40
0.0010065538219802
 40
0.0010065538219802
 40
0.0010065538219802
 10
193.5340285733963
 20
137.8015147622042
 42
1.0
 10
193.8675333451691
 20
137.7731293468759
 42
1.0
 10
194.2008818954737
 20
137.743651737035
 42
1.0
 10
194.5340285733963
 20
137.7129336282867
 42
1.0
 72
     4
 94
        3
 73
     1
 74
     0
 95
       26
 96
       22
 40
0.0
 40
0.0
 40
0.0
 40
0.0
 40
0.0001012753754792
 40
0.0001012753754792
 40
0.0001012753754792
 40
0.0001815874798257
 40
0.0001815874798257
 40
0.0001815874798257
 40
0.0002453519462658
 40
0.0002453519462658
 40
0.0002453519462658
 40
0.0003098280760275
 40
0.0003098280760275
 40
0.0003098280760275
 40
0.0003644850574188
 40
0.0003644850574188
 40
0.0003644850574188
 40
0.0004163752207683
 40
0.0004163752207683
 40
0.0004163752207683
 40
0.0004609341534419
 40
0.0004609341534419
 40
0.0004609341534419
 40
0.0004609341534419
 10
194.5340285733963
 20
137.7129336282867
 42
1.0
 10
194.5340285733963
 20
137.7129336282867
 42
1.0
 10
194.539190201221
 20
137.7124580367904
 42
1.0
 10
194.5499827200951
 20
137.7114615951444
 42
1.0
 10
194.5585598874215
 20
137.7106696904159
 42
1.0
 10
194.570937613466
 20
137.7095262176364
 42
1.0
 10
194.5870961796043
 20
137.7080297750379
 42
1.0
 10
194.5999475096998
 20
137.7068396151167
 42
1.0
 10
194.6155304828497
 20
137.7053945768918
 42
1.0
 10
194.6331402262121
 20
137.7037575262528
 42
1.0
 10
194.6508657533788
 20
137.7021097120299
 42
1.0
 10
194.6712744803745
 20
137.7002085629154
 42
1.0
 10
194.6922500140148
 20
137.6982490444514
 42
1.0
 10
194.7101182521316
 20
137.6965798071816
 42
1.0
 10
194.7289004407832
 20
137.6948212355179
 42
1.0
 10
194.7468910682773
 20
137.6931329112575
 42
1.0
 10
194.7640268948261
 20
137.6915248054983
 42
1.0
 10
194.7808734428689
 20
137.6899402750675
 42
1.0
 10
194.7964034000869
 20
137.6884768397958
 42
1.0
 10
194.8097987662724
 20
137.6872145535525
 42
1.0
 10
194.8224494703607
 20
137.6860202956888
 42
1.0
 10
194.8340285733963
 20
137.684925722202
 42
1.0
 72
     4
 94
        3
 73
     1
 74
     0
 95
        8
 96
        4
 40
0.0
 40
0.0
 40
0.0
 40
0.0
 40
0.0006157449340313
 40
0.0006157449340313
 40
0.0006157449340313
 40
0.0006157449340313
 10
194.8340285733963
 20
137.684925722202
 42
1.0
 10
194.9921343202826
 20
137.6699799739759
 42
1.0
 10
195.1498776165472
 20
137.6547718314397
 42
1.0
 10
195.3072336541532
 20
137.6392861856412
 42
1.0
 72
     4
 94
        3
 73
     1
 74
     0
 95
        8
 96
        4
 40
0.0
 40
0.0
 40
0.0
 40
0.0
 40
0.0016422242985871
 40
0.0016422242985871
 40
0.0016422242985871
 40
0.0016422242985871
 10
195.3072336541532
 20
137.6392861856412
 42
1.0
 10
195.8502220878087
 20
137.5858498721436
 42
1.0
 10
196.3926218171473
 20
137.5287586014126
 42
1.0
 10
196.9340285733963
 20
137.466857846682
 42
1.0
 72
     4
 94
        3
 73
     1
 74
     0
 95
       23
 96
       19
 40
0.0
 40
0.0
 40
0.0
 40
0.0
 40
0.0000166980276246
 40
0.0000166980276246
 40
0.0000166980276246
 40
0.0001416497187368
 40
0.0001416497187368
 40
0.0001416497187368
 40
0.0002394935769978
 40
0.0002394935769978
 40
0.0002394935769978
 40
0.0003076952340053
 40
0.0003076952340053
 40
0.0003076952340053
 40
0.0003747612799214
 40
0.0003747612799214
 40
0.0003747612799214
 40
0.0004419269077469
 40
0.0004419269077469
 40
0.0004419269077469
 40
0.0004419269077469
 10
196.9340285733963
 20
137.466857846682
 42
1.0
 10
196.9340285733963
 20
137.466857846682
 42
1.0
 10
196.9341401832154
 20
137.4668450861918
 42
1.0
 10
196.93436478384
 20
137.4668194060338
 42
1.0
 10
196.9360243303677
 20
137.4666296584891
 42
1.0
 10
196.9439564527752
 20
137.4657234549619
 42
1.0
 10
196.9588024075689
 20
137.4640218955662
 42
1.0
 10
196.9704534709168
 20
137.4626865165633
 42
1.0
 10
196.9867058145409
 20
137.4608217838155
 42
1.0
 10
197.0073992674288
 20
137.4584385196482
 42
1.0
 10
197.0218959521407
 20
137.4567689370315
 42
1.0
 10
197.0388646008204
 20
137.4548110039551
 42
1.0
 10
197.0576489200079
 20
137.4526367146945
 42
1.0
 10
197.0760827946367
 20
137.450502989472
 42
1.0
 10
197.0967177987876
 20
137.4481082762023
 42
1.0
 10
197.118070041564
 20
137.4456216824358
 42
1.0
 10
197.1394353077162
 20
137.4431335720208
 42
1.0
 10
197.1620741698215
 20
137.440488598895
 42
1.0
 10
197.1840285733963
 20
137.4379147474383
 42
1.0
 72
     4
 94
        3
 73
     1
 74
     0
 95
        8
 96
        4
 40
0.0
 40
0.0
 40
0.0
 40
0.0
 40
0.0006072303365853
 40
0.0006072303365853
 40
0.0006072303365853
 40
0.0006072303365853
 10
197.1840285733963
 20
137.4379147474383
 42
1.0
 10
197.3841770623073
 20
137.4144500936167
 42
1.0
 10
197.5841885928048
 20
137.3902874725714
 42
1.0
 10
197.7840285733963
 20
137.3653342994601
 42
1.0
 72
     4
 94
        3
 73
     1
 74
     0
 95
       20
 96
       16
 40
0.0
 40
0.0
 40
0.0
 40
0.0
 40
0.0000296972738519
 40
0.0000296972738519
 40
0.0000296972738519
 40
0.0001056528448411
 40
0.0001056528448411
 40
0.0001056528448411
 40
0.0002002565374475
 40
0.0002002565374475
 40
0.0002002565374475
 40
0.0003453142748639
 40
0.0003453142748639
 40
0.0003453142748639
 40
0.000473714083969
 40
0.000473714083969
 40
0.000473714083969
 40
0.000473714083969
 10
197.7840285733963
 20
137.3653342994601
 42
1.0
 10
197.7938019695405
 20
137.3641139368222
 42
1.0
 10
197.8035255723088
 20
137.3628978259096
 42
1.0
 10
197.813053502148
 20
137.361704343747
 42
1.0
 10
197.8371413494832
 20
137.3586870654279
 42
1.0
 10
197.8603716214228
 20
137.3557648679852
 42
1.0
 10
197.8812652779515
 20
137.3531280489486
 42
1.0
 10
197.9072471906692
 20
137.3498490823414
 42
1.0
 10
197.9304032021758
 20
137.3469125618058
 42
1.0
 10
197.9498086278754
 20
137.3444449238847
 42
1.0
 10
197.9793363074849
 20
137.3406901172109
 42
1.0
 10
198.0013476506971
 20
137.3378736537627
 42
1.0
 10
198.0152583910774
 20
137.3360917704658
 42
1.0
 10
198.0276378621826
 20
137.3345060336765
 42
1.0
 10
198.0340285733963
 20
137.3336848899042
 42
1.0
 10
198.0340285733963
 20
137.3336848899042
 42
1.0
 72
     4
 94
        3
 73
     1
 74
     0
 95
        8
 96
        4
 40
0.0
 40
0.0
 40
0.0
 40
0.0
 40
0.0005228387763167
 40
0.0005228387763167
 40
0.0005228387763167
 40
0.0005228387763167
 10
198.0340285733963
 20
137.3336848899041
 42
1.0
 10
198.1343881611457
 20
137.3208023301625
 42
1.0
 10
198.2343943251443
 20
137.3077474616132
 42
1.0
 10
198.3340285733963
 20
137.2945107691495
 42
1.0
 72
     4
 94
        3
 73
     1
 74
     0
 95
       38
 96
       34
 40
0.0
 40
0.0
 40
0.0
 40
0.0
 40
0.0033848095704983
 40
0.0033848095704983
 40
0.0033848095704983
 40
0.0050875525047614
 40
0.0050875525047614
 40
0.0050875525047614
 40
0.0053858785514716
 40
0.0053858785514716
 40
0.0053858785514716
 40
0.00568787398572
 40
0.00568787398572
 40
0.00568787398572
 40
0.0058601246634316
 40
0.0058601246634316
 40
0.0058601246634316
 40
0.0060344056312371
 40
0.0060344056312371
 40
0.0060344056312371
 40
0.0061901214365709
 40
0.0061901214365709
 40
0.0061901214365709
 40
0.0064510206602515
 40
0.0064510206602515
 40
0.0064510206602515
 40
0.0071183356141145
 40
0.0071183356141145
 40
0.0071183356141145
 40
0.0096539249261317
 40
0.0096539249261317
 40
0.0096539249261317
 40
0.0119906292534141
 40
0.0119906292534141
 40
0.0119906292534141
 40
0.0119906292534141
 10
198.3340285733963
 20
137.2945107691495
 42
1.0
 10
199.4454536920123
 20
137.1468547899084
 42
1.0
 10
200.5569968019543
 20
136.9791634233705
 42
1.0
 10
201.6351126544256
 20
136.7308274418913
 42
1.0
 10
202.1762686094304
 20
136.6061761858028
 42
1.0
 10
202.7253178531747
 20
136.4675793585343
 42
1.0
 10
203.1996928059447
 20
136.2404650485796
 42
1.0
 10
203.2839200830934
 20
136.200139943265
 42
1.0
 10
203.365467658856
 20
136.156240142355
 42
1.0
 10
203.4401032280305
 20
136.1070010226066
 42
1.0
 10
203.5152409469518
 20
136.0574306209803
 42
1.0
 10
203.5849721522338
 20
136.0014326036775
 42
1.0
 10
203.6359637590129
 20
135.9379175677955
 42
1.0
 10
203.6651867409613
 20
135.901517484247
 42
1.0
 10
203.6883971963048
 20
135.8619059618673
 42
1.0
 10
203.7012742278606
 20
135.8209955909513
 42
1.0
 10
203.7142444214048
 20
135.7797892440969
 42
1.0
 10
203.7165967994502
 20
135.7361822135511
 42
1.0
 10
203.707809383142
 20
135.6945969211048
 42
1.0
 10
203.6999099977735
 20
135.6572141183361
 42
1.0
 10
203.6831853112127
 20
135.6205962306735
 42
1.0
 10
203.6606705302993
 20
135.5865707241694
 42
1.0
 10
203.6231279717904
 20
135.5298344595067
 42
1.0
 10
203.5692182959837
 20
135.478597655032
 42
1.0
 10
203.5095083202438
 20
135.4329205846157
 42
1.0
 10
203.3579483625301
 20
135.3169799101304
 42
1.0
 10
203.1668372444111
 20
135.228808772681
 42
1.0
 10
202.973107286583
 20
135.1519069972609
 42
1.0
 10
202.2410670089567
 20
134.8613210824151
 42
1.0
 10
201.4176770478756
 20
134.6984257777882
 42
1.0
 10
200.6061762130725
 20
134.5489430494248
 42
1.0
 10
199.8558974640995
 20
134.4107377517596
 42
1.0
 10
199.0962269032652
 20
134.2974964616371
 42
1.0
 10
198.3340285733963
 20
134.1962362517609
 42
1.0
 72
     4
 94
        3
 73
     1
 74
     0
 95
        8
 96
        4
 40
0.0
 40
0.0
 40
0.0
 40
0.0
 40
0.0005007059186259
 40
0.0005007059186259
 40
0.0005007059186259
 40
0.0005007059186259
 10
198.3340285733963
 20
134.1962362517609
 42
1.0
 10
198.2341520823833
 20
134.1829673766593
 42
1.0
 10
198.1341527719129
 20
134.1699144752407
 42
1.0
 10
198.0340285733963
 20
134.1570621310063
 42
1.0
 72
     4
 94
        3
 73
     1
 74
     0
 95
       23
 96
       19
 40
0.0
 40
0.0
 40
0.0
 40
0.0
 40
0.0000458970446273
 40
0.0000458970446273
 40
0.0000458970446273
 40
0.0001854421947464
 40
0.0001854421947464
 40
0.0001854421947464
 40
0.0002834085080948
 40
0.0002834085080948
 40
0.0002834085080948
 40
0.0003451215182289
 40
0.0003451215182289
 40
0.0003451215182289
 40
0.0004063189401556
 40
0.0004063189401556
 40
0.0004063189401556
 40
0.0004676254360413
 40
0.0004676254360413
 40
0.0004676254360413
 40
0.0004676254360413
 10
198.0340285733963
 20
134.1570621310063
 42
1.0
 10
198.0340285733963
 20
134.1570621310063
 42
1.0
 10
198.0333570771286
 20
134.1569759247
 42
1.0
 10
198.0319832330031
 20
134.1567996130451
 42
1.0
 10
198.0278509969411
 20
134.1562693044278
 42
1.0
 10
198.0172785862492
 20
134.1549116326809
 42
1.0
 10
197.9988823080239
 20
134.1525594929089
 42
1.0
 10
197.9859288544064
 20
134.1509032702173
 42
1.0
 10
197.968724308411
 20
134.1487066746932
 42
1.0
 10
197.947074275998
 20
134.1459544434367
 42
1.0
 10
197.933354899201
 20
134.1442103861106
 42
1.0
 10
197.9175968349868
 20
134.1422111861679
 42
1.0
 10
197.9002806487171
 20
134.1400212641671
 42
1.0
 10
197.8831575723815
 20
134.1378557641543
 42
1.0
 10
197.8640906360758
 20
134.1354508830197
 42
1.0
 10
197.8444427783466
 20
134.1329812976853
 42
1.0
 10
197.8247814353918
 20
134.1305100173611
 42
1.0
 10
197.8040265672486
 20
134.1279097863569
 42
1.0
 10
197.7840285733963
 20
134.1254127214503
 42
1.0
 72
     4
 94
        3
 73
     1
 74
     0
 95
        8
 96
        4
 40
0.0
 40
0.0
 40
0.0
 40
0.0
 40
0.0006090271697831
 40
0.0006090271697831
 40
0.0006090271697831
 40
0.0006090271697831
 10
197.7840285733963
 20
134.1254127214503
 42
1.0
 10
197.5842118845344
 20
134.1004624566788
 42
1.0
 10
197.3841994042273
 20
134.0762995465762
 42
1.0
 10
197.1840285733963
 20
134.0528322734721
 42
1.0
 72
     4
 94
        3
 73
     1
 74
     0
 95
       20
 96
       16
 40
0.0
 40
0.0
 40
0.0
 40
0.0
 40
0.0000304559719101
 40
0.0000304559719101
 40
0.0000304559719101
 40
0.000101369355952
 40
0.000101369355952
 40
0.000101369355952
 40
0.0001948330368963
 40
0.0001948330368963
 40
0.0001948330368963
 40
0.0003288875239452
 40
0.0003288875239452
 40
0.0003288875239452
 40
0.0005100339560396
 40
0.0005100339560396
 40
0.0005100339560396
 40
0.0005100339560396
 10
197.1840285733961
 20
134.0528322734718
 42
1.0
 10
197.1740185155474
 20
134.0516587320505
 42
1.0
 10
197.1640810019238
 20
134.0504955070247
 42
1.0
 10
197.1544005311264
 20
134.0493640112373
 42
1.0
 10
197.1321021129617
 20
134.0467576745469
 42
1.0
 10
197.1107980096772
 20
134.0442766389426
 42
1.0
 10
197.0916768802414
 20
134.0420557856671
 42
1.0
 10
197.0665168788279
 20
134.0391335382267
 42
1.0
 10
197.0443576409845
 20
134.0365708461425
 42
1.0
 10
197.0256716989867
 20
134.0344148568615
 42
1.0
 10
196.9989541563708
 20
134.031332179226
 42
1.0
 10
196.9784240130614
 20
134.0289750055031
 42
1.0
 10
196.9637317906467
 20
134.0272902416362
 42
1.0
 10
196.9439574828823
 20
134.0250227127169
 42
1.0
 10
196.9340285733963
 20
134.0238891742284
 42
1.0
 10
196.9340285733963
 20
134.0238891742284
 42
1.0
 72
     4
 94
        3
 73
     1
 74
     0
 95
        8
 96
        4
 40
0.0
 40
0.0
 40
0.0
 40
0.0
 40
0.0016469283251926
 40
0.0016469283251926
 40
0.0016469283251926
 40
0.0016469283251926
 10
196.9340285733963
 20
134.0238891742284
 42
1.0
 10
196.3927787472667
 20
133.962006361817
 42
1.0
 10
195.8503645958679
 20
133.9049111732006
 42
1.0
 10
195.3072336541532
 20
133.8514608352692
 42
1.0
 72
     4
 94
        3
 73
     1
 74
     0
 95
        8
 96
        4
 40
0.0
 40
0.0
 40
0.0
 40
0.0
 40
0.0005942493311792
 40
0.0005942493311792
 40
0.0005942493311792
 40
0.0005942493311792
 10
195.3072336541532
 20
133.8514608352692
 42
1.0
 10
195.1495332474692
 20
133.8359412995886
 42
1.0
 10
194.9918007357246
 20
133.820735513161
 42
1.0
 10
194.8340285733963
 20
133.8058212987084
 42
1.0
 72
     4
 94
        3
 73
     1
 74
     0
 95
       26
 96
       22
 40
0.0
 40
0.0
 40
0.0
 40
0.0
 40
0.0000483566824185
 40
0.0000483566824185
 40
0.0000483566824185
 40
0.0000970570780675
 40
0.0000970570780675
 40
0.0000970570780675
 40
0.0001426795264904
 40
0.0001426795264904
 40
0.0001426795264904
 40
0.0002017693737399
 40
0.0002017693737399
 40
0.0002017693737399
 40
0.0002843615953064
 40
0.0002843615953064
 40
0.0002843615953064
 40
0.0004048848230106
 40
0.0004048848230106
 40
0.0004048848230106
 40
0.0005154474843902
 40
0.0005154474843902
 40
0.0005154474843902
 40
0.0005154474843902
 10
194.8340285733963
 20
133.8058212987084
 42
1.0
 10
194.8211899584448
 20
133.8046076634648
 42
1.0
 10
194.8067703282921
 20
133.8032466035154
 42
1.0
 10
194.7915814526373
 20
133.8018158857908
 42
1.0
 10
194.7763258298678
 20
133.8003788808148
 42
1.0
 10
194.7598821944212
 20
133.7988329025994
 42
1.0
 10
194.7437706579185
 20
133.797321313862
 42
1.0
 10
194.7286310283316
 20
133.7959009096958
 42
1.0
 10
194.7134118307384
 20
133.7944758484226
 42
1.0
 10
194.6991760418879
 20
133.7931451868025
 42
1.0
 10
194.6807897467623
 20
133.7914265649885
 42
1.0
 10
194.6635240806266
 20
133.7898167199392
 42
1.0
 10
194.6482733315601
 20
133.788397191307
 42
1.0
 10
194.6270099202197
 20
133.786418008443
 42
1.0
 10
194.6089154048057
 20
133.7847389056865
 42
1.0
 10
194.5941335440174
 20
133.7833691644644
 42
1.0
 10
194.5726334209327
 20
133.7813768845145
 42
1.0
 10
194.5573125891465
 20
133.7799620121515
 42
1.0
 10
194.5475368925691
 20
133.7790596324053
 42
1.0
 10
194.5385339636013
 20
133.7782285856668
 42
1.0
 10
194.5340285733963
 20
133.7778133926238
 42
1.0
 10
194.5340285733963
 20
133.7778133926238
 42
1.0
 72
     4
 94
        3
 73
     1
 74
     0
 95
        8
 96
        4
 40
0.0
 40
0.0
 40
0.0
 40
0.0
 40
0.0010088237384081
 40
0.0010088237384081
 40
0.0010088237384081
 40
0.0010088237384081
 10
194.5340285733963
 20
133.7778133926238
 42
1.0
 10
194.200924468205
 20
133.7470992093349
 42
1.0
 10
193.8675738579706
 20
133.7176211221792
 42
1.0
 10
193.5340285733963
 20
133.6892322587063
 42
1.0
 72
     4
 94
        3
 73
     1
 74
     0
 95
        8
 96
        4
 40
0.0
 40
0.0
 40
0.0
 40
0.0
 40
0.0008620349513261
 40
0.0008620349513261
 40
0.0008620349513261
 40
0.0008620349513261
 10
193.5340285733963
 20
133.6892322587063
 42
1.0
 10
193.368020787632
 20
133.6751029257987
 42
1.0
 10
193.201341730148
 20
133.6611910585337
 42
1.0
 10
193.0340285733963
 20
133.6474898781462
 42
1.0
 72
     4
 94
        3
 73
     1
 74
     0
 95
        8
 96
        4
 40
0.0
 40
0.0
 40
0.0
 40
0.0
 40
0.0007148641450223
 40
0.0007148641450223
 40
0.0007148641450223
 40
0.0007148641450223
 10
193.0340285733963
 20
133.6474898781462
 42
1.0
 10
193.1669064734026
 20
133.6583711747092
 42
1.0
 10
193.3002485183479
 20
133.6694560854451
 42
1.0
 10
193.4340285733963
 20
133.6807540964268
 42
1.0
 72
     4
 94
        3
 73
     1
 74
     0
 95
        8
 96
        4
 40
0.0
 40
0.0
 40
0.0
 40
0.0
 40
0.0006043110020322
 40
0.0006043110020322
 40
0.0006043110020322
 40
0.0006043110020322
 10
193.4340285733963
 20
133.6807540964268
 42
1.0
 10
193.6340917893912
 20
133.6976498617225
 42
1.0
 10
193.8340947973081
 20
133.714934200613
 42
1.0
 10
194.0340285733963
 20
133.7326367646286
 42
1.0
 72
     4
 94
        3
 73
     1
 74
     0
 95
       11
 96
        7
 40
0.0
 40
0.0
 40
0.0
 40
0.0
 40
0.0025298529754259
 40
0.0025298529754259
 40
0.0025298529754259
 40
0.0072391582503257
 40
0.0072391582503257
 40
0.0072391582503257
 40
0.0072391582503257
 10
194.0340285733963
 20
133.7326367646286
 42
1.0
 10
194.8690838995005
 20
133.8065743486434
 42
1.0
 10
195.7029490306708
 20
133.8876348396826
 42
1.0
 10
196.5345036298128
 20
133.9790906417502
 42
1.0
 10
198.0809965922785
 20
134.1491765921138
 42
1.0
 10
199.6281262792508
 20
134.3432918320046
 42
1.0
 10
201.1340285733963
 20
134.6513020950592
 42
1.0
 72
     4
 94
        3
 73
     1
 74
     0
 95
        8
 96
        4
 40
0.0
 40
0.0
 40
0.0
 40
0.0
 40
0.0010471189854312
 40
0.0010471189854312
 40
0.0010471189854312
 40
0.0010471189854312
 10
201.1340285733963
 20
134.6513020950592
 42
1.0
 10
201.4706015025613
 20
134.7201431592187
 42
1.0
 10
201.8052159550067
 20
134.7955767283655
 42
1.0
 10
202.1340285733963
 20
134.8833861647334
 42
1.0
 97
        0
 75
     0
 76
     1
 52
0.0
 41
1.0
 77
     0
 78
     1
 53
45.0
 43
0.0
 44
0.0
 45
-2.245064030267288
 46
2.245064030267288
 79
     0
 98
        1
 10
0.0
 20
0.0
  0
HATCH
  5
462
330
1F
100
AcDbEntity
  8
0
  6
Continuous
 62
     7
370
     0
100
AcDbHatch
 10
0.0
 20
0.0
 30
0.0
210
0.0
220
0.0
230
1.0
  2
ANSI31
 70
     0
 71
     0
 91
        1
 92
        0
 93
        7
 72
     1
 10
190.0340285733963
 20
138.0635894790375
 11
190.0340285733963
 21
136.9335698360727
 72
     1
 10
190.0340285733963
 20
136.9335698360727
 11
197.5340285733963
 21
136.9335698360727
 72
     1
 10
197.5340285733963
 20
136.9335698360727
 11
198.2851043471807
 21
135.6835698360727
 72
     1
 10
198.2851043471807
 20
135.6835698360727
 11
197.5340285733963
 21
134.4335698360727
 72
     1
 10
197.5340285733963
 20
134.4335698360727
 11
190.0340285733963
 21
134.4335698360727
 72
     1
 10
190.0340285733963
 20
134.4335698360727
 11
190.0340285733963
 21
133.4271575418729
 72
     3
 10
166.2643476464227
 20
135.7453735104552
 11
-37.44882617018533
 21
0.0
 40
0.0801093200189124
 50
174.4296581664512
 51
185.5703418335495
 73
     1
 97
        0
 75
     0
 76
     1
 52
0.0
 41
0.5
 77
     0
 78
     1
 53
45.0
 43
0.0
 44
0.0
 45
-1.122532015133644
 46
1.122532015133644
 79
     0
 98
        1
 10
0.0
 20
0.0
  0
HATCH
  5
463
330
1F
100
AcDbEntity
  8
0
  6
Continuous
 62
     7
370
     0
100
AcDbHatch
 10
0.0
 20
0.0
 30
0.0
210
0.0
220
0.0
230
1.0
  2
ANSI31
 70
     0
 71
     0
 91
        2
 92
        0
 93
       10
 72
     3
 10
166.2643476464227
 20
135.7453735104552
 11
-37.44882617018533
 21
0.0
 40
0.0801093200189124
 50
174.4296581664512
 51
185.5703418335495
 73
     0
 72
     4
 94
        3
 73
     1
 74
     0
 95
       20
 96
       16
 40
0.0
 40
0.0
 40
0.0
 40
0.0
 40
0.0007910502247675
 40
0.0007910502247675
 40
0.0007910502247675
 40
0.0010183274684608
 40
0.0010183274684608
 40
0.0010183274684608
 40
0.0013059248302046
 40
0.0013059248302046
 40
0.0013059248302046
 40
0.0014049659681251
 40
0.0014049659681251
 40
0.0014049659681251
 40
0.0014835468584484
 40
0.0014835468584484
 40
0.0014835468584484
 40
0.0014835468584484
 10
190.0340285733963
 20
133.4271575418729
 42
1.0
 10
190.0340285733963
 20
133.4271575418729
 42
1.0
 10
190.061603349827
 20
133.4289608264912
 42
1.0
 10
190.1360720561403
 20
133.4338963598017
 42
1.0
 10
190.1576842341282
 20
133.4353287416659
 42
1.0
 10
190.1836243316646
 20
133.4370508194954
 42
1.0
 10
190.2158219069367
 20
133.4391968155993
 42
1.0
 10
190.2561748929472
 20
133.4418863768482
 42
1.0
 10
190.3069197860539
 20
133.445276549873
 42
1.0
 10
190.376717247406
 20
133.4499818660698
 42
1.0
 10
190.4011547083781
 20
133.4516292896106
 42
1.0
 10
190.4284631354802
 20
133.4534745206277
 42
1.0
 10
190.4582979863555
 20
133.4554974688818
 42
1.0
 10
190.4819540611989
 20
133.457101466016
 42
1.0
 10
190.5077468381641
 20
133.458854560392
 42
1.0
 10
190.5340285733974
 20
133.4606461965542
 42
1.0
 72
     4
 94
        3
 73
     1
 74
     0
 95
        8
 96
        4
 40
0.0
 40
0.0
 40
0.0
 40
0.0
 40
0.0069392118491876
 40
0.0069392118491876
 40
0.0069392118491876
 40
0.0069392118491876
 10
190.5340285733969
 20
133.4606461965541
 42
1.0
 10
192.8172478353789
 20
133.6162941459583
 42
1.0
 10
195.0942584487479
 20
133.803905276673
 42
1.0
 10
197.3340285733963
 20
134.0705531319945
 42
1.0
 72
     4
 94
        3
 73
     1
 74
     0
 95
        8
 96
        4
 40
0.0
 40
0.0
 40
0.0
 40
0.0
 40
0.001571245160328
 40
0.001571245160328
 40
0.001571245160328
 40
0.001571245160328
 10
197.3340285733963
 20
134.0705531319944
 42
1.0
 10
197.5738667266144
 20
134.0991062091501
 42
1.0
 10
197.8075336262042
 20
134.1279883299493
 42
1.0
 10
198.0340285733962
 20
134.1570621310063
 42
1.0
 72
     4
 94
        3
 73
     1
 74
     0
 95
       26
 96
       22
 40
0.0
 40
0.0
 40
0.0
 40
0.0
 40
0.0004095503159587
 40
0.0004095503159587
 40
0.0004095503159587
 40
0.0008013132363735
 40
0.0008013132363735
 40
0.0008013132363735
 40
0.0009192674045652
 40
0.0009192674045652
 40
0.0009192674045652
 40
0.0009662878642502
 40
0.0009662878642502
 40
0.0009662878642502
 40
0.0009929333168483
 40
0.0009929333168483
 40
0.0009929333168483
 40
0.0010227873046432
 40
0.0010227873046432
 40
0.0010227873046432
 40
0.0010523593586621
 40
0.0010523593586621
 40
0.0010523593586621
 40
0.0010523593586621
 10
198.0340285733963
 20
134.1570621310063
 42
1.0
 10
198.0340285733963
 20
134.1570621310063
 42
1.0
 10
198.04194875254
 20
134.1580768104592
 42
1.0
 10
198.0602994277897
 20
134.1604393481384
 42
1.0
 10
198.0777919670746
 20
134.1626914060383
 42
1.0
 10
198.1021887953136
 20
134.1658249331493
 42
1.0
 10
198.1544492668836
 20
134.1726253593962
 42
1.0
 10
198.1702896273084
 20
134.1746865961121
 42
1.0
 10
198.1891338261546
 20
134.1771425724894
 42
1.0
 10
198.2151570206329
 20
134.1805524901395
 42
1.0
 10
198.2256107175404
 20
134.1819222776045
 42
1.0
 10
198.2375174098398
 20
134.1834848465322
 42
1.0
 10
198.2510218110335
 20
134.1852617129844
 42
1.0
 10
198.2587174876082
 20
134.1862742857996
 42
1.0
 10
198.2670645174662
 20
134.1873739482025
 42
1.0
 10
198.275723712515
 20
134.1885165614291
 42
1.0
 10
198.285361736849
 20
134.1897883348468
 42
1.0
 10
198.2956466424396
 20
134.191147755274
 42
1.0
 10
198.3055403092007
 20
134.19245779407
 42
1.0
 10
198.3153742263387
 20
134.1937599213074
 42
1.0
 10
198.3250727917101
 20
134.1950464507634
 42
1.0
 10
198.3340285733963
 20
134.1962362517609
 42
1.0
 72
     4
 94
        3
 73
     1
 74
     0
 95
       32
 96
       28
 40
0.0
 40
0.0
 40
0.0
 40
0.0
 40
0.0041670129373235
 40
0.0041670129373235
 40
0.0041670129373235
 40
0.0060176442254228
 40
0.0060176442254228
 40
0.0060176442254228
 40
0.0067428051002148
 40
0.0067428051002148
 40
0.0067428051002148
 40
0.0071952569584354
 40
0.0071952569584354
 40
0.0071952569584354
 40
0.0076495625676137
 40
0.0076495625676137
 40
0.0076495625676137
 40
0.0083481906486057
 40
0.0083481906486057
 40
0.0083481906486057
 40
0.0090327569029847
 40
0.0090327569029847
 40
0.0090327569029847
 40
0.0106317311746715
 40
0.0106317311746715
 40
0.0106317311746715
 40
0.0138217471623563
 40
0.0138217471623563
 40
0.0138217471623563
 40
0.0138217471623563
 10
198.3340285733963
 20
134.1962362517609
 42
1.0
 10
199.5793114138822
 20
134.3616756090007
 42
1.0
 10
200.8218484615174
 20
134.5524821537343
 42
1.0
 10
201.9406101838668
 20
134.8333266226595
 42
1.0
 10
202.4368373373493
 20
134.9578952851388
 42
1.0
 10
202.9218439837294
 20
135.1021885290051
 42
1.0
 10
203.2854233811439
 20
135.2932379491542
 42
1.0
 10
203.428970718882
 20
135.3686675137385
 42
1.0
 10
203.5538267560657
 20
135.4534579088921
 42
1.0
 10
203.6312037869122
 20
135.5469893873731
 42
1.0
 10
203.6796802995373
 20
135.6055866202705
 42
1.0
 10
203.7094897428137
 20
135.6687265896165
 42
1.0
 10
203.7128443285346
 20
135.732789008224
 42
1.0
 10
203.7162050287982
 20
135.7969681960634
 42
1.0
 10
203.6924752009163
 20
135.8634724428877
 42
1.0
 10
203.6447727407166
 20
135.9266119071906
 42
1.0
 10
203.5720536918009
 20
136.0228635842307
 42
1.0
 10
203.442733471193
 20
136.1143066379803
 42
1.0
 10
203.2909715362858
 20
136.1945840123387
 42
1.0
 10
203.1409149854791
 20
136.2739592912017
 42
1.0
 10
202.965997315693
 20
136.3453571631613
 42
1.0
 10
202.781897517027
 20
136.4102477264557
 42
1.0
 10
202.3537161751299
 20
136.561170914146
 42
1.0
 10
201.870264340765
 20
136.681747315562
 42
1.0
 10
201.3798008187962
 20
136.7877787185878
 42
1.0
 10
200.4012721213001
 20
136.9993230354416
 42
1.0
 10
199.3693203737182
 20
137.1569693171737
 42
1.0
 10
198.3340285733963
 20
137.2945107691495
 42
1.0
 72
     4
 94
        3
 73
     1
 74
     0
 95
       20
 96
       16
 40
0.0
 40
0.0
 40
0.0
 40
0.0
 40
0.000044546141309
 40
0.000044546141309
 40
0.000044546141309
 40
0.0001229682652931
 40
0.0001229682652931
 40
0.0001229682652931
 40
0.00025565939619
 40
0.00025565939619
 40
0.00025565939619
 40
0.0004333971001482
 40
0.0004333971001482
 40
0.0004333971001482
 40
0.0007412309386759
 40
0.0007412309386759
 40
0.0007412309386759
 40
0.0007412309386759
 10
198.3340285733963
 20
137.2945107691495
 42
1.0
 10
198.3196320303022
 20
137.2964233907312
 42
1.0
 10
198.3055609197692
 20
137.2982878566363
 42
1.0
 10
198.2922712574007
 20
137.3000448504398
 42
1.0
 10
198.2690215204864
 20
137.3031186413729
 42
1.0
 10
198.2476676830112
 20
137.3059292850292
 42
1.0
 10
198.2286583887915
 20
137.3084240200006
 42
1.0
 10
198.1966128842199
 20
137.3126295964942
 42
1.0
 10
198.1700770922461
 20
137.3160899147795
 42
1.0
 10
198.1479081610036
 20
137.3189725095252
 42
1.0
 10
198.1181863545451
 20
137.3228371939429
 42
1.0
 10
198.0955436475315
 20
137.3257633281711
 42
1.0
 10
198.0782978476078
 20
137.3279881326854
 42
1.0
 10
198.0486008089435
 20
137.331819216542
 42
1.0
 10
198.0340285733963
 20
137.3336848899041
 42
1.0
 10
198.0340285733963
 20
137.3336848899041
 42
1.0
 72
     4
 94
        3
 73
     1
 74
     0
 95
        8
 96
        4
 40
0.0
 40
0.0
 40
0.0
 40
0.0
 40
0.001429089891497
 40
0.001429089891497
 40
0.001429089891497
 40
0.001429089891497
 10
198.0340285733963
 20
137.3336848899042
 42
1.0
 10
197.805530265834
 20
137.3630158503441
 42
1.0
 10
197.5720045278279
 20
137.3918625092047
 42
1.0
 10
197.3340285733963
 20
137.420193888916
 42
1.0
 72
     4
 94
        3
 73
     1
 74
     0
 95
        8
 96
        4
 40
0.0
 40
0.0
 40
0.0
 40
0.0
 40
0.0068657181592784
 40
0.0068657181592784
 40
0.0068657181592784
 40
0.0068657181592784
 10
197.3340285733963
 20
137.420193888916
 42
1.0
 10
195.0850818894288
 20
137.6879342268252
 42
1.0
 10
192.8103281731135
 20
137.8749245910331
 42
1.0
 10
190.5340285733963
 20
138.0301008243563
 42
1.0
 72
     4
 94
        3
 73
     1
 74
     0
 95
       20
 96
       16
 40
0.0
 40
0.0
 40
0.0
 40
0.0
 40
0.0001202640431692
 40
0.0001202640431692
 40
0.0001202640431692
 40
0.0002398210994532
 40
0.0002398210994532
 40
0.0002398210994532
 40
0.0004016097888823
 40
0.0004016097888823
 40
0.0004016097888823
 40
0.0006400108848627
 40
0.0006400108848627
 40
0.0006400108848627
 40
0.0009857756160312
 40
0.0009857756160312
 40
0.0009857756160312
 40
0.0009857756160312
 10
190.5340285733963
 20
138.0301008243563
 42
1.0
 10
190.4941555423491
 20
138.0328189844658
 42
1.0
 10
190.4530605441947
 20
138.0356081375374
 42
1.0
 10
190.4147121043937
 20
138.0382003239357
 42
1.0
 10
190.3764828205651
 20
138.0407844559126
 42
1.0
 10
190.3399275119526
 20
138.043244603029
 42
1.0
 10
190.3072378315995
 20
138.0454375266923
 42
1.0
 10
190.2631231224428
 20
138.0483968762045
 42
1.0
 10
190.2246581295164
 20
138.0509634885577
 42
1.0
 10
190.1926544094422
 20
138.0530930760603
 42
1.0
 10
190.1456337297526
 20
138.0562219201946
 42
1.0
 10
190.1107172860993
 20
138.0585310175527
 42
1.0
 10
190.0859397644893
 20
138.0601673909595
 42
1.0
 10
190.050111364366
 20
138.0625335937658
 42
1.0
 10
190.0340285733963
 20
138.0635894790375
 42
1.0
 10
190.0340285733963
 20
138.0635894790375
 42
1.0
 97
        0
 92
        0
 93
        2
 72
     4
 94
        3
 73
     1
 74
     0
 95
       50
 96
       46
 40
0.0
 40
0.0
 40
0.0
 40
0.0
 40
0.0012565595499606
 40
0.0012565595499606
 40
0.0012565595499606
 40
0.0039044726455165
 40
0.0039044726455165
 40
0.0039044726455165
 40
0.0045543814839598
 40
0.0045543814839598
 40
0.0045543814839598
 40
0.0048123711836996
 40
0.0048123711836996
 40
0.0048123711836996
 40
0.0050056045612469
 40
0.0050056045612469
 40
0.0050056045612469
 40
0.0051981726105188
 40
0.0051981726105188
 40
0.0051981726105188
 40
0.005425970466391
 40
0.005425970466391
 40
0.005425970466391
 40
0.0056160804573206
 40
0.0056160804573206
 40
0.0056160804573206
 40
0.0058178208303618
 40
0.0058178208303618
 40
0.0058178208303618
 40
0.006056013455298
 40
0.006056013455298
 40
0.006056013455298
 40
0.0062893472115657
 40
0.0062893472115657
 40
0.0062893472115657
 40
0.0068656739503522
 40
0.0068656739503522
 40
0.0068656739503522
 40
0.0080133043259718
 40
0.0080133043259718
 40
0.0080133043259718
 40
0.0091706590216166
 40
0.0091706590216166
 40
0.0091706590216166
 40
0.0107580102309223
 40
0.0107580102309223
 40
0.0107580102309223
 40
0.0107580102309223
 10
198.9340285733963
 20
137.2118479258296
 42
1.0
 10
199.3450143315193
 20
137.1530904317235
 42
1.0
 10
199.7570457939125
 20
137.0896650728643
 42
1.0
 10
200.1684771878404
 20
137.019400315464
 42
1.0
 10
201.0324879390209
 20
136.8718435010864
 42
1.0
 10
201.9115995928319
 20
136.7100902378453
 42
1.0
 10
202.739045067559
 20
136.4251756944211
 42
1.0
 10
202.9431972236717
 20
136.3548799225249
 42
1.0
 10
203.1482166949601
 20
136.2739524441305
 42
1.0
 10
203.326245339966
 20
136.1755114826954
 42
1.0
 10
203.3974259702034
 20
136.1361521443378
 42
1.0
 10
203.4648776546242
 20
136.0929815338243
 42
1.0
 10
203.5198339934007
 20
136.04982390462
 42
1.0
 10
203.5610260030724
 20
136.0174755073435
 42
1.0
 10
203.5956188098617
 20
135.9845704479687
 42
1.0
 10
203.6204541273752
 20
135.9563500414872
 42
1.0
 10
203.6452255923083
 20
135.9282021907834
 42
1.0
 10
203.6611482327557
 20
135.9042692565118
 42
1.0
 10
203.6707092615632
 20
135.8881995147013
 42
1.0
 10
203.6820064934804
 20
135.869211641771
 42
1.0
 10
203.685593449842
 20
135.8605207996102
 42
1.0
 10
203.6842860112873
 20
135.8631858154412
 42
1.0
 10
203.6831907729912
 20
135.8654182931263
 42
1.0
 10
203.6784890913757
 20
135.8756070025303
 42
1.0
 10
203.6679145747858
 20
135.8928217281958
 42
1.0
 10
203.6567443227966
 20
135.9110062780021
 42
1.0
 10
203.638091907352
 20
135.9377075854619
 42
1.0
 10
203.6096545493398
 20
135.9682824092517
 42
1.0
 10
203.5762601279181
 20
136.0041868891998
 42
1.0
 10
203.5279524456363
 20
136.0459892270044
 42
1.0
 10
203.4720538193703
 20
136.0852597382685
 42
1.0
 10
203.4168073527984
 20
136.1240720872068
 42
1.0
 10
203.3534377014202
 20
136.1616875490007
 42
1.0
 10
203.2873779928295
 20
136.1964807890091
 42
1.0
 10
203.1251435579009
 20
136.2819286626451
 42
1.0
 10
202.9441348323205
 20
136.3537046258418
 42
1.0
 10
202.7626094096735
 20
136.4170101153564
 42
1.0
 10
202.4008165209032
 20
136.5431823924544
 42
1.0
 10
202.0250529764376
 20
136.640668955291
 42
1.0
 10
201.6497012171654
 20
136.7274606304299
 42
1.0
 10
201.2706121498564
 20
136.815116474224
 42
1.0
 10
200.88888580992
 20
136.8908138264528
 42
1.0
 10
200.5069151795478
 20
136.9599247266571
 42
1.0
 10
199.9830872179923
 20
137.0547022281104
 42
1.0
 10
199.4576867601821
 20
137.1369819670572
 42
1.0
 10
198.9340285733963
 20
137.2118479258296
 42
1.0
 72
     4
 94
        3
 73
     1
 74
     0
 95
       14
 96
       10
 40
0.0
 40
0.0
 40
0.0
 40
0.0
 40
0.0002794105235748
 40
0.0002794105235748
 40
0.0002794105235748
 40
0.0007001412879737
 40
0.0007001412879737
 40
0.0007001412879737
 40
0.0012100428903971
 40
0.0012100428903971
 40
0.0012100428903971
 40
0.0012100428903971
 10
198.9340285733963
 20
137.2118479258296
 42
1.0
 10
198.8985571050295
 20
137.2169191832936
 42
1.0
 10
198.866338119121
 20
137.2214892277887
 42
1.0
 10
198.8416008617178
 20
137.2249845285034
 42
1.0
 10
198.8047956759061
 20
137.2301849915205
 42
1.0
 10
198.7868715914123
 20
137.2326924512897
 42
1.0
 10
198.7995101707162
 20
137.2309160862147
 42
1.0
 10
198.8148699323503
 20
137.2287572562172
 42
1.0
 10
198.8698894749084
 20
137.2210177148719
 42
1.0
 10
198.9340285733963
 20
137.2118479258296
 42
1.0
 97
        0
 75
     0
 76
     1
 52
0.0
 41
0.5
 77
     0
 78
     1
 53
45.0
 43
0.0
 44
0.0
 45
-1.122532015133644
 46
1.122532015133644
 79
     0
 98
        1
 10
0.0
 20
0.0
  0
HATCH
  5
464
330
1F
100
AcDbEntity
  8
0
  6
Continuous
 62
     7
370
     0
100
AcDbHatch
 10
0.0
 20
0.0
 30
0.0
210
0.0
220
0.0
230
1.0
  2
ANSI31
 70
     0
 71
     0
 91
        1
 92
        0
 93
        1
 72
     4
 94
        3
 73
     1
 74
     0
 95
      119
 96
      115
 40
0.0
 40
0.0
 40
0.0
 40
0.0
 40
0.0008167794164397
 40
0.0008167794164397
 40
0.0008167794164397
 40
0.001139376291614
 40
0.001139376291614
 40
0.001139376291614
 40
0.0012831431925674
 40
0.0012831431925674
 40
0.0012831431925674
 40
0.0014291202496173
 40
0.0014291202496173
 40
0.0014291202496173
 40
0.0015950945057544
 40
0.0015950945057544
 40
0.0015950945057544
 40
0.001912891734519
 40
0.001912891734519
 40
0.001912891734519
 40
0.0029169503719823
 40
0.0029169503719823
 40
0.0029169503719823
 40
0.0036933581025457
 40
0.0036933581025457
 40
0.0036933581025457
 40
0.0041193365031877
 40
0.0041193365031877
 40
0.0041193365031877
 40
0.0044688249798588
 40
0.0044688249798588
 40
0.0044688249798588
 40
0.0048210055237206
 40
0.0048210055237206
 40
0.0048210055237206
 40
0.0051394715854594
 40
0.0051394715854594
 40
0.0051394715854594
 40
0.0056824386985188
 40
0.0056824386985188
 40
0.0056824386985188
 40
0.0066700324372063
 40
0.0066700324372063
 40
0.0066700324372063
 40
0.0085601024765614
 40
0.0085601024765614
 40
0.0085601024765614
 40
0.0105902650299821
 40
0.0105902650299821
 40
0.0105902650299821
 40
0.0121186538836144
 40
0.0121186538836144
 40
0.0121186538836144
 40
0.0132200261238394
 40
0.0132200261238394
 40
0.0132200261238394
 40
0.0140813682257305
 40
0.0140813682257305
 40
0.0140813682257305
 40
0.0149474506731981
 40
0.0149474506731981
 40
0.0149474506731981
 40
0.0153552714149907
 40
0.0153552714149907
 40
0.0153552714149907
 40
0.0154952728356192
 40
0.0154952728356192
 40
0.0154952728356192
 40
0.0156049071632608
 40
0.0156049071632608
 40
0.0156049071632608
 40
0.0157141573329407
 40
0.0157141573329407
 40
0.0157141573329407
 40
0.0158948075473715
 40
0.0158948075473715
 40
0.0158948075473715
 40
0.0162716931801197
 40
0.0162716931801197
 40
0.0162716931801197
 40
0.0170221651360426
 40
0.0170221651360426
 40
0.0170221651360426
 40
0.0176350664245207
 40
0.0176350664245207
 40
0.0176350664245207
 40
0.0181374300632498
 40
0.0181374300632498
 40
0.0181374300632498
 40
0.018641952230153
 40
0.018641952230153
 40
0.018641952230153
 40
0.0191175784572622
 40
0.0191175784572622
 40
0.0191175784572622
 40
0.0197870467366749
 40
0.0197870467366749
 40
0.0197870467366749
 40
0.0207490889867925
 40
0.0207490889867925
 40
0.0207490889867925
 40
0.0221994299375162
 40
0.0221994299375162
 40
0.0221994299375162
 40
0.0241317722754376
 40
0.0241317722754376
 40
0.0241317722754376
 40
0.0256907974015646
 40
0.0256907974015646
 40
0.0256907974015646
 40
0.0267152234728237
 40
0.0267152234728237
 40
0.0267152234728237
 40
0.0270936404992759
 40
0.0270936404992759
 40
0.0270936404992759
 40
0.0270936404992759
 10
202.5340285733963
 20
136.4922606179203
 42
1.0
 10
202.7730335403359
 20
136.4177768240798
 42
1.0
 10
203.0318337202388
 20
136.3286697589015
 42
1.0
 10
203.2715205864129
 20
136.2047551133988
 42
1.0
 10
203.366886516294
 20
136.1554523060198
 42
1.0
 10
203.4612345561247
 20
136.0992213764175
 42
1.0
 10
203.5414978794353
 20
136.032301924635
 42
1.0
 10
203.5773721232895
 20
136.002391815848
 42
1.0
 10
203.6105688009438
 20
135.9697743168252
 42
1.0
 10
203.6370244992842
 20
135.9365917284415
 42
1.0
 10
203.6637342511401
 20
135.9030904883584
 42
1.0
 10
203.6838180431119
 20
135.868325276072
 42
1.0
 10
203.6958865507081
 20
135.8365179498321
 42
1.0
 10
203.7096539237707
 20
135.8002331546345
 42
1.0
 10
203.714099414006
 20
135.7666369834972
 42
1.0
 10
203.7130168164553
 20
135.7366865722906
 42
1.0
 10
203.710949501381
 20
135.6794936324689
 42
1.0
 10
203.6903313410683
 20
135.6325407933878
 42
1.0
 10
203.663368173147
 20
135.5907014117668
 42
1.0
 10
203.5789418279968
 20
135.4596950669662
 42
1.0
 10
203.4317273997149
 20
135.3670594751893
 42
1.0
 10
203.2535534575016
 20
135.2767974297001
 42
1.0
 10
203.1155377291552
 20
135.2068793384491
 42
1.0
 10
202.95224030538
 20
135.1397197052119
 42
1.0
 10
202.7585076250567
 20
135.0723080423867
 42
1.0
 10
202.6517328723663
 20
135.0351544572785
 42
1.0
 10
202.5336110559317
 20
134.9973476331308
 42
1.0
 10
202.4066867637415
 20
134.9598694389524
 42
1.0
 10
202.3026770621565
 20
134.9291574631345
 42
1.0
 10
202.1903555519406
 20
134.898010782101
 42
1.0
 10
202.077655782663
 20
134.8684726478641
 42
1.0
 10
201.9643900233856
 20
134.8387861700352
 42
1.0
 10
201.8478567370725
 20
134.8099699482751
 42
1.0
 10
201.739572254394
 20
134.784318653423
 42
1.0
 10
201.6410572559322
 20
134.7609816321769
 42
1.0
 10
201.5469345280697
 20
134.7396362874775
 42
1.0
 10
201.460986453135
 20
134.7206904469265
 42
1.0
 10
201.315274825406
 20
134.6885707133842
 42
1.0
 10
201.1886776492623
 20
134.6622893258965
 42
1.0
 10
201.0802019670315
 20
134.6403559066158
 42
1.0
 10
200.8836201933431
 20
134.6006077310194
 42
1.0
 10
200.737172714491
 20
134.5731431720656
 42
1.0
 10
200.6230155715162
 20
134.552049741925
 42
1.0
 10
200.4057075879935
 20
134.5118965754216
 42
1.0
 10
200.2964613030972
 20
134.4934230584486
 42
1.0
 10
200.2658297658649
 20
134.4881068094002
 42
1.0
 10
200.2329342607932
 20
134.48239763796
 42
1.0
 10
200.2929801286364
 20
134.4924152867071
 42
1.0
 10
200.4570180490372
 20
134.5218341175567
 42
1.0
 10
200.5807579664375
 20
134.5440258381689
 42
1.0
 10
200.7672268916417
 20
134.5777154514797
 42
1.0
 10
201.0270960195946
 20
134.6296778439052
 42
1.0
 10
201.2147125499973
 20
134.6671928956357
 42
1.0
 10
201.4453686158188
 20
134.715064895363
 42
1.0
 10
201.7154172609237
 20
134.7786154953532
 42
1.0
 10
201.9268531936803
 20
134.8283727543869
 42
1.0
 10
202.1679282976776
 20
134.8889132075635
 42
1.0
 10
202.4220654378424
 20
134.9644246265473
 42
1.0
 10
202.6771600774919
 20
135.0402205460364
 42
1.0
 10
202.9534988400447
 20
135.1310447893364
 42
1.0
 10
203.2109201593588
 20
135.2556875677121
 42
1.0
 10
203.333233728603
 20
135.3149115012397
 42
1.0
 10
203.4553833235511
 20
135.3829444287578
 42
1.0
 10
203.556570108682
 20
135.4713021477596
 42
1.0
 10
203.5915467008251
 20
135.5018441982479
 42
1.0
 10
203.6240902724536
 20
135.5355724190022
 42
1.0
 10
203.6497532320531
 20
135.5708522592243
 42
1.0
 10
203.669856392893
 20
135.5984888340175
 42
1.0
 10
203.6859330213979
 20
135.627603335508
 42
1.0
 10
203.6963801636698
 20
135.655539447888
 42
1.0
 10
203.7068137469485
 20
135.6834393029309
 42
1.0
 10
203.7119993974372
 20
135.7107418361298
 42
1.0
 10
203.712988605901
 20
135.7359383420601
 42
1.0
 10
203.7146177606778
 20
135.7774351645154
 42
1.0
 10
203.705513066882
 20
135.814597231143
 42
1.0
 10
203.6912996135753
 20
135.8478961642137
 42
1.0
 10
203.6617587762247
 20
135.9171037202214
 42
1.0
 10
203.6103252370878
 20
135.9734507901844
 42
1.0
 10
203.5504610931904
 20
136.0247279942758
 42
1.0
 10
203.4320852960888
 20
136.1261239136403
 42
1.0
 10
203.2735953135176
 20
136.2107803381449
 42
1.0
 10
203.0899442855272
 20
136.2904114072159
 42
1.0
 10
202.9397203906893
 20
136.3555484743854
 42
1.0
 10
202.7675351888125
 20
136.4180182634608
 42
1.0
 10
202.5833613719075
 20
136.4767142315827
 42
1.0
 10
202.4321969851188
 20
136.5248901350701
 42
1.0
 10
202.2692772387787
 20
136.5715943733814
 42
1.0
 10
202.1074409442029
 20
136.6144294706363
 42
1.0
 10
201.9451442873481
 20
136.6573864173381
 42
1.0
 10
201.7796932450102
 20
136.6976015380496
 42
1.0
 10
201.6264994202675
 20
136.7328092021888
 42
1.0
 10
201.4815467593381
 20
136.7661228465909
 42
1.0
 10
201.3439205517239
 20
136.7958615222801
 42
1.0
 10
201.2210321179144
 20
136.8214799287962
 42
1.0
 10
201.048783144632
 20
136.8573884686215
 42
1.0
 10
200.9005328326978
 20
136.8863232054956
 42
1.0
 10
200.7797252285279
 20
136.909313389271
 42
1.0
 10
200.6065918676825
 20
136.9422613796797
 42
1.0
 10
200.4830781849912
 20
136.9643346426839
 42
1.0
 10
200.4005028463938
 20
136.9789984891179
 42
1.0
 10
200.2764441232964
 20
137.0010290141534
 42
1.0
 10
200.2391456772168
 20
137.0072706624856
 42
1.0
 10
200.2649116843993
 20
137.0027995366711
 42
1.0
 10
200.2991314795337
 20
136.9968614412451
 42
1.0
 10
200.4451137815546
 20
136.9720060955418
 42
1.0
 10
200.6838161299313
 20
136.9273994105517
 42
1.0
 10
200.8769215676832
 20
136.8913134922929
 42
1.0
 10
201.1362077170688
 20
136.8416946549855
 42
1.0
 10
201.4636088964688
 20
136.7694783147511
 42
1.0
 10
201.679499933517
 20
136.7218582645924
 42
1.0
 10
201.9307201482087
 20
136.6633641772865
 42
1.0
 10
202.2097273948007
 20
136.586880856011
 42
1.0
 10
202.3139583235557
 20
136.5583083808937
 42
1.0
 10
202.4226405986279
 20
136.5269736996407
 42
1.0
 10
202.5340285733963
 20
136.4922606179203
 42
1.0
 97
        0
 75
     0
 76
     1
 52
0.0
 41
1.0
 77
     0
 78
     1
 53
45.0
 43
0.0
 44
0.0
 45
-2.245064030267288
 46
2.245064030267288
 79
     0
 98
        1
 10
0.0
 20
0.0
  0
HATCH
  5
465
330
1F
100
AcDbEntity
  8
0
  6
Continuous
 62
     7
370
     0
100
AcDbHatch
 10
0.0
 20
0.0
 30
0.0
210
0.0
220
0.0
230
1.0
  2
ANSI31
 70
     0
 71
     0
 91
        1
 92
        0
 93
        8
 72
     4
 94
        3
 73
     1
 74
     0
 95
        8
 96
        4
 40
0.0
 40
0.0
 40
0.0
 40
0.0
 40
0.000677835471538
 40
0.000677835471538
 40
0.000677835471538
 40
0.000677835471538
 10
198.6957932792787
 20
137.2453997584695
 42
1.0
 10
198.4756631272005
 20
137.275942855625
 42
1.0
 10
198.25503305503
 20
137.3053158670567
 42
1.0
 10
198.0340285733963
 20
137.3336848899041
 42
1.0
 72
     4
 94
        3
 73
     1
 74
     0
 95
       20
 96
       16
 40
0.0
 40
0.0
 40
0.0
 40
0.0
 40
0.0003033021953136
 40
0.0003033021953136
 40
0.0003033021953136
 40
0.0004784234102467
 40
0.0004784234102467
 40
0.0004784234102467
 40
0.0006091611858341
 40
0.0006091611858341
 40
0.0006091611858341
 40
0.0006864288523106
 40
0.0006864288523106
 40
0.0006864288523106
 40
0.0007303192267944
 40
0.0007303192267944
 40
0.0007303192267944
 40
0.0007303192267944
 10
198.0340285733963
 20
137.3336848899041
 42
1.0
 10
198.0340285733963
 20
137.3336848899041
 42
1.0
 10
198.0486008089435
 20
137.331819216542
 42
1.0
 10
198.0782978476078
 20
137.3279881326854
 42
1.0
 10
198.0955436475315
 20
137.3257633281711
 42
1.0
 10
198.1181863545452
 20
137.3228371939428
 42
1.0
 10
198.1479081610036
 20
137.3189725095252
 42
1.0
 10
198.1700770922461
 20
137.3160899147795
 42
1.0
 10
198.1966128842199
 20
137.3126295964942
 42
1.0
 10
198.2286583887915
 20
137.3084240200006
 42
1.0
 10
198.2476676830113
 20
137.3059292850292
 42
1.0
 10
198.2690215204864
 20
137.3031186413729
 42
1.0
 10
198.2922712574007
 20
137.3000448504398
 42
1.0
 10
198.3055609197692
 20
137.2982878566363
 42
1.0
 10
198.3196320303022
 20
137.2964233907312
 42
1.0
 10
198.3340285733963
 20
137.2945107691495
 42
1.0
 72
     4
 94
        3
 73
     1
 74
     0
 95
       32
 96
       28
 40
0.0
 40
0.0
 40
0.0
 40
0.0
 40
0.003203425609297
 40
0.003203425609297
 40
0.003203425609297
 40
0.0048091213645229
 40
0.0048091213645229
 40
0.0048091213645229
 40
0.0054965652767178
 40
0.0054965652767178
 40
0.0054965652767178
 40
0.0061981301261304
 40
0.0061981301261304
 40
0.0061981301261304
 40
0.0066543454643943
 40
0.0066543454643943
 40
0.0066543454643943
 40
0.0071086992592322
 40
0.0071086992592322
 40
0.0071086992592322
 40
0.0078369084362824
 40
0.0078369084362824
 40
0.0078369084362824
 40
0.0096953190789093
 40
0.0096953190789093
 40
0.0096953190789093
 40
0.0138798485637856
 40
0.0138798485637856
 40
0.0138798485637856
 40
0.0138798485637856
 10
198.3340285733963
 20
137.2945107691495
 42
1.0
 10
199.3693203737182
 20
137.1569693171737
 42
1.0
 10
200.4012721213001
 20
136.9993230354416
 42
1.0
 10
201.3798008187961
 20
136.7877787185878
 42
1.0
 10
201.870264340765
 20
136.681747315562
 42
1.0
 10
202.3537161751299
 20
136.561170914146
 42
1.0
 10
202.781897517027
 20
136.4102477264557
 42
1.0
 10
202.9659973156929
 20
136.3453571631613
 42
1.0
 10
203.1409149854791
 20
136.2739592912017
 42
1.0
 10
203.2909715362858
 20
136.1945840123387
 42
1.0
 10
203.442733471193
 20
136.1143066379803
 42
1.0
 10
203.5720536918009
 20
136.0228635842307
 42
1.0
 10
203.6447727407166
 20
135.9266119071906
 42
1.0
 10
203.6924752009163
 20
135.8634724428877
 42
1.0
 10
203.7162050287982
 20
135.7969681960634
 42
1.0
 10
203.7128443285346
 20
135.732789008224
 42
1.0
 10
203.7094897428137
 20
135.6687265896165
 42
1.0
 10
203.6796802995373
 20
135.6055866202705
 42
1.0
 10
203.6312037869122
 20
135.5469893873731
 42
1.0
 10
203.5538267560657
 20
135.4534579088921
 42
1.0
 10
203.428970718882
 20
135.3686675137385
 42
1.0
 10
203.2854233811439
 20
135.2932379491542
 42
1.0
 10
202.9218439837294
 20
135.1021885290051
 42
1.0
 10
202.4368373373493
 20
134.9578952851387
 42
1.0
 10
201.9406101838667
 20
134.8333266226595
 42
1.0
 10
200.8218484615174
 20
134.5524821537343
 42
1.0
 10
199.5793114138822
 20
134.3616756090007
 42
1.0
 10
198.3340285733963
 20
134.1962362517609
 42
1.0
 72
     4
 94
        3
 73
     1
 74
     0
 95
       26
 96
       22
 40
0.0
 40
0.0
 40
0.0
 40
0.0
 40
0.000029968178262
 40
0.000029968178262
 40
0.000029968178262
 40
0.0000602220668657
 40
0.0000602220668657
 40
0.0000602220668657
 40
0.0000872244412297
 40
0.0000872244412297
 40
0.0000872244412297
 40
0.0001348747504338
 40
0.0001348747504338
 40
0.0001348747504338
 40
0.0002544089409522
 40
0.0002544089409522
 40
0.0002544089409522
 40
0.0006514196128496
 40
0.0006514196128496
 40
0.0006514196128496
 40
0.0010664559464119
 40
0.0010664559464119
 40
0.0010664559464119
 40
0.0010664559464119
 10
198.3340285733963
 20
134.1962362517609
 42
1.0
 10
198.3250727917101
 20
134.1950464507634
 42
1.0
 10
198.3153742263387
 20
134.1937599213074
 42
1.0
 10
198.3055403092007
 20
134.19245779407
 42
1.0
 10
198.2956466424396
 20
134.191147755274
 42
1.0
 10
198.285361736849
 20
134.1897883348468
 42
1.0
 10
198.275723712515
 20
134.1885165614291
 42
1.0
 10
198.2670645174662
 20
134.1873739482025
 42
1.0
 10
198.2587174876082
 20
134.1862742857996
 42
1.0
 10
198.2510218110335
 20
134.1852617129844
 42
1.0
 10
198.2375174098398
 20
134.1834848465322
 42
1.0
 10
198.2256107175404
 20
134.1819222776045
 42
1.0
 10
198.2151570206329
 20
134.1805524901395
 42
1.0
 10
198.1891338261546
 20
134.1771425724894
 42
1.0
 10
198.1702896273084
 20
134.1746865961121
 42
1.0
 10
198.1544492668837
 20
134.1726253593962
 42
1.0
 10
198.1021887953136
 20
134.1658249331493
 42
1.0
 10
198.0777919670746
 20
134.1626914060383
 42
1.0
 10
198.0602994277897
 20
134.1604393481384
 42
1.0
 10
198.04194875254
 20
134.1580768104592
 42
1.0
 10
198.0340285733963
 20
134.1570621310063
 42
1.0
 10
198.0340285733963
 20
134.1570621310063
 42
1.0
 72
     4
 94
        3
 73
     1
 74
     0
 95
        8
 96
        4
 40
0.0
 40
0.0
 40
0.0
 40
0.0
 40
0.0006932852007362
 40
0.0006932852007362
 40
0.0006932852007362
 40
0.0006932852007362
 10
198.0340285733963
 20
134.1570621310063
 42
1.0
 10
198.2552092354209
 20
134.1854537690762
 42
1.0
 10
198.4758463538564
 20
134.214829588016
 42
1.0
 10
198.6957932792787
 20
134.2453472624409
 42
1.0
 72
     4
 94
        3
 73
     1
 74
     0
 95
        8
 96
        4
 40
0.0
 40
0.0
 40
0.0
 40
0.0
 40
0.0026168119155758
 40
0.0026168119155758
 40
0.0026168119155758
 40
0.0026168119155758
 10
198.6957932792787
 20
134.245347262441
 42
1.0
 10
199.5321795105432
 20
134.3613959985178
 42
1.0
 10
200.3629578697919
 20
134.4924002619193
 42
1.0
 10
201.1679571448249
 20
134.6582672346045
 42
1.0
 72
     4
 94
        3
 73
     1
 74
     0
 95
       50
 96
       46
 40
0.0
 40
0.0
 40
0.0
 40
0.0
 40
0.000271899469165
 40
0.000271899469165
 40
0.000271899469165
 40
0.0006770066947302
 40
0.0006770066947302
 40
0.0006770066947302
 40
0.0010146735377153
 40
0.0010146735377153
 40
0.0010146735377153
 40
0.0013509588287256
 40
0.0013509588287256
 40
0.0013509588287256
 40
0.0018070581275179
 40
0.0018070581275179
 40
0.0018070581275179
 40
0.0023653869634955
 40
0.0023653869634955
 40
0.0023653869634955
 40
0.0034351629978302
 40
0.0034351629978302
 40
0.0034351629978302
 40
0.0039259128423271
 40
0.0039259128423271
 40
0.0039259128423271
 40
0.004113357168513
 40
0.004113357168513
 40
0.004113357168513
 40
0.004249537456446
 40
0.004249537456446
 40
0.004249537456446
 40
0.0043849151678167
 40
0.0043849151678167
 40
0.0043849151678167
 40
0.0046148570550311
 40
0.0046148570550311
 40
0.0046148570550311
 40
0.0052326010659016
 40
0.0052326010659016
 40
0.0052326010659016
 40
0.0060984572769569
 40
0.0060984572769569
 40
0.0060984572769569
 40
0.0075066628693428
 40
0.0075066628693428
 40
0.0075066628693428
 40
0.0075066628693428
 10
201.1679571448249
 20
134.6582672346045
 42
1.0
 10
201.2267206068336
 20
134.6703752176179
 42
1.0
 10
201.2901124345556
 20
134.6836649023572
 42
1.0
 10
201.3583037174275
 20
134.698332657541
 42
1.0
 10
201.4590613940574
 20
134.7200053533968
 42
1.0
 10
201.5727388062005
 20
134.745215152913
 42
1.0
 10
201.6944060551479
 20
134.773684962534
 42
1.0
 10
201.7958519911707
 20
134.7974230392176
 42
1.0
 10
201.9053365557097
 20
134.8240596174762
 42
1.0
 10
202.0134657704905
 20
134.8518218776661
 42
1.0
 10
202.1212768225105
 20
134.8795024493192
 42
1.0
 10
202.2302736595839
 20
134.9089678031224
 42
1.0
 10
202.3322450930749
 20
134.9382095755315
 42
1.0
 10
202.4702725171701
 20
134.9777909208498
 42
1.0
 10
202.599571416942
 20
135.0180917235166
 42
1.0
 10
202.7154019995996
 20
135.0574810810052
 42
1.0
 10
202.8575624296619
 20
135.105824168573
 42
1.0
 10
202.9836156733932
 20
135.1540196189974
 42
1.0
 10
203.0953572291583
 20
135.2026879141417
 42
1.0
 10
203.3081814676802
 20
135.2953821028286
 42
1.0
 10
203.479038848232
 20
135.3893053860818
 42
1.0
 10
203.5974936432767
 20
135.509754152698
 42
1.0
 10
203.6520731143664
 20
135.5652523701642
 42
1.0
 10
203.6979939589912
 20
135.6270248199651
 42
1.0
 10
203.7104125483641
 20
135.7089431522695
 42
1.0
 10
203.715192042125
 20
135.7404707393723
 42
1.0
 10
203.7144472362582
 20
135.7759631975002
 42
1.0
 10
203.7030009441278
 20
135.8152948037205
 42
1.0
 10
203.6946810656168
 20
135.8438834664652
 42
1.0
 10
203.6801207911769
 20
135.8752168747359
 42
1.0
 10
203.6591461171367
 20
135.9064635503666
 42
1.0
 10
203.6382638154825
 20
135.9375726157548
 42
1.0
 10
203.6106466983448
 20
135.9691563249692
 42
1.0
 10
203.5796553648
 20
135.9984782878528
 42
1.0
 10
203.5270927088486
 20
136.0482096182145
 42
1.0
 10
203.4643090603921
 20
136.0929745511414
 42
1.0
 10
203.3997279574193
 20
136.1327094099486
 42
1.0
 10
203.2264076073636
 20
136.239348338689
 42
1.0
 10
203.0340147742941
 20
136.3184092699572
 42
1.0
 10
202.8474372123849
 20
136.3867092308955
 42
1.0
 10
202.5882639103406
 20
136.4815841248793
 42
1.0
 10
202.3323039192248
 20
136.5549818603639
 42
1.0
 10
202.1039504128515
 20
136.6153528147318
 42
1.0
 10
201.7353161741452
 20
136.7128104853269
 42
1.0
 10
201.4206992173983
 20
136.7804032643162
 42
1.0
 10
201.1679571448249
 20
136.8324797863059
 42
1.0
 72
     4
 94
        3
 73
     1
 74
     0
 95
        8
 96
        4
 40
0.0
 40
0.0
 40
0.0
 40
0.0
 40
0.0025622925033472
 40
0.0025622925033472
 40
0.0025622925033472
 40
0.0025622925033472
 10
201.1679571448249
 20
136.8324797863059
 42
1.0
 10
200.3595918851434
 20
136.999040307049
 42
1.0
 10
199.5293925191809
 20
137.1297377179323
 42
1.0
 10
198.6957932792787
 20
137.2453997584695
 42
1.0
 97
        0
 75
     0
 76
     1
 52
0.0
 41
1.0
 77
     0
 78
     1
 53
45.0
 43
0.0
 44
0.0
 45
-2.245064030267288
 46
2.245064030267288
 79
     0
 98
        1
 10
0.0
 20
0.0
  0
HATCH
  5
466
330
1F
100
AcDbEntity
  8
0
  6
Continuous
 62
     7
370
     0
100
AcDbHatch
 10
0.0
 20
0.0
 30
0.0
210
0.0
220
0.0
230
1.0
  2
ANSI31
 70
     0
 71
     0
 91
        1
 92
        0
 93
        8
 72
     4
 94
        3
 73
     1
 74
     0
 95
        8
 96
        4
 40
0.0
 40
0.0
 40
0.0
 40
0.0
 40
0.002539675592297
 40
0.002539675592297
 40
0.002539675592297
 40
0.002539675592297
 10
198.6957932792787
 20
137.2453997584695
 42
1.0
 10
199.5268882785617
 20
137.1300851817568
 42
1.0
 10
200.3555061499803
 20
136.9998821569037
 42
1.0
 10
201.1679571448249
 20
136.8324797863059
 42
1.0
 72
     4
 94
        3
 73
     1
 74
     0
 95
       47
 96
       43
 40
0.0
 40
0.0
 40
0.0
 40
0.0
 40
0.0005250140702051
 40
0.0005250140702051
 40
0.0005250140702051
 40
0.0010263418537126
 40
0.0010263418537126
 40
0.0010263418537126
 40
0.0015257578151753
 40
0.0015257578151753
 40
0.0015257578151753
 40
0.0021288789955901
 40
0.0021288789955901
 40
0.0021288789955901
 40
0.0028879668173888
 40
0.0028879668173888
 40
0.0028879668173888
 40
0.0032801757984862
 40
0.0032801757984862
 40
0.0032801757984862
 40
0.003466021201537
 40
0.003466021201537
 40
0.003466021201537
 40
0.003575152584217
 40
0.003575152584217
 40
0.003575152584217
 40
0.0036847845041311
 40
0.0036847845041311
 40
0.0036847845041311
 40
0.003827270314222
 40
0.003827270314222
 40
0.003827270314222
 40
0.0039959581153079
 40
0.0039959581153079
 40
0.0039959581153079
 40
0.0048126477395704
 40
0.0048126477395704
 40
0.0048126477395704
 40
0.005630733426212
 40
0.005630733426212
 40
0.005630733426212
 40
0.0067905304152986
 40
0.0067905304152986
 40
0.0067905304152986
 40
0.0067905304152986
 10
201.1679571448249
 20
136.8324797863059
 42
1.0
 10
201.2991972225272
 20
136.8054382782467
 42
1.0
 10
201.4487947765338
 20
136.7734611314055
 42
1.0
 10
201.6076661391783
 20
136.7371269552004
 42
1.0
 10
201.7591910268097
 20
136.7024729314984
 42
1.0
 10
201.9231543990112
 20
136.6628621518705
 42
1.0
 10
202.0845538088377
 20
136.620464387393
 42
1.0
 10
202.2455384862581
 20
136.5781755683379
 42
1.0
 10
202.4081344856351
 20
136.5319898224422
 42
1.0
 10
202.5593950883847
 20
136.4843102883095
 42
1.0
 10
202.7418449583286
 20
136.4267994451463
 42
1.0
 10
202.9131448507833
 20
136.3655615387307
 42
1.0
 10
203.0632455347169
 20
136.3018634740225
 42
1.0
 10
203.2517665264484
 20
136.2218610248967
 42
1.0
 10
203.4146405813787
 20
136.1368232015267
 42
1.0
 10
203.5373409233641
 20
136.0357469076856
 42
1.0
 10
203.6011840570537
 20
135.9831551444018
 42
1.0
 10
203.6561849340275
 20
135.9254657500717
 42
1.0
 10
203.6884512588077
 20
135.8543648924903
 42
1.0
 10
203.703800151351
 20
135.820542651185
 42
1.0
 10
203.7139942774242
 20
135.7827886884247
 42
1.0
 10
203.7131229739421
 20
135.7404300489399
 42
1.0
 10
203.7126090867062
 20
135.7154472907914
 42
1.0
 10
203.708020700575
 20
135.6883709504489
 42
1.0
 10
203.6982145623192
 20
135.660586612705
 42
1.0
 10
203.6883892099924
 20
135.6327478345457
 42
1.0
 10
203.6729486438385
 20
135.603610195305
 42
1.0
 10
203.653340769974
 20
135.5758561559935
 42
1.0
 10
203.6278879106656
 20
135.5398288099021
 42
1.0
 10
203.5950804724707
 20
135.5052587281946
 42
1.0
 10
203.559695176033
 20
135.4740448380512
 42
1.0
 10
203.5175955197948
 20
135.4369081124282
 42
1.0
 10
203.4711226398503
 20
135.4034365526836
 42
1.0
 10
203.423250484408
 20
135.3727960831771
 42
1.0
 10
203.1939064646445
 20
135.2260049395749
 42
1.0
 10
202.9299688080204
 20
135.1290279562284
 42
1.0
 10
202.6800512754332
 20
135.045568684965
 42
1.0
 10
202.4300872968256
 20
134.9620939031812
 42
1.0
 10
202.1846954226408
 20
134.8950375247957
 42
1.0
 10
201.9651715909501
 20
134.8395154301561
 42
1.0
 10
201.6555622633314
 20
134.7612088597169
 42
1.0
 10
201.3860568831718
 20
134.7032058382344
 42
1.0
 10
201.1679571448249
 20
134.6582672346045
 42
1.0
 72
     4
 94
        3
 73
     1
 74
     0
 95
        8
 96
        4
 40
0.0
 40
0.0
 40
0.0
 40
0.0
 40
0.0025591904627764
 40
0.0025591904627764
 40
0.0025591904627764
 40
0.0025591904627764
 10
201.1679571448249
 20
134.6582672346045
 42
1.0
 10
200.3569471367794
 20
134.4911617737376
 42
1.0
 10
199.5280255873297
 20
134.3608196409444
 42
1.0
 10
198.6957932792787
 20
134.245347262441
 42
1.0
 72
     4
 94
        3
 73
     1
 74
     0
 95
        8
 96
        4
 40
0.0
 40
0.0
 40
0.0
 40
0.0
 40
0.0006762994174986
 40
0.0006762994174986
 40
0.0006762994174986
 40
0.0006762994174986
 10
198.6957932792787
 20
134.245347262441
 42
1.0
 10
198.4755620736972
 20
134.2147901440941
 42
1.0
 10
198.2549437631942
 20
134.1854196919951
 42
1.0
 10
198.0340285733963
 20
134.1570621310063
 42
1.0
 72
     4
 94
        3
 73
     1
 74
     0
 95
       20
 96
       16
 40
0.0
 40
0.0
 40
0.0
 40
0.0
 40
0.0002256738827692
 40
0.0002256738827692
 40
0.0002256738827692
 40
0.0003877548862238
 40
0.0003877548862238
 40
0.0003877548862238
 40
0.0004987502626336
 40
0.0004987502626336
 40
0.0004987502626336
 40
0.0005822931085501
 40
0.0005822931085501
 40
0.0005822931085501
 40
0.0006146016580119
 40
0.0006146016580119
 40
0.0006146016580119
 40
0.0006146016580119
 10
198.0340285733963
 20
134.1570621310063
 42
1.0
 10
198.0340285733963
 20
134.1570621310063
 42
1.0
 10
198.0466307139021
 20
134.1586763532466
 42
1.0
 10
198.0717628417537
 20
134.161916146936
 42
1.0
 10
198.0898936392002
 20
134.1642533960339
 42
1.0
 10
198.1150337138359
 20
134.167499956946
 42
1.0
 10
198.1477778195329
 20
134.1717575633942
 42
1.0
 10
198.1702721940574
 20
134.1746824316105
 42
1.0
 10
198.1968803486532
 20
134.1781532313476
 42
1.0
 10
198.2271546263843
 20
134.1821256677744
 42
1.0
 10
198.249975132783
 20
134.185120058316
 42
1.0
 10
198.2754166442605
 20
134.1884705675815
 42
1.0
 10
198.3021060186059
 20
134.1920031441969
 42
1.0
 10
198.3125462635199
 20
134.1933850036802
 42
1.0
 10
198.3232412705642
 20
134.1948031279844
 42
1.0
 10
198.3340285733962
 20
134.1962362517607
 42
1.0
 72
     4
 94
        3
 73
     1
 74
     0
 95
       38
 96
       34
 40
0.0
 40
0.0
 40
0.0
 40
0.0
 40
0.0023301755297508
 40
0.0023301755297508
 40
0.0023301755297508
 40
0.0048586803557044
 40
0.0048586803557044
 40
0.0048586803557044
 40
0.0055241308185521
 40
0.0055241308185521
 40
0.0055241308185521
 40
0.0057843010847058
 40
0.0057843010847058
 40
0.0057843010847058
 40
0.0059395818170381
 40
0.0059395818170381
 40
0.0059395818170381
 40
0.0061133758404154
 40
0.0061133758404154
 40
0.0061133758404154
 40
0.006285145246369
 40
0.006285145246369
 40
0.006285145246369
 40
0.0065862968994754
 40
0.0065862968994754
 40
0.0065862968994754
 40
0.0068837894173842
 40
0.0068837894173842
 40
0.0068837894173842
 40
0.0085817748546305
 40
0.0085817748546305
 40
0.0085817748546305
 40
0.0119571272010757
 40
0.0119571272010757
 40
0.0119571272010757
 40
0.0119571272010757
 10
198.3340285733963
 20
134.1962362517609
 42
1.0
 10
199.0962269032652
 20
134.2974964616371
 42
1.0
 10
199.8558974640995
 20
134.4107377517596
 42
1.0
 10
200.6061762130725
 20
134.5489430494248
 42
1.0
 10
201.4176770478756
 20
134.6984257777882
 42
1.0
 10
202.2410670089566
 20
134.8613210824151
 42
1.0
 10
202.973107286583
 20
135.1519069972609
 42
1.0
 10
203.1668372444111
 20
135.228808772681
 42
1.0
 10
203.3579483625301
 20
135.3169799101304
 42
1.0
 10
203.5095083202438
 20
135.4329205846157
 42
1.0
 10
203.5692182959837
 20
135.478597655032
 42
1.0
 10
203.6231279717904
 20
135.5298344595067
 42
1.0
 10
203.6606705302993
 20
135.5865707241694
 42
1.0
 10
203.6831853112127
 20
135.6205962306735
 42
1.0
 10
203.6999099977735
 20
135.6572141183361
 42
1.0
 10
203.707809383142
 20
135.6945969211048
 42
1.0
 10
203.7165967994502
 20
135.7361822135511
 42
1.0
 10
203.7142444214048
 20
135.7797892440969
 42
1.0
 10
203.7012742278606
 20
135.8209955909513
 42
1.0
 10
203.6883971963048
 20
135.8619059618673
 42
1.0
 10
203.6651867409613
 20
135.901517484247
 42
1.0
 10
203.6359637590129
 20
135.9379175677955
 42
1.0
 10
203.5849721522338
 20
136.0014326036775
 42
1.0
 10
203.5152409469518
 20
136.0574306209803
 42
1.0
 10
203.4401032280305
 20
136.1070010226066
 42
1.0
 10
203.365467658856
 20
136.156240142355
 42
1.0
 10
203.2839200830934
 20
136.2001399432651
 42
1.0
 10
203.1996928059446
 20
136.2404650485796
 42
1.0
 10
202.7253178531747
 20
136.4675793585343
 42
1.0
 10
202.1762686094304
 20
136.6061761858028
 42
1.0
 10
201.6351126544255
 20
136.7308274418913
 42
1.0
 10
200.5569968019543
 20
136.9791634233705
 42
1.0
 10
199.4454536920123
 20
137.1468547899084
 42
1.0
 10
198.3340285733963
 20
137.2945107691495
 42
1.0
 72
     4
 94
        3
 73
     1
 74
     0
 95
       23
 96
       19
 40
0.0
 40
0.0
 40
0.0
 40
0.0
 40
0.0000780178567861
 40
0.0000780178567861
 40
0.0000780178567861
 40
0.000155958328301
 40
0.000155958328301
 40
0.000155958328301
 40
0.0002346596661217
 40
0.0002346596661217
 40
0.0002346596661217
 40
0.0003493122753857
 40
0.0003493122753857
 40
0.0003493122753857
 40
0.0004998571600726
 40
0.0004998571600726
 40
0.0004998571600726
 40
0.0005310271078311
 40
0.0005310271078311
 40
0.0005310271078311
 40
0.0005310271078311
 10
198.3340285733963
 20
137.2945107691495
 42
1.0
 10
198.308410882378
 20
137.2979141520584
 42
1.0
 10
198.2819121215215
 20
137.3014183892598
 42
1.0
 10
198.256816885156
 20
137.3047225548484
 42
1.0
 10
198.2317290258486
 20
137.3080257491361
 42
1.0
 10
198.2073957067039
 20
137.3112146305811
 42
1.0
 10
198.1856037840542
 20
137.3140604368739
 42
1.0
 10
198.1635489300099
 20
137.3169405793668
 42
1.0
 10
198.1435454142512
 20
137.3195418312524
 42
1.0
 10
198.1263574046662
 20
137.3217712878928
 42
1.0
 10
198.10144531891
 20
137.3250026344162
 42
1.0
 10
198.0817276949761
 20
137.3275470859107
 42
1.0
 10
198.0673277092593
 20
137.3294024658347
 42
1.0
 10
198.0484653368415
 20
137.3318328062385
 42
1.0
 10
198.0380041030841
 20
137.3331745270896
 42
1.0
 10
198.0349766618022
 20
137.3335631829898
 42
1.0
 10
198.0343422035193
 20
137.3336446332747
 42
1.0
 10
198.0340285733963
 20
137.3336848899041
 42
1.0
 10
198.0340285733963
 20
137.3336848899041
 42
1.0
 72
     4
 94
        3
 73
     1
 74
     0
 95
        8
 96
        4
 40
0.0
 40
0.0
 40
0.0
 40
0.0
 40
0.0006727353899149
 40
0.0006727353899149
 40
0.0006727353899149
 40
0.0006727353899149
 10
198.0340285733963
 20
137.3336848899042
 42
1.0
 10
198.2548929672633
 20
137.305333849285
 42
1.0
 10
198.475508684173
 20
137.2759642846221
 42
1.0
 10
198.6957932792787
 20
137.2453997584695
 42
1.0
 97
        0
 75
     0
 76
     1
 52
0.0
 41
1.0
 77
     0
 78
     1
 53
45.0
 43
0.0
 44
0.0
 45
-2.245064030267288
 46
2.245064030267288
 79
     0
 98
        1
 10
0.0
 20
0.0
  0
HATCH
  5
467
330
1F
100
AcDbEntity
  8
0
  6
Continuous
 62
     7
370
     0
100
AcDbHatch
 10
0.0
 20
0.0
 30
0.0
210
0.0
220
0.0
230
1.0
  2
ANSI31
 70
     0
 71
     0
 91
        1
 92
        0
 93
        2
 72
     4
 94
        3
 73
     1
 74
     0
 95
        8
 96
        4
 40
0.0
 40
0.0
 40
0.0
 40
0.0
 40
0.0003361493001353
 40
0.0003361493001353
 40
0.0003361493001353
 40
0.0003361493001353
 10
198.3649109263375
 20
137.290400532792
 42
1.0
 10
198.2546863200722
 20
137.3050972798781
 42
1.0
 10
198.1443890695679
 20
137.3195185733923
 42
1.0
 10
198.0340285733963
 20
137.3336848899041
 42
1.0
 72
     4
 94
        3
 73
     1
 74
     0
 95
        8
 96
        4
 40
0.0
 40
0.0
 40
0.0
 40
0.0
 40
0.0003385859937836
 40
0.0003385859937836
 40
0.0003385859937836
 40
0.0003385859937836
 10
198.0340285733963
 20
137.3336848899041
 42
1.0
 10
198.1444226515858
 20
137.3195142626697
 42
1.0
 10
198.2547215386548
 20
137.3050925840246
 42
1.0
 10
198.3649109263374
 20
137.290400532792
 42
1.0
 97
        0
 75
     0
 76
     1
 52
0.0
 41
1.0
 77
     0
 78
     1
 53
45.0
 43
0.0
 44
0.0
 45
-2.245064030267288
 46
2.245064030267288
 79
     0
 98
        1
 10
0.0
 20
0.0
  0
HATCH
  5
468
330
1F
100
AcDbEntity
  8
0
  6
Continuous
 62
     7
370
     0
100
AcDbHatch
 10
0.0
 20
0.0
 30
0.0
210
0.0
220
0.0
230
1.0
  2
ANSI31
 70
     0
 71
     0
 91
        1
 92
        0
 93
        2
 72
     4
 94
        3
 73
     1
 74
     0
 95
        8
 96
        4
 40
0.0
 40
0.0
 40
0.0
 40
0.0
 40
0.0003461622176645
 40
0.0003461622176645
 40
0.0003461622176645
 40
0.0003461622176645
 10
198.3649109263375
 20
134.2003464881184
 42
1.0
 10
198.2547653676708
 20
134.1856602808075
 42
1.0
 10
198.1444656466089
 20
134.1712382772546
 42
1.0
 10
198.0340285733963
 20
134.1570621310063
 42
1.0
 72
     4
 94
        3
 73
     1
 74
     0
 95
        8
 96
        4
 40
0.0
 40
0.0
 40
0.0
 40
0.0
 40
0.0003378903654697
 40
0.0003378903654697
 40
0.0003378903654697
 40
0.0003378903654697
 10
198.0340285733963
 20
134.1570621310063
 42
1.0
 10
198.1444014530517
 20
134.1712300371118
 42
1.0
 10
198.2546990084619
 20
134.185651432833
 42
1.0
 10
198.3649109263374
 20
134.2003464881184
 42
1.0
 97
        0
 75
     0
 76
     1
 52
0.0
 41
1.0
 77
     0
 78
     1
 53
45.0
 43
0.0
 44
0.0
 45
-2.245064030267288
 46
2.245064030267288
 79
     0
 98
        1
 10
0.0
 20
0.0
  0
HATCH
  5
469
330
1F
100
AcDbEntity
  8
0
  6
Continuous
 62
     7
370
     0
100
AcDbHatch
 10
0.0
 20
0.0
 30
0.0
210
0.0
220
0.0
230
1.0
  2
ANSI32
 70
     0
 71
     0
 91
        1
 92
        0
 93
        3
 72
     4
 94
        3
 73
     1
 74
     0
 95
        8
 96
        4
 40
0.0
 40
0.0
 40
0.0
 40
0.0
 40
0.0024740106356528
 40
0.0024740106356528
 40
0.0024740106356528
 40
0.0024740106356528
 10
193.3840285733963
 20
133.6765396765456
 42
1.0
 10
194.2020690765409
 20
133.7453573305527
 42
1.0
 10
195.0190455967933
 20
133.8205048559926
 42
1.0
 10
195.8340285733963
 20
133.9045168500851
 42
1.0
 72
     4
 94
        3
 73
     1
 74
     0
 95
        8
 96
        4
 40
0.0
 40
0.0
 40
0.0
 40
0.0
 40
0.0021216665975016
 40
0.0021216665975016
 40
0.0021216665975016
 40
0.0021216665975016
 10
195.8340285733963
 20
133.9045168500851
 42
1.0
 10
195.1353208025752
 20
133.832491010528
 42
1.0
 10
194.4351115610299
 20
133.7670030613927
 42
1.0
 10
193.7340285733963
 20
133.7063887528673
 42
1.0
 72
     4
 94
        3
 73
     1
 74
     0
 95
        8
 96
        4
 40
0.0
 40
0.0
 40
0.0
 40
0.0
 40
0.000355365778069
 40
0.000355365778069
 40
0.000355365778069
 40
0.000355365778069
 10
193.7340285733963
 20
133.7063887528673
 42
1.0
 10
193.6174039571669
 20
133.6963056092246
 42
1.0
 10
193.5007362918587
 20
133.6863577128876
 42
1.0
 10
193.3840285733963
 20
133.6765396765456
 42
1.0
 97
        0
 75
     0
 76
     1
 52
0.0
 41
1.0
 77
     0
 78
     2
 53
45.0
 43
0.0
 44
0.0
 45
-6.735192090801865
 46
6.735192090801866
 79
     0
 53
45.0
 43
4.49013
 44
0.0
 45
-6.735192090801865
 46
6.735192090801866
 79
     0
 98
        1
 10
0.0
 20
0.0
  0
HATCH
  5
46A
330
1F
100
AcDbEntity
  8
0
  6
Continuous
 62
     7
370
     0
100
AcDbHatch
 10
0.0
 20
0.0
 30
0.0
210
0.0
220
0.0
230
1.0
  2
ANSI32
 70
     0
 71
     0
 91
        1
 92
        0
 93
        3
 72
     4
 94
        3
 73
     1
 74
     0
 95
        8
 96
        4
 40
0.0
 40
0.0
 40
0.0
 40
0.0
 40
0.0021159962740237
 40
0.0021159962740237
 40
0.0021159962740237
 40
0.0021159962740237
 10
193.7340285733963
 20
137.7843582680431
 42
1.0
 10
194.434902127248
 20
137.7237620667662
 42
1.0
 10
195.1350870391897
 20
137.6582801077301
 42
1.0
 10
195.8340285733963
 20
137.5862301708253
 42
1.0
 72
     4
 94
        3
 73
     1
 74
     0
 95
        8
 96
        4
 40
0.0
 40
0.0
 40
0.0
 40
0.0
 40
0.0024678910581708
 40
0.0024678910581708
 40
0.0024678910581708
 40
0.0024678910581708
 10
195.8340285733963
 20
137.5862301708253
 42
1.0
 10
195.0187490820817
 20
137.6702727309454
 42
1.0
 10
194.201807941896
 20
137.7454116583087
 42
1.0
 10
193.3840285733963
 20
137.8142073443648
 42
1.0
 72
     4
 94
        3
 73
     1
 74
     0
 95
        8
 96
        4
 40
0.0
 40
0.0
 40
0.0
 40
0.0
 40
0.000352814528703
 40
0.000352814528703
 40
0.000352814528703
 40
0.000352814528703
 10
193.3840285733963
 20
137.8142073443648
 42
1.0
 10
193.5007216868122
 20
137.8043905366723
 42
1.0
 10
193.6173891356183
 20
137.7944426931289
 42
1.0
 10
193.7340285733963
 20
137.7843582680431
 42
1.0
 97
        0
 75
     0
 76
     1
 52
0.0
 41
1.0
 77
     0
 78
     2
 53
45.0
 43
0.0
 44
0.0
 45
-6.735192090801865
 46
6.735192090801866
 79
     0
 53
45.0
 43
4.49013
 44
0.0
 45
-6.735192090801865
 46
6.735192090801866
 79
     0
 98
        1
 10
0.0
 20
0.0
  0
HATCH
  5
46B
330
1F
100
AcDbEntity
  8
0
  6
Continuous
 62
     7
370
     0
100
AcDbHatch
 10
0.0
 20
0.0
 30
0.0
210
0.0
220
0.0
230
1.0
  2
ANSI34
 70
     0
 71
     0
 91
        1
 92
        0
 93
       15
 72
     4
 94
        3
 73
     1
 74
     0
 95
        8
 96
        4
 40
0.0
 40
0.0
 40
0.0
 40
0.0
 40
0.0007620072437291
 40
0.0007620072437291
 40
0.0007620072437291
 40
0.0007620072437291
 10
193.0340285733963
 20
133.6474898781462
 42
1.0
 10
193.1379929333902
 20
133.6560034611651
 42
1.0
 10
193.2437714770179
 20
133.6647669825613
 42
1.0
 10
193.3512494766395
 20
133.6737856347576
 42
1.0
 72
     4
 94
        3
 73
     1
 74
     0
 95
       11
 96
        7
 40
0.0
 40
0.0
 40
0.0
 40
0.0
 40
0.0001012916948615
 40
0.0001012916948615
 40
0.0001012916948615
 40
0.0001694693804736
 40
0.0001694693804736
 40
0.0001694693804736
 40
0.0001694693804736
 10
193.3512494766396
 20
133.6737856347576
 42
1.0
 10
193.3655362551861
 20
133.6749844613749
 42
1.0
 10
193.3740613719169
 20
133.6757014296594
 42
1.0
 10
193.3790153129499
 20
133.6761180179827
 42
1.0
 10
193.3823692054279
 20
133.676400054534
 42
1.0
 10
193.3840285733971
 20
133.6765396765456
 42
1.0
 10
193.3840285733971
 20
133.6765396765456
 42
1.0
 72
     4
 94
        3
 73
     1
 74
     0
 95
       23
 96
       19
 40
0.0
 40
0.0
 40
0.0
 40
0.0
 40
0.0001299178945243
 40
0.0001299178945243
 40
0.0001299178945243
 40
0.000160979268839
 40
0.000160979268839
 40
0.000160979268839
 40
0.000192335027582
 40
0.000192335027582
 40
0.000192335027582
 40
0.0002115430522511
 40
0.0002115430522511
 40
0.0002115430522511
 40
0.0002310563452826
 40
0.0002310563452826
 40
0.0002310563452826
 40
0.0002407689375443
 40
0.0002407689375443
 40
0.0002407689375443
 40
0.0002407689375443
 10
193.3840285733963
 20
133.6765396765456
 42
1.0
 10
193.3840285733963
 20
133.6765396765456
 42
1.0
 10
193.3785170093632
 20
133.6760753033903
 42
1.0
 10
193.3627236934576
 20
133.6747488826522
 42
1.0
 10
193.3588757724338
 20
133.6744257103511
 42
1.0
 10
193.3543380941946
 20
133.6740447396512
 42
1.0
 10
193.3488740637932
 20
133.6735863283642
 42
1.0
 10
193.3433813614084
 20
133.6731255116074
 42
1.0
 10
193.3368571878519
 20
133.6725784286265
 42
1.0
 10
193.32903169945
 20
133.6719229073216
 42
1.0
 10
193.3242218352821
 20
133.6715199972062
 42
1.0
 10
193.3188243757447
 20
133.6710680923864
 42
1.0
 10
193.3129730627546
 20
133.6705785509751
 42
1.0
 10
193.307067641698
 20
133.6700844826928
 42
1.0
 10
193.3005043346108
 20
133.6695357374894
 42
1.0
 10
193.2939576363266
 20
133.6689888218046
 42
1.0
 10
193.29064880917
 20
133.6687124001044
 42
1.0
 10
193.2873032480417
 20
133.6684330178754
 42
1.0
 10
193.2840285733963
 20
133.6681596589527
 42
1.0
 72
     4
 94
        3
 73
     1
 74
     0
 95
        8
 96
        4
 40
0.0
 40
0.0
 40
0.0
 40
0.0
 40
0.0001523008205129
 40
0.0001523008205129
 40
0.0001523008205129
 40
0.0001523008205129
 10
193.2840285733963
 20
133.6681596589527
 42
1.0
 10
193.2340360585435
 20
133.6639864504716
 42
1.0
 10
193.1840359848571
 20
133.6598367681551
 42
1.0
 10
193.1340285733963
 20
133.6557102224294
 42
1.0
 72
     4
 94
        3
 73
     1
 74
     0
 95
       23
 96
       19
 40
0.0
 40
0.0
 40
0.0
 40
0.0
 40
0.0000160442138568
 40
0.0000160442138568
 40
0.0000160442138568
 40
0.0000320283340843
 40
0.0000320283340843
 40
0.0000320283340843
 40
0.0000556774687149
 40
0.0000556774687149
 40
0.0000556774687149
 40
0.0000957168809979
 40
0.0000957168809979
 40
0.0000957168809979
 40
0.0001751136617218
 40
0.0001751136617218
 40
0.0001751136617218
 40
0.0002428806039207
 40
0.0002428806039207
 40
0.0002428806039207
 40
0.0002428806039207
 10
193.1340285733963
 20
133.6557102224294
 42
1.0
 10
193.1287605150812
 20
133.6552755091962
 42
1.0
 10
193.1232783783967
 20
133.6548234094214
 42
1.0
 10
193.118040777899
 20
133.654391739056
 42
1.0
 10
193.1128124467011
 20
133.6539608326439
 42
1.0
 10
193.1077075497224
 20
133.6535403671577
 42
1.0
 10
193.1030175856604
 20
133.6531542764007
 42
1.0
 10
193.0961059365785
 20
133.6525852904147
 42
1.0
 10
193.0898909257066
 20
133.6520741047191
 42
1.0
 10
193.0844859232032
 20
133.6516297810189
 42
1.0
 10
193.0753641008623
 20
133.6508799123828
 42
1.0
 10
193.0681529980327
 20
133.6502878468386
 42
1.0
 10
193.0622780660521
 20
133.6498057120465
 42
1.0
 10
193.0506809732873
 20
133.6488539798515
 42
1.0
 10
193.0437155059029
 20
133.6482833712074
 42
1.0
 10
193.0394106766304
 20
133.6479307061769
 42
1.0
 10
193.0357183727448
 20
133.6476282211351
 42
1.0
 10
193.0340285733963
 20
133.6474898781462
 42
1.0
 10
193.0340285733963
 20
133.6474898781462
 42
1.0
 72
     4
 94
        3
 73
     1
 74
     0
 95
        8
 96
        4
 40
0.0
 40
0.0
 40
0.0
 40
0.0
 40
0.0003534657839766
 40
0.0003534657839766
 40
0.0003534657839766
 40
0.0003534657839766
 10
193.0340285733963
 20
133.6474898781462
 42
1.0
 10
193.1507232387531
 20
133.6570459387176
 42
1.0
 10
193.2673906089432
 20
133.6667275082594
 42
1.0
 10
193.3840285733963
 20
133.6765396765456
 42
1.0
 72
     4
 94
        3
 73
     1
 74
     0
 95
        8
 96
        4
 40
0.0
 40
0.0
 40
0.0
 40
0.0
 40
0.000355365778069
 40
0.000355365778069
 40
0.000355365778069
 40
0.000355365778069
 10
193.3840285733963
 20
133.6765396765456
 42
1.0
 10
193.5007362918587
 20
133.6863577128876
 42
1.0
 10
193.6174039571669
 20
133.6963056092246
 42
1.0
 10
193.7340285733963
 20
133.7063887528673
 42
1.0
 72
     4
 94
        3
 73
     1
 74
     0
 95
        8
 96
        4
 40
0.0
 40
0.0
 40
0.0
 40
0.0
 40
0.0003543732533216
 40
0.0003543732533216
 40
0.0003543732533216
 40
0.0003543732533216
 10
193.7340285733963
 20
133.7063887528673
 42
1.0
 10
193.850730890001
 20
133.7164786143375
 42
1.0
 10
193.9673984913223
 20
133.7267046242993
 42
1.0
 10
194.0840285733963
 20
133.7370727454427
 42
1.0
 72
     4
 94
        3
 73
     1
 74
     0
 95
        8
 96
        4
 40
0.0
 40
0.0
 40
0.0
 40
0.0
 40
0.0014113660240681
 40
0.0014113660240681
 40
0.0014113660240681
 40
0.0014113660240681
 10
194.0840285733963
 20
133.7370727454427
 42
1.0
 10
194.5505323304773
 20
133.7785437568769
 42
1.0
 10
195.0172446231184
 20
133.8223452066259
 42
1.0
 10
195.4840285733963
 20
133.8689936010769
 42
1.0
 72
     4
 94
        3
 73
     1
 74
     0
 95
        8
 96
        4
 40
0.0
 40
0.0
 40
0.0
 40
0.0
 40
0.0007148810106381
 40
0.0007148810106381
 40
0.0007148810106381
 40
0.0007148810106381
 10
195.4840285733963
 20
133.8689936010769
 42
1.0
 10
195.7176169855649
 20
133.8923374293802
 42
1.0
 10
195.9509663851958
 20
133.9163715369762
 42
1.0
 10
196.1840285733963
 20
133.9411748973677
 42
1.0
 72
     4
 94
        3
 73
     1
 74
     0
 95
        8
 96
        4
 40
0.0
 40
0.0
 40
0.0
 40
0.0
 40
0.0008998154164381
 40
0.0008998154164381
 40
0.0008998154164381
 40
0.0008998154164381
 10
196.1840285733963
 20
133.9411748973678
 42
1.0
 10
196.0651100687886
 20
133.9285191399076
 42
1.0
 10
195.9483860523912
 20
133.9163053169924
 42
1.0
 10
195.834028573396
 20
133.904516850085
 42
1.0
 72
     4
 94
        3
 73
     1
 74
     0
 95
        8
 96
        4
 40
0.0
 40
0.0
 40
0.0
 40
0.0
 40
0.0007460299641399
 40
0.0007460299641399
 40
0.0007460299641399
 40
0.0007460299641399
 10
195.8340285733963
 20
133.9045168500851
 42
1.0
 10
195.6004498790965
 20
133.8804385411523
 42
1.0
 10
195.3671301838609
 20
133.8571430300455
 42
1.0
 10
195.1340285733963
 20
133.834541860012
 42
1.0
 72
     4
 94
        3
 73
     1
 74
     0
 95
        8
 96
        4
 40
0.0
 40
0.0
 40
0.0
 40
0.0
 40
0.0014108819158727
 40
0.0014108819158727
 40
0.0014108819158727
 40
0.0014108819158727
 10
195.1340285733963
 20
133.834541860012
 42
1.0
 10
194.6672209437706
 20
133.7892809174168
 42
1.0
 10
194.2005090180999
 20
133.7467197694446
 42
1.0
 10
193.7340285733963
 20
133.7063887528673
 42
1.0
 72
     4
 94
        3
 73
     1
 74
     0
 95
        8
 96
        4
 40
0.0
 40
0.0
 40
0.0
 40
0.0
 40
0.0013786545265747
 40
0.0013786545265747
 40
0.0013786545265747
 40
0.0013786545265747
 10
193.7340285733963
 20
133.7063887528673
 42
1.0
 10
193.5339451133357
 20
133.6890899155073
 42
1.0
 10
193.3392699949502
 20
133.6726672670961
 42
1.0
 10
193.150695240063
 20
133.6570864135071
 42
1.0
 72
     4
 94
        3
 73
     1
 74
     0
 95
        8
 96
        4
 40
0.0
 40
0.0
 40
0.0
 40
0.0
 40
0.0002733688141512
 40
0.0002733688141512
 40
0.0002733688141512
 40
0.0002733688141512
 10
193.150695240063
 20
133.6570864135071
 42
1.0
 10
193.1120284753031
 20
133.6538915998597
 42
1.0
 10
193.0731377162907
 20
133.6506925038811
 42
1.0
 10
193.0340285733963
 20
133.6474898781462
 42
1.0
 97
        0
 75
     0
 76
     1
 52
0.0
 41
1.0
 77
     0
 78
     4
 53
45.0
 43
0.0
 44
0.0
 45
-13.47038418160373
 46
13.47038418160373
 79
     0
 53
45.0
 43
4.49013
 44
0.0
 45
-13.47038418160373
 46
13.47038418160373
 79
     0
 53
45.0
 43
8.98026
 44
0.0
 45
-13.47038418160373
 46
13.47038418160373
 79
     0
 53
45.0
 43
13.4704
 44
0.0
 45
-13.47038418160373
 46
13.47038418160373
 79
     0
 98
        1
 10
0.0
 20
0.0
  0
HATCH
  5
46C
330
1F
100
AcDbEntity
  8
0
  6
Continuous
 62
     7
370
     0
100
AcDbHatch
 10
0.0
 20
0.0
 30
0.0
210
0.0
220
0.0
230
1.0
  2
ANSI34
 70
     0
 71
     0
 91
        1
 92
        0
 93
       15
 72
     4
 94
        3
 73
     1
 74
     0
 95
        8
 96
        4
 40
0.0
 40
0.0
 40
0.0
 40
0.0
 40
0.000518364265186
 40
0.000518364265186
 40
0.000518364265186
 40
0.000518364265186
 10
193.3512494766396
 20
137.8169613861528
 42
1.0
 10
193.2451102891679
 20
137.8258676964635
 42
1.0
 10
193.139364458508
 20
137.8346312463242
 42
1.0
 10
193.0340285733963
 20
137.8432571427641
 42
1.0
 72
     4
 94
        3
 73
     1
 74
     0
 95
        8
 96
        4
 40
0.0
 40
0.0
 40
0.0
 40
0.0
 40
0.0002237975335898
 40
0.0002237975335898
 40
0.0002237975335898
 40
0.0002237975335898
 10
193.034028573396
 20
137.8432571427647
 42
1.0
 10
193.0730115829181
 20
137.8400648460208
 42
1.0
 10
193.1119010563906
 20
137.8368659489468
 42
1.0
 10
193.150695240063
 20
137.8336606074033
 42
1.0
 72
     4
 94
        3
 73
     1
 74
     0
 95
        8
 96
        4
 40
0.0
 40
0.0
 40
0.0
 40
0.0
 40
0.0009402596520096
 40
0.0009402596520096
 40
0.0009402596520096
 40
0.0009402596520096
 10
193.150695240063
 20
137.8336606074033
 42
1.0
 10
193.3438047402922
 20
137.8177050737397
 42
1.0
 10
193.5382817882295
 20
137.8012821646976
 42
1.0
 10
193.734028573396
 20
137.7843582680431
 42
1.0
 72
     4
 94
        3
 73
     1
 74
     0
 95
        8
 96
        4
 40
0.0
 40
0.0
 40
0.0
 40
0.0
 40
0.001462946392087
 40
0.001462946392087
 40
0.001462946392087
 40
0.001462946392087
 10
193.7340285733963
 20
137.7843582680431
 42
1.0
 10
194.2019220734077
 20
137.7439050813776
 42
1.0
 10
194.6687104132434
 20
137.7013216868474
 42
1.0
 10
195.1340285733963
 20
137.6562051608984
 42
1.0
 72
     4
 94
        3
 73
     1
 74
     0
 95
        8
 96
        4
 40
0.0
 40
0.0
 40
0.0
 40
0.0
 40
0.0007884432477072
 40
0.0007884432477072
 40
0.0007884432477072
 40
0.0007884432477072
 10
195.1340285733963
 20
137.6562051608984
 42
1.0
 10
195.3680930659777
 20
137.6335106313107
 42
1.0
 10
195.6014596161773
 20
137.610204391663
 42
1.0
 10
195.8340285733961
 20
137.5862301708254
 42
1.0
 72
     4
 94
        3
 73
     1
 74
     0
 95
        8
 96
        4
 40
0.0
 40
0.0
 40
0.0
 40
0.0
 40
0.0006121193582785
 40
0.0006121193582785
 40
0.0006121193582785
 40
0.0006121193582785
 10
195.8340285733963
 20
137.5862301708253
 42
1.0
 10
195.9500672386592
 20
137.5742683999167
 42
1.0
 10
196.0667431490053
 20
137.5620540824237
 42
1.0
 10
196.1840285733963
 20
137.5495721235426
 42
1.0
 72
     4
 94
        3
 73
     1
 74
     0
 95
        8
 96
        4
 40
0.0
 40
0.0
 40
0.0
 40
0.0
 40
0.0007084054808815
 40
0.0007084054808815
 40
0.0007084054808815
 40
0.0007084054808815
 10
196.1840285733963
 20
137.5495721235427
 42
1.0
 10
195.950886097383
 20
137.5743840284672
 42
1.0
 10
195.7175394988689
 20
137.5984173352197
 42
1.0
 10
195.4840285733963
 20
137.6217534198335
 42
1.0
 72
     4
 94
        3
 73
     1
 74
     0
 95
        8
 96
        4
 40
0.0
 40
0.0
 40
0.0
 40
0.0
 40
0.0014638842140787
 40
0.0014638842140787
 40
0.0014638842140787
 40
0.0014638842140787
 10
195.4840285733963
 20
137.6217534198335
 42
1.0
 10
195.0187348072785
 20
137.6682528916439
 42
1.0
 10
194.5519410386107
 20
137.7120780334213
 42
1.0
 10
194.0840285733963
 20
137.7536742754677
 42
1.0
 72
     4
 94
        3
 73
     1
 74
     0
 95
        8
 96
        4
 40
0.0
 40
0.0
 40
0.0
 40
0.0
 40
0.0003526880106655
 40
0.0003526880106655
 40
0.0003526880106655
 40
0.0003526880106655
 10
194.0840285733963
 20
137.7536742754677
 42
1.0
 10
193.9673881346146
 20
137.7640433172964
 42
1.0
 10
193.8507206988529
 20
137.7742692876804
 42
1.0
 10
193.7340285733963
 20
137.7843582680431
 42
1.0
 72
     4
 94
        3
 73
     1
 74
     0
 95
        8
 96
        4
 40
0.0
 40
0.0
 40
0.0
 40
0.0
 40
0.000352814528703
 40
0.000352814528703
 40
0.000352814528703
 40
0.000352814528703
 10
193.7340285733963
 20
137.7843582680431
 42
1.0
 10
193.6173891356183
 20
137.7944426931289
 42
1.0
 10
193.5007216868122
 20
137.8043905366723
 42
1.0
 10
193.3840285733963
 20
137.8142073443648
 42
1.0
 72
     4
 94
        3
 73
     1
 74
     0
 95
        8
 96
        4
 40
0.0
 40
0.0
 40
0.0
 40
0.0
 40
0.000352257794296
 40
0.000352257794296
 40
0.000352257794296
 40
0.000352257794296
 10
193.3840285733963
 20
137.8142073443648
 42
1.0
 10
193.2673831108419
 20
137.8240201434288
 42
1.0
 10
193.1507158583082
 20
137.8337016865733
 42
1.0
 10
193.0340285733963
 20
137.8432571427641
 42
1.0
 72
     4
 94
        3
 73
     1
 74
     0
 95
       20
 96
       16
 40
0.0
 40
0.0
 40
0.0
 40
0.0
 40
0.0000747484631587
 40
0.0000747484631587
 40
0.0000747484631587
 40
0.0001259238053244
 40
0.0001259238053244
 40
0.0001259238053244
 40
0.0001613787912345
 40
0.0001613787912345
 40
0.0001613787912345
 40
0.0001882296761395
 40
0.0001882296761395
 40
0.0001882296761395
 40
0.0002020053427602
 40
0.0002020053427602
 40
0.0002020053427602
 40
0.0002020053427602
 10
193.0340285733963
 20
137.8432571427641
 42
1.0
 10
193.0340285733963
 20
137.8432571427641
 42
1.0
 10
193.0381795101211
 20
137.8429173923923
 42
1.0
 10
193.046588197991
 20
137.8422281485347
 42
1.0
 10
193.0523751689035
 20
137.841753801738
 42
1.0
 10
193.0603290585022
 20
137.8411015814276
 42
1.0
 10
193.0706790171224
 20
137.8402516511101
 42
1.0
 10
193.0778689155551
 20
137.8396612224058
 42
1.0
 10
193.086384349541
 20
137.8389614631838
 42
1.0
 10
193.0960902051071
 20
137.8381628742754
 42
1.0
 10
193.1034507233647
 20
137.8375572575732
 42
1.0
 10
193.1116722059811
 20
137.8368802710683
 42
1.0
 10
193.120297786476
 20
137.8361692485765
 42
1.0
 10
193.1247654316981
 20
137.8358009723498
 42
1.0
 10
193.129385017345
 20
137.8354199786104
 42
1.0
 10
193.1340285733961
 20
137.8350367984814
 42
1.0
 72
     4
 94
        3
 73
     1
 74
     0
 95
        8
 96
        4
 40
0.0
 40
0.0
 40
0.0
 40
0.0
 40
0.0001511589993557
 40
0.0001511589993557
 40
0.0001511589993557
 40
0.0001511589993557
 10
193.1340285733963
 20
137.835036798481
 42
1.0
 10
193.1840332136287
 20
137.8309104814335
 42
1.0
 10
193.2340332704518
 20
137.8267608031794
 42
1.0
 10
193.2840285733963
 20
137.8225873619577
 42
1.0
 72
     4
 94
        3
 73
     1
 74
     0
 95
       20
 96
       16
 40
0.0
 40
0.0
 40
0.0
 40
0.0
 40
0.0000280310380463
 40
0.0000280310380463
 40
0.0000280310380463
 40
0.000055684220668
 40
0.000055684220668
 40
0.000055684220668
 40
0.0001005412943872
 40
0.0001005412943872
 40
0.0001005412943872
 40
0.0001658042456583
 40
0.0001658042456583
 40
0.0001658042456583
 40
0.0002039545599569
 40
0.0002039545599569
 40
0.0002039545599569
 40
0.0002039545599569
 10
193.2840285733963
 20
137.8225873619577
 42
1.0
 10
193.2932997398167
 20
137.821813435892
 42
1.0
 10
193.3025067661227
 20
137.8210439855247
 42
1.0
 10
193.310804080683
 20
137.820349919389
 42
1.0
 10
193.3190342000962
 20
137.8196614740931
 42
1.0
 10
193.3266244298752
 20
137.8190258920796
 42
1.0
 10
193.3333459252664
 20
137.8184626615317
 42
1.0
 10
193.3441889333092
 20
137.8175540670888
 42
1.0
 10
193.3531128049383
 20
137.8168051824956
 42
1.0
 10
193.3601828682094
 20
137.8162115115325
 42
1.0
 10
193.3704345843841
 20
137.8153506781875
 42
1.0
 10
193.3771886077562
 20
137.8147826467744
 42
1.0
 10
193.3808151386653
 20
137.8144776408754
 42
1.0
 10
193.3829532552056
 20
137.8142978166373
 42
1.0
 10
193.3840285733968
 20
137.8142073443648
 42
1.0
 10
193.3840285733968
 20
137.8142073443648
 42
1.0
 72
     4
 94
        3
 73
     1
 74
     0
 95
       11
 96
        7
 40
0.0
 40
0.0
 40
0.0
 40
0.0
 40
0.0000719260411804
 40
0.0000719260411804
 40
0.0000719260411804
 40
0.000115057735313
 40
0.000115057735313
 40
0.000115057735313
 40
0.000115057735313
 10
193.3840285733963
 20
137.8142073443648
 42
1.0
 10
193.3840285733963
 20
137.8142073443648
 42
1.0
 10
193.3802889098974
 20
137.8145221227833
 42
1.0
 10
193.3719810923423
 20
137.8152203655284
 42
1.0
 10
193.3669641985905
 20
137.8156420177423
 42
1.0
 10
193.3601430197445
 20
137.816215114615
 42
1.0
 10
193.3512494766396
 20
137.8169613861528
 42
1.0
 97
        0
 75
     0
 76
     1
 52
0.0
 41
1.0
 77
     0
 78
     4
 53
45.0
 43
0.0
 44
0.0
 45
-13.47038418160373
 46
13.47038418160373
 79
     0
 53
45.0
 43
4.49013
 44
0.0
 45
-13.47038418160373
 46
13.47038418160373
 79
     0
 53
45.0
 43
8.98026
 44
0.0
 45
-13.47038418160373
 46
13.47038418160373
 79
     0
 53
45.0
 43
13.4704
 44
0.0
 45
-13.47038418160373
 46
13.47038418160373
 79
     0
 98
        1
 10
0.0
 20
0.0
  0
HATCH
  5
46D
330
1F
100
AcDbEntity
  8
0
  6
Continuous
 62
     7
370
     0
100
AcDbHatch
 10
0.0
 20
0.0
 30
0.0
210
0.0
220
0.0
230
1.0
  2
ANSI34
 70
     0
 71
     0
 91
        1
 92
        0
 93
        8
 72
     4
 94
        3
 73
     1
 74
     0
 95
        8
 96
        4
 40
0.0
 40
0.0
 40
0.0
 40
0.0
 40
0.0024620325171234
 40
0.0024620325171234
 40
0.0024620325171234
 40
0.0024620325171234
 10
194.0840285733963
 20
137.7536742754677
 42
1.0
 10
194.9013468312803
 20
137.6810167366943
 42
1.0
 10
195.7182695251821
 20
137.6014231439902
 42
1.0
 10
196.5340285733963
 20
137.5117086254976
 42
1.0
 72
     4
 94
        3
 73
     1
 74
     0
 95
        8
 96
        4
 40
0.0
 40
0.0
 40
0.0
 40
0.0
 40
0.0006893688106367
 40
0.0006893688106367
 40
0.0006893688106367
 40
0.0006893688106367
 10
196.5340285733963
 20
137.5117086254976
 42
1.0
 10
196.4012618957088
 20
137.5263098715232
 42
1.0
 10
196.2679177335112
 20
137.5406976118935
 42
1.0
 10
196.1340285733963
 20
137.5548810557227
 42
1.0
 72
     4
 94
        3
 73
     1
 74
     0
 95
        8
 96
        4
 40
0.0
 40
0.0
 40
0.0
 40
0.0
 40
0.0027202132456353
 40
0.0027202132456353
 40
0.0027202132456353
 40
0.0027202132456353
 10
196.1340285733963
 20
137.5548810557227
 42
1.0
 10
195.2357997705837
 20
137.6500342239073
 42
1.0
 10
194.3354117202583
 20
137.7338691952157
 42
1.0
 10
193.4340285733963
 20
137.8099929244837
 42
1.0
 72
     4
 94
        3
 73
     1
 74
     0
 95
        8
 96
        4
 40
0.0
 40
0.0
 40
0.0
 40
0.0
 40
0.0006343872944537
 40
0.0006343872944537
 40
0.0006343872944537
 40
0.0006343872944537
 10
193.4340285733963
 20
137.8099929244837
 42
1.0
 10
193.3003914351584
 20
137.8212788658359
 42
1.0
 10
193.1670544917136
 20
137.8323637250649
 42
1.0
 10
193.0340285733963
 20
137.8432571427641
 42
1.0
 72
     4
 94
        3
 73
     1
 74
     0
 95
        8
 96
        4
 40
0.0
 40
0.0
 40
0.0
 40
0.0
 40
0.0003520570033426
 40
0.0003520570033426
 40
0.0003520570033426
 40
0.0003520570033426
 10
193.0340285733963
 20
137.8432571427641
 42
1.0
 10
193.1507138995595
 20
137.8337018469741
 42
1.0
 10
193.2673810931618
 20
137.8240203131662
 42
1.0
 10
193.3840285733963
 20
137.8142073443648
 42
1.0
 72
     4
 94
        3
 73
     1
 74
     0
 95
        8
 96
        4
 40
0.0
 40
0.0
 40
0.0
 40
0.0
 40
0.0024678910581708
 40
0.0024678910581708
 40
0.0024678910581708
 40
0.0024678910581708
 10
193.3840285733963
 20
137.8142073443648
 42
1.0
 10
194.201807941896
 20
137.7454116583087
 42
1.0
 10
195.0187490820817
 20
137.6702727309454
 42
1.0
 10
195.8340285733963
 20
137.5862301708253
 42
1.0
 72
     4
 94
        3
 73
     1
 74
     0
 95
        8
 96
        4
 40
0.0
 40
0.0
 40
0.0
 40
0.0
 40
0.0021159962740237
 40
0.0021159962740237
 40
0.0021159962740237
 40
0.0021159962740237
 10
195.8340285733963
 20
137.5862301708253
 42
1.0
 10
195.1350870391897
 20
137.6582801077301
 42
1.0
 10
194.434902127248
 20
137.7237620667662
 42
1.0
 10
193.7340285733963
 20
137.7843582680431
 42
1.0
 72
     4
 94
        3
 73
     1
 74
     0
 95
        8
 96
        4
 40
0.0
 40
0.0
 40
0.0
 40
0.0
 40
0.0003524603847313
 40
0.0003524603847313
 40
0.0003524603847313
 40
0.0003524603847313
 10
193.7340285733963
 20
137.7843582680431
 42
1.0
 10
193.8507183849623
 20
137.7742694877349
 42
1.0
 10
193.9673857466994
 20
137.764043529576
 42
1.0
 10
194.0840285733963
 20
137.7536742754677
 42
1.0
 97
        0
 75
     0
 76
     1
 52
0.0
 41
1.0
 77
     0
 78
     4
 53
45.0
 43
0.0
 44
0.0
 45
-13.47038418160373
 46
13.47038418160373
 79
     0
 53
45.0
 43
4.49013
 44
0.0
 45
-13.47038418160373
 46
13.47038418160373
 79
     0
 53
45.0
 43
8.98026
 44
0.0
 45
-13.47038418160373
 46
13.47038418160373
 79
     0
 53
45.0
 43
13.4704
 44
0.0
 45
-13.47038418160373
 46
13.47038418160373
 79
     0
 98
        1
 10
0.0
 20
0.0
  0
HATCH
  5
46E
330
1F
100
AcDbEntity
  8
0
  6
Continuous
 62
     7
370
     0
100
AcDbHatch
 10
0.0
 20
0.0
 30
0.0
210
0.0
220
0.0
230
1.0
  2
ANSI34
 70
     0
 71
     0
 91
        1
 92
        0
 93
        8
 72
     4
 94
        3
 73
     1
 74
     0
 95
        8
 96
        4
 40
0.0
 40
0.0
 40
0.0
 40
0.0
 40
0.0003536190739086
 40
0.0003536190739086
 40
0.0003536190739086
 40
0.0003536190739086
 10
194.0840285733963
 20
133.7370727454427
 42
1.0
 10
193.9673930661847
 20
133.7267041420182
 42
1.0
 10
193.8507255830162
 20
133.7164781555056
 42
1.0
 10
193.7340285733963
 20
133.7063887528673
 42
1.0
 72
     4
 94
        3
 73
     1
 74
     0
 95
        8
 96
        4
 40
0.0
 40
0.0
 40
0.0
 40
0.0
 40
0.0021216665975016
 40
0.0021216665975016
 40
0.0021216665975016
 40
0.0021216665975016
 10
193.7340285733963
 20
133.7063887528673
 42
1.0
 10
194.4351115610299
 20
133.7670030613927
 42
1.0
 10
195.1353208025752
 20
133.832491010528
 42
1.0
 10
195.8340285733963
 20
133.9045168500851
 42
1.0
 72
     4
 94
        3
 73
     1
 74
     0
 95
        8
 96
        4
 40
0.0
 40
0.0
 40
0.0
 40
0.0
 40
0.0024740106356528
 40
0.0024740106356528
 40
0.0024740106356528
 40
0.0024740106356528
 10
195.8340285733963
 20
133.9045168500851
 42
1.0
 10
195.0190455967933
 20
133.8205048559926
 42
1.0
 10
194.2020690765409
 20
133.7453573305527
 42
1.0
 10
193.3840285733963
 20
133.6765396765456
 42
1.0
 72
     4
 94
        3
 73
     1
 74
     0
 95
        8
 96
        4
 40
0.0
 40
0.0
 40
0.0
 40
0.0
 40
0.0003528655693583
 40
0.0003528655693583
 40
0.0003528655693583
 40
0.0003528655693583
 10
193.3840285733963
 20
133.6765396765456
 42
1.0
 10
193.2673862218847
 20
133.6667271391981
 42
1.0
 10
193.1507189452537
 20
133.6570455871254
 42
1.0
 10
193.0340285733963
 20
133.6474898781462
 42
1.0
 72
     4
 94
        3
 73
     1
 74
     0
 95
        8
 96
        4
 40
0.0
 40
0.0
 40
0.0
 40
0.0
 40
0.0007601619794791
 40
0.0007601619794791
 40
0.0007601619794791
 40
0.0007601619794791
 10
193.0340285733963
 20
133.6474898781462
 42
1.0
 10
193.1666331012852
 20
133.6583487884201
 42
1.0
 10
193.2999814167141
 20
133.6694335281424
 42
1.0
 10
193.4340285733963
 20
133.6807540964268
 42
1.0
 72
     4
 94
        3
 73
     1
 74
     0
 95
        8
 96
        4
 40
0.0
 40
0.0
 40
0.0
 40
0.0
 40
0.0027269038613969
 40
0.0027269038613969
 40
0.0027269038613969
 40
0.0027269038613969
 10
193.4340285733963
 20
133.6807540964268
 42
1.0
 10
194.3357260417224
 20
133.7569043708127
 42
1.0
 10
195.2361621890158
 20
133.8407511895173
 42
1.0
 10
196.1340285733963
 20
133.9358659651877
 42
1.0
 72
     4
 94
        3
 73
     1
 74
     0
 95
        8
 96
        4
 40
0.0
 40
0.0
 40
0.0
 40
0.0
 40
0.0006822341253555
 40
0.0006822341253555
 40
0.0006822341253555
 40
0.0006822341253555
 10
196.1340285733963
 20
133.9358659651877
 42
1.0
 10
196.2677067373037
 20
133.9500270572981
 42
1.0
 10
196.4010436310557
 20
133.9644131453528
 42
1.0
 10
196.5340285733963
 20
133.9790383954128
 42
1.0
 72
     4
 94
        3
 73
     1
 74
     0
 95
        8
 96
        4
 40
0.0
 40
0.0
 40
0.0
 40
0.0
 40
0.0025228872449296
 40
0.0025228872449296
 40
0.0025228872449296
 40
0.0025228872449296
 10
196.5340285733963
 20
133.9790383954128
 42
1.0
 10
195.7200116122721
 20
133.8895154659744
 42
1.0
 10
194.902896031939
 20
133.8098680042607
 42
1.0
 10
194.0840285733963
 20
133.7370727454427
 42
1.0
 97
        0
 75
     0
 76
     1
 52
0.0
 41
1.0
 77
     0
 78
     4
 53
45.0
 43
0.0
 44
0.0
 45
-13.47038418160373
 46
13.47038418160373
 79
     0
 53
45.0
 43
4.49013
 44
0.0
 45
-13.47038418160373
 46
13.47038418160373
 79
     0
 53
45.0
 43
8.98026
 44
0.0
 45
-13.47038418160373
 46
13.47038418160373
 79
     0
 53
45.0
 43
13.4704
 44
0.0
 45
-13.47038418160373
 46
13.47038418160373
 79
     0
 98
        1
 10
0.0
 20
0.0
  0
HATCH
  5
46F
330
1F
100
AcDbEntity
  8
0
  6
Continuous
 62
     7
370
     0
100
AcDbHatch
 10
0.0
 20
0.0
 30
0.0
210
0.0
220
0.0
230
1.0
  2
ANSI32
 70
     0
 71
     0
 91
        1
 92
        0
 93
        2
 72
     4
 94
        3
 73
     1
 74
     0
 95
        8
 96
        4
 40
0.0
 40
0.0
 40
0.0
 40
0.0
 40
0.0007964431488521
 40
0.0007964431488521
 40
0.0007964431488521
 40
0.0007964431488521
 10
198.0340285733963
 20
137.3336848899041
 42
1.0
 10
197.7708812728906
 20
137.3674635342335
 42
1.0
 10
197.5075304321408
 20
137.3997775626017
 42
1.0
 10
197.2440285733963
 20
137.430859042251
 42
1.0
 72
     4
 94
        3
 73
     1
 74
     0
 95
        8
 96
        4
 40
0.0
 40
0.0
 40
0.0
 40
0.0
 40
0.0008018553420761
 40
0.0008018553420761
 40
0.0008018553420761
 40
0.0008018553420761
 10
197.2440285733963
 20
137.430859042251
 42
1.0
 10
197.5076880450776
 20
137.3997589712972
 42
1.0
 10
197.771056153179
 20
137.3674410858973
 42
1.0
 10
198.0340285733963
 20
137.3336848899041
 42
1.0
 97
        0
 75
     0
 76
     1
 52
0.0
 41
1.0
 77
     0
 78
     2
 53
45.0
 43
0.0
 44
0.0
 45
-6.735192090801865
 46
6.735192090801866
 79
     0
 53
45.0
 43
4.49013
 44
0.0
 45
-6.735192090801865
 46
6.735192090801866
 79
     0
 98
        1
 10
0.0
 20
0.0
  0
HATCH
  5
470
330
1F
100
AcDbEntity
  8
0
  6
Continuous
 62
     7
370
     0
100
AcDbHatch
 10
0.0
 20
0.0
 30
0.0
210
0.0
220
0.0
230
1.0
  2
ANSI32
 70
     0
 71
     0
 91
        1
 92
        0
 93
        2
 72
     4
 94
        3
 73
     1
 74
     0
 95
        8
 96
        4
 40
0.0
 40
0.0
 40
0.0
 40
0.0
 40
0.0008022675522377
 40
0.0008022675522377
 40
0.0008022675522377
 40
0.0008022675522377
 10
197.2440285733963
 20
134.0598879786594
 42
1.0
 10
197.507669386496
 20
134.0909858487319
 42
1.0
 10
197.7710333958388
 20
134.1233030137895
 42
1.0
 10
198.0340285733963
 20
134.1570621310063
 42
1.0
 72
     4
 94
        3
 73
     1
 74
     0
 95
        8
 96
        4
 40
0.0
 40
0.0
 40
0.0
 40
0.0
 40
0.0008068901576153
 40
0.0008068901576153
 40
0.0008068901576153
 40
0.0008068901576153
 10
198.0340285733963
 20
134.1570621310063
 42
1.0
 10
197.7711396401351
 20
134.1233166517341
 42
1.0
 10
197.5077672502084
 20
134.0909973922899
 42
1.0
 10
197.2440285733963
 20
134.0598879786594
 42
1.0
 97
        0
 75
     0
 76
     1
 52
0.0
 41
1.0
 77
     0
 78
     2
 53
45.0
 43
0.0
 44
0.0
 45
-6.735192090801865
 46
6.735192090801866
 79
     0
 53
45.0
 43
4.49013
 44
0.0
 45
-6.735192090801865
 46
6.735192090801866
 79
     0
 98
        1
 10
0.0
 20
0.0
  0
HATCH
  5
471
330
1F
100
AcDbEntity
  8
0
  6
Continuous
 62
     7
370
     0
100
AcDbHatch
 10
0.0
 20
0.0
 30
0.0
210
0.0
220
0.0
230
1.0
  2
ANSI32
 70
     0
 71
     0
 91
        1
 92
        0
 93
        3
 72
     4
 94
        3
 73
     1
 74
     0
 95
       44
 96
       40
 40
0.0
 40
0.0
 40
0.0
 40
0.0
 40
0.0010058643286475
 40
0.0010058643286475
 40
0.0010058643286475
 40
0.0012551434339276
 40
0.0012551434339276
 40
0.0012551434339276
 40
0.0014657463924448
 40
0.0014657463924448
 40
0.0014657463924448
 40
0.0016417915710904
 40
0.0016417915710904
 40
0.0016417915710904
 40
0.0018571077641313
 40
0.0018571077641313
 40
0.0018571077641313
 40
0.0021846950975878
 40
0.0021846950975878
 40
0.0021846950975878
 40
0.0025159885801712
 40
0.0025159885801712
 40
0.0025159885801712
 40
0.0027746696041436
 40
0.0027746696041436
 40
0.0027746696041436
 40
0.0029545607436661
 40
0.0029545607436661
 40
0.0029545607436661
 40
0.0031346165554155
 40
0.0031346165554155
 40
0.0031346165554155
 40
0.0034079028010974
 40
0.0034079028010974
 40
0.0034079028010974
 40
0.0041924495190497
 40
0.0041924495190497
 40
0.0041924495190497
 40
0.0044951800796021
 40
0.0044951800796021
 40
0.0044951800796021
 40
0.0044951800796021
 10
202.3505285733963
 20
136.547275917295
 42
1.0
 10
202.6724856268609
 20
136.4542972236284
 42
1.0
 10
202.9989026454715
 20
136.3483571476699
 42
1.0
 10
203.2870369667932
 20
136.1966603687438
 42
1.0
 10
203.3592911743946
 20
136.1586200183034
 42
1.0
 10
203.4292216479481
 20
136.116951490154
 42
1.0
 10
203.4914430715962
 20
136.0713500154029
 42
1.0
 10
203.5438062499397
 20
136.0329735525204
 42
1.0
 10
203.5914260888722
 20
135.9908260466293
 42
1.0
 10
203.6274673972401
 20
135.9482235967551
 42
1.0
 10
203.6576114656726
 20
135.9125919501098
 42
1.0
 10
203.6799336466074
 20
135.8759914088331
 42
1.0
 10
203.6933485036686
 20
135.8429779759142
 42
1.0
 10
203.7097459709134
 20
135.8026244572406
 42
1.0
 10
203.7138187759792
 20
135.7667879260892
 42
1.0
 10
203.7130910094359
 20
135.7390646505348
 42
1.0
 10
203.7119872730588
 20
135.697019316076
 42
1.0
 10
203.7019446864666
 20
135.6715884591312
 42
1.0
 10
203.6996259814294
 20
135.6646847919738
 42
1.0
 10
203.6972840782675
 20
135.6577120551725
 42
1.0
 10
203.703036207907
 20
135.6695522885386
 42
1.0
 10
203.708730244163
 20
135.6991598470381
 42
1.0
 10
203.7131938914861
 20
135.7223696920937
 42
1.0
 10
203.7168693694149
 20
135.7572241659508
 42
1.0
 10
203.7067360319094
 20
135.8009980855451
 42
1.0
 10
203.6996783377946
 20
135.8314858626012
 42
1.0
 10
203.6851453709731
 20
135.8669452954752
 42
1.0
 10
203.6613629467923
 20
135.9031264006803
 42
1.0
 10
203.6375460642861
 20
135.9393599286449
 42
1.0
 10
203.6040551741386
 20
135.9769240646754
 42
1.0
 10
203.5649251982285
 20
136.0120484706901
 42
1.0
 10
203.5056690280461
 20
136.0652388377156
 42
1.0
 10
203.4327628694135
 20
136.1144912171254
 42
1.0
 10
203.3564457035732
 20
136.1584677132465
 42
1.0
 10
203.1390735867756
 20
136.2837247762666
 42
1.0
 10
202.8890108462705
 20
136.3768508600495
 42
1.0
 10
202.6411981736182
 20
136.4580283232528
 42
1.0
 10
202.5449745242782
 20
136.4895488733117
 42
1.0
 10
202.4479632532347
 20
136.5191375393601
 42
1.0
 10
202.3505285733963
 20
136.547275917295
 42
1.0
 72
     4
 94
        3
 73
     1
 74
     0
 95
        8
 96
        4
 40
0.0
 40
0.0
 40
0.0
 40
0.0
 40
0.0003087559624973
 40
0.0003087559624973
 40
0.0003087559624973
 40
0.0003087559624973
 10
202.3505285733963
 20
136.547275917295
 42
1.0
 10
202.2783020516429
 20
136.5681343751807
 42
1.0
 10
202.2061077238897
 20
136.5881121132009
 42
1.0
 10
202.1340285733963
 20
136.607360856177
 42
1.0
 72
     4
 94
        3
 73
     1
 74
     0
 95
        8
 96
        4
 40
0.0
 40
0.0
 40
0.0
 40
0.0
 40
0.0003087559624973
 40
0.0003087559624973
 40
0.0003087559624973
 40
0.0003087559624973
 10
202.1340285733963
 20
136.607360856177
 42
1.0
 10
202.2061077238897
 20
136.5881121132009
 42
1.0
 10
202.2783020516429
 20
136.5681343751807
 42
1.0
 10
202.3505285733963
 20
136.547275917295
 42
1.0
 97
        0
 75
     0
 76
     1
 52
0.0
 41
1.0
 77
     0
 78
     2
 53
45.0
 43
0.0
 44
0.0
 45
-6.735192090801865
 46
6.735192090801866
 79
     0
 53
45.0
 43
4.49013
 44
0.0
 45
-6.735192090801865
 46
6.735192090801866
 79
     0
 98
        1
 10
0.0
 20
0.0
  0
LINE
  5
472
330
1F
100
AcDbEntity
  8
0
  6
Continuous
 62
     7
370
     0
100
AcDbLine
 10
190.0340285473
 20
137.1835706407
 30
0.0
 11
196.0340285995
 21
137.1835706407
 31
0.0
  0
LINE
  5
473
330
1F
100
AcDbEntity
  8
0
  6
Continuous
 62
     7
370
     0
100
AcDbLine
 10
196.0340285995
 20
134.183570149
 30
0.0
 11
190.0340285473
 21
134.183570149
 31
0.0
  0
LINE
  5
474
330
1F
100
AcDbEntity
  8
0
  6
Continuous
 62
     7
370
     0
100
AcDbLine
 10
196.0340285995
 20
134.4335706556
 30
0.0
 11
196.0340285995
 21
134.183570149
 31
0.0
  0
LINE
  5
475
330
1F
100
AcDbEntity
  8
0
  6
Continuous
 62
     7
370
     0
100
AcDbLine
 10
196.0340285995
 20
137.1835706407
 30
0.0
 11
196.0340285995
 21
136.9335701341
 31
0.0
  0
LWPOLYLINE
  5
476
330
1F
100
AcDbEntity
  8
0
  6
Continuous
 62
     7
370
     0
100
AcDbPolyline
 90
       10
 70
   128
 43
0.0
 10
196.0339546204
 20
134.4335706556
 10
196.0340285995
 20
134.5089537675
 10
196.0340285995
 20
134.7260133946
 10
196.0340285995
 20
135.0585700596
 10
196.0340285995
 20
135.4665098364
 10
196.0340285995
 20
135.9006309534
 10
196.0340285995
 20
136.3085707301
 10
196.0340285995
 20
136.6411255324
 10
196.0340285995
 20
136.8581851596
 10
196.0340285995
 20
136.9335701341
  0
LINE
  5
477
330
1F
100
AcDbEntity
  8
0
  6
Continuous
 62
     7
370
     0
100
AcDbLine
 10
217.6340277628
 20
198.989649641
 30
0.0
 11
217.6340277628
 21
198.9162353451
 31
0.0
  0
LWPOLYLINE
  5
478
330
1F
100
AcDbEntity
  8
0
  6
Continuous
 62
     7
370
     0
100
AcDbPolyline
 90
        5
 70
   128
 43
0.0
 10
217.6339626312
 20
198.9162353451
 10
217.6340277628
 20
198.703174817
 10
217.6340277628
 20
198.3713259572
 10
217.6340277628
 20
197.9531732971
 10
217.6340277628
 20
197.4896503264
  0
LINE
  5
479
330
1F
100
AcDbEntity
  8
0
  6
Continuous
 62
     7
370
     0
100
AcDbLine
 10
217.6340277628
 20
140.9335689271
 30
0.0
 11
217.6340277628
 21
140.8601546312
 31
0.0
  0
LWPOLYLINE
  5
47A
330
1F
100
AcDbEntity
  8
0
  6
Continuous
 62
     7
370
     0
100
AcDbPolyline
 90
        5
 70
   128
 43
0.0
 10
217.6339626312
 20
140.8601546312
 10
217.6340277628
 20
140.6470959658
 10
217.6340277628
 20
140.315247106
 10
217.6340277628
 20
139.8970944459
 10
217.6340277628
 20
139.4335696126
  0
LINE
  5
47B
330
1F
100
AcDbEntity
  8
0
  6
CENTERX2
 62
     7
370
     0
100
AcDbLine
 10
247.7289788901
 20
160.6835698361
 30
0.0
 11
185.2514803226
 21
160.6835698361
 31
0.0
  0
LINE
  5
47C
330
1F
100
AcDbEntity
  8
0
  6
CENTERX2
 62
     7
370
     0
100
AcDbLine
 10
239.4311152655
 20
179.9335698361
 30
0.0
 11
234.2340285734
 21
179.9335698361
 31
0.0
  0
LINE
  5
47D
330
1F
100
AcDbEntity
  8
0
  6
CENTERX2
 62
     7
370
     0
100
AcDbLine
 10
234.2340285734
 20
179.9335698361
 30
0.0
 11
233.5340285734
 21
179.9335698361
 31
0.0
  0
LINE
  5
47E
330
1F
100
AcDbEntity
  8
0
  6
CENTERX2
 62
     7
370
     0
100
AcDbLine
 10
233.5340285734
 20
179.9335698361
 30
0.0
 11
233.0340285734
 21
179.9335698361
 31
0.0
  0
LINE
  5
47F
330
1F
100
AcDbEntity
  8
0
  6
CENTERX2
 62
     7
370
     0
100
AcDbLine
 10
233.0340285734
 20
179.9335698361
 30
0.0
 11
229.7158143433
 21
179.9335698361
 31
0.0
  0
LINE
  5
480
330
1F
100
AcDbEntity
  8
0
  6
CENTERX2
 62
     7
370
     0
100
AcDbLine
 10
231.3182761076
 20
127.3415917904
 30
0.0
 11
239.1589763929
 21
127.3415917904
 31
0.0
  0
LINE
  5
481
330
1F
100
AcDbEntity
  8
0
  6
CENTERX2
 62
     7
370
     0
100
AcDbLine
 10
204.1629049185
 20
135.6835698361
 30
0.0
 11
184.1262109024
 21
135.6835698361
 31
0.0
  0
LINE
  5
482
330
1F
100
AcDbEntity
  8
0
  6
CENTERX2
 62
     7
370
     0
100
AcDbLine
 10
236.7840285734
 20
189.6810425882
 30
0.0
 11
236.7840285734
 21
218.6835698359
 31
0.0
  0
LINE
  5
483
330
1F
100
AcDbEntity
  8
0
  6
CENTERX2
 62
     7
370
     0
100
AcDbLine
 10
239.6340285734
 20
189.8327298002
 30
0.0
 11
239.6340285734
 21
218.6835698359
 31
0.0
  0
ENDSEC
  0
SECTION
  2
OBJECTS
  0
DICTIONARY
  5
C
330
0
100
AcDbDictionary
281
     1
  3
ACAD_GROUP
350
D
  3
ACAD_LAYOUT
350
1A
  3
ACAD_MLINESTYLE
350
17
  3
ACAD_PLOTSETTINGS
350
19
  3
ACAD_PLOTSTYLENAME
350
E
  3
ACAD_SCALELIST
350
47
  0
DICTIONARY
  5
D
102
{ACAD_REACTORS
330
C
102
}
330
C
100
AcDbDictionary
281
     1
  0
DICTIONARY
  5
1A
102
{ACAD_REACTORS
330
C
102
}
330
C
100
AcDbDictionary
281
     1
  3
Layout1
350
1E
  3
Layout2
350
26
  3
Model
350
22
  0
DICTIONARY
  5
17
102
{ACAD_REACTORS
330
C
102
}
330
C
100
AcDbDictionary
281
     1
  3
Standard
350
18
  0
DICTIONARY
  5
19
102
{ACAD_REACTORS
330
C
102
}
330
C
100
AcDbDictionary
281
     1
  0
ACDBDICTIONARYWDFLT
  5
E
102
{ACAD_REACTORS
330
C
102
}
330
C
100
AcDbDictionary
281
     1
  3
Normal
350
F
100
AcDbDictionaryWithDefault
340
F
  0
DICTIONARY
  5
47
102
{ACAD_REACTORS
330
C
102
}
330
C
100
AcDbDictionary
281
     1
  3
A0
350
48
  3
A1
350
49
  3
A2
350
4A
  3
A3
350
4B
  3
A4
350
4C
  3
A5
350
4D
  3
A6
350
4E
  3
A7
350
4F
  3
A8
350
50
  3
A9
350
51
  3
B0
350
52
  3
B1
350
53
  3
B2
350
54
  3
B3
350
55
  3
B4
350
56
  3
B5
350
57
  3
B6
350
58
  3
B7
350
59
  3
B8
350
5A
  3
B9
350
5B
  3
C0
350
5C
  3
C1
350
5D
  3
C2
350
5E
  3
C3
350
5F
  3
C4
350
60
  3
C5
350
61
  3
C6
350
62
  3
C7
350
63
  3
C8
350
64
  3
C9
350
65
  3
D0
350
66
  3
D1
350
67
  3
D2
350
68
  0
LAYOUT
  5
1E
102
{ACAD_REACTORS
330
1A
102
}
330
1A
100
AcDbPlotSettings
  1

  2
none_device
  4

  6

 40
0.0
 41
0.0
 42
0.0
 43
0.0
 44
0.0
 45
0.0
 46
0.0
 47
0.0
 48
0.0
 49
0.0
140
0.0
141
0.0
142
1.0
143
1.0
 70
   688
 72
     1
 73
     0
 74
     5
  7

 75
    16
147
1.0
148
0.0
149
0.0
100
AcDbLayout
  1
Layout1
 70
     1
 71
     1
 10
0.0
 20
0.0
 11
420.0
 21
297.0
 12
0.0
 22
0.0
 32
0.0
 14
1.0000000000E+20
 24
1.0000000000E+20
 34
1.0000000000E+20
 15
-1.0000000000E+20
 25
-1.0000000000E+20
 35
-1.0000000000E+20
146
0.0
 13
0.0
 23
0.0
 33
0.0
 16
1.0
 26
0.0
 36
0.0
 17
0.0
 27
1.0
 37
0.0
 76
     0
330
1B
  0
LAYOUT
  5
26
102
{ACAD_REACTORS
330
1A
102
}
330
1A
100
AcDbPlotSettings
  1

  2
none_device
  4

  6

 40
0.0
 41
0.0
 42
0.0
 43
0.0
 44
0.0
 45
0.0
 46
0.0
 47
0.0
 48
0.0
 49
0.0
140
0.0
141
0.0
142
1.0
143
1.0
 70
   688
 72
     1
 73
     0
 74
     5
  7

 75
    16
147
1.0
148
0.0
149
0.0
100
AcDbLayout
  1
Layout2
 70
     1
 71
     2
 10
0.0
 20
0.0
 11
0.0
 21
0.0
 12
0.0
 22
0.0
 32
0.0
 14
0.0
 24
0.0
 34
0.0
 15
0.0
 25
0.0
 35
0.0
146
0.0
 13
0.0
 23
0.0
 33
0.0
 16
1.0
 26
0.0
 36
0.0
 17
0.0
 27
1.0
 37
0.0
 76
     0
330
23
  0
LAYOUT
  5
22
102
{ACAD_REACTORS
330
1A
102
}
330
1A
100
AcDbPlotSettings
  1

  2
none_device
  4
Letter_(8.50_x_11.00_Inches)
  6

 40
6.35
 41
6.35
 42
6.35000508
 43
6.35000508
 44
215.9
 45
279.4
 46
0.0
 47
0.0
 48
0.0
 49
0.0
140
0.0
141
0.0
142
1.0
143
1.0
 70
  1712
 72
     1
 73
     0
 74
     0
  7

 75
     0
147
1.0
148
0.0
149
0.0
100
AcDbLayout
  1
Model
 70
     1
 71
     0
 10
0.0
 20
0.0
 11
420.0
 21
297.0
 12
0.0
 22
0.0
 32
0.0
 14
0.0
 24
0.0
 34
0.0
 15
420.0
 25
297.0
 35
0.0
146
0.0
 13
0.0
 23
0.0
 33
0.0
 16
1.0
 26
0.0
 36
0.0
 17
0.0
 27
1.0
 37
0.0
 76
     0
330
1F
331
29
  0
MLINESTYLE
  5
18
102
{ACAD_REACTORS
330
17
102
}
330
17
100
AcDbMlineStyle
  2
Standard
 70
     0
  3

 62
   256
 51
90.0
 52
90.0
 71
     2
 49
0.5
 62
   256
  6
BYLAYER
 49
-0.5
 62
   256
  6
BYLAYER
  0
ACDBPLACEHOLDER
  5
F
102
{ACAD_REACTORS
330
E
102
}
330
E
  0
SCALE
  5
48
102
{ACAD_REACTORS
330
47
102
}
330
47
100
AcDbScale
 70
     0
300
1:1
140
1.0
141
1.0
290
     1
  0
SCALE
  5
49
102
{ACAD_REACTORS
330
47
102
}
330
47
100
AcDbScale
 70
     0
300
1:2
140
1.0
141
2.0
290
     0
  0
SCALE
  5
4A
102
{ACAD_REACTORS
330
47
102
}
330
47
100
AcDbScale
 70
     0
300
1:4
140
1.0
141
4.0
290
     0
  0
SCALE
  5
4B
102
{ACAD_REACTORS
330
47
102
}
330
47
100
AcDbScale
 70
     0
300
1:5
140
1.0
141
5.0
290
     0
  0
SCALE
  5
4C
102
{ACAD_REACTORS
330
47
102
}
330
47
100
AcDbScale
 70
     0
300
1:8
140
1.0
141
8.0
290
     0
  0
SCALE
  5
4D
102
{ACAD_REACTORS
330
47
102
}
330
47
100
AcDbScale
 70
     0
300
1:10
140
1.0
141
10.0
290
     0
  0
SCALE
  5
4E
102
{ACAD_REACTORS
330
47
102
}
330
47
100
AcDbScale
 70
     0
300
1:16
140
1.0
141
16.0
290
     0
  0
SCALE
  5
4F
102
{ACAD_REACTORS
330
47
102
}
330
47
100
AcDbScale
 70
     0
300
1:20
140
1.0
141
20.0
290
     0
  0
SCALE
  5
50
102
{ACAD_REACTORS
330
47
102
}
330
47
100
AcDbScale
 70
     0
300
1:30
140
1.0
141
30.0
290
     0
  0
SCALE
  5
51
102
{ACAD_REACTORS
330
47
102
}
330
47
100
AcDbScale
 70
     0
300
1:40
140
1.0
141
40.0
290
     0
  0
SCALE
  5
52
102
{ACAD_REACTORS
330
47
102
}
330
47
100
AcDbScale
 70
     0
300
1:50
140
1.0
141
50.0
290
     0
  0
SCALE
  5
53
102
{ACAD_REACTORS
330
47
102
}
330
47
100
AcDbScale
 70
     0
300
1:100
140
1.0
141
100.0
290
     0
  0
SCALE
  5
54
102
{ACAD_REACTORS
330
47
102
}
330
47
100
AcDbScale
 70
     0
300
2:1
140
2.0
141
1.0
290
     0
  0
SCALE
  5
55
102
{ACAD_REACTORS
330
47
102
}
330
47
100
AcDbScale
 70
     0
300
4:1
140
4.0
141
1.0
290
     0
  0
SCALE
  5
56
102
{ACAD_REACTORS
330
47
102
}
330
47
100
AcDbScale
 70
     0
300
8:1
140
8.0
141
1.0
290
     0
  0
SCALE
  5
57
102
{ACAD_REACTORS
330
47
102
}
330
47
100
AcDbScale
 70
     0
300
10:1
140
10.0
141
1.0
290
     0
  0
SCALE
  5
58
102
{ACAD_REACTORS
330
47
102
}
330
47
100
AcDbScale
 70
     0
300
100:1
140
100.0
141
1.0
290
     0
  0
SCALE
  5
59
102
{ACAD_REACTORS
330
47
102
}
330
47
100
AcDbScale
 70
     0
300
1/128" = 1'-0"
140
0.0078125
141
12.0
290
     0
  0
SCALE
  5
5A
102
{ACAD_REACTORS
330
47
102
}
330
47
100
AcDbScale
 70
     0
300
1/64" = 1'-0"
140
0.015625
141
12.0
290
     0
  0
SCALE
  5
5B
102
{ACAD_REACTORS
330
47
102
}
330
47
100
AcDbScale
 70
     0
300
1/32" = 1'-0"
140
0.03125
141
12.0
290
     0
  0
SCALE
  5
5C
102
{ACAD_REACTORS
330
47
102
}
330
47
100
AcDbScale
 70
     0
300
1/16" = 1'-0"
140
0.0625
141
12.0
290
     0
  0
SCALE
  5
5D
102
{ACAD_REACTORS
330
47
102
}
330
47
100
AcDbScale
 70
     0
300
3/32" = 1'-0"
140
0.09375
141
12.0
290
     0
  0
SCALE
  5
5E
102
{ACAD_REACTORS
330
47
102
}
330
47
100
AcDbScale
 70
     0
300
1/8" = 1'-0"
140
0.125
141
12.0
290
     0
  0
SCALE
  5
5F
102
{ACAD_REACTORS
330
47
102
}
330
47
100
AcDbScale
 70
     0
300
3/16" = 1'-0"
140
0.1875
141
12.0
290
     0
  0
SCALE
  5
60
102
{ACAD_REACTORS
330
47
102
}
330
47
100
AcDbScale
 70
     0
300
1/4" = 1'-0"
140
0.25
141
12.0
290
     0
  0
SCALE
  5
61
102
{ACAD_REACTORS
330
47
102
}
330
47
100
AcDbScale
 70
     0
300
3/8" = 1'-0"
140
0.375
141
12.0
290
     0
  0
SCALE
  5
62
102
{ACAD_REACTORS
330
47
102
}
330
47
100
AcDbScale
 70
     0
300
1/2" = 1'-0"
140
0.5
141
12.0
290
     0
  0
SCALE
  5
63
102
{ACAD_REACTORS
330
47
102
}
330
47
100
AcDbScale
 70
     0
300
3/4" = 1'-0"
140
0.75
141
12.0
290
     0
  0
SCALE
  5
64
102
{ACAD_REACTORS
330
47
102
}
330
47
100
AcDbScale
 70
     0
300
1" = 1'-0"
140
1.0
141
12.0
290
     0
  0
SCALE
  5
65
102
{ACAD_REACTORS
330
47
102
}
330
47
100
AcDbScale
 70
     0
300
1-1/2" = 1'-0"
140
1.5
141
12.0
290
     0
  0
SCALE
  5
66
102
{ACAD_REACTORS
330
47
102
}
330
47
100
AcDbScale
 70
     0
300
3" = 1'-0"
140
3.0
141
12.0
290
     0
  0
SCALE
  5
67
102
{ACAD_REACTORS
330
47
102
}
330
47
100
AcDbScale
 70
     0
300
6" = 1'-0"
140
6.0
141
12.0
290
     0
  0
SCALE
  5
68
102
{ACAD_REACTORS
330
47
102
}
330
47
100
AcDbScale
 70
     0
300
1'-0" = 1'-0"
140
12.0
141
12.0
290
     0
  0
ENDSEC
  0
EOF
